Oops, an error
Loading. Please wait.

Dark Chest Of Wonders Live Tab

3,079 views 3 this week
5 commentsread comments
1 2 3 4 5
excellent!
x 2
Autoscroll
+/-
esc
set tempo
stop
Contributor
Hey! There's an official Ultimate Guitar app which is ideal
for learning songs when you're away from computer. Get the app
WARNING: You are trying to view
                                    content from Ultimate-Guitar.com
                                    in an unauthorized application,
                                    which is prohibited.

                                    Please use an official Ultimate
                                    Guitar Tabs application for iPhone,
                                    iPad or Android to access legitimate
                                    chords, guitar, bass, and drum tabs
                                    from Ultimate-Guitar.com database.

                                    Type "ultimate guitar tabs" in Apple
                                    App Store's or Android Market's
                                    search to find the application.
-------------------------------------------------------------------------------
                             Dark Chest of Wonders - Nightwish
-------------------------------------------------------------------------------
Tabbed by: littleleo88
Email: b.gillam@gmail.com

This is the opening track from the Nightwish – End of an Era DVD, as played live.

Tuning: D  (DGCFAD)
Intro  0:39
e|-------------------------------------------------------------------------------------------|
B|-------------------------------------------------------------------------------------------|
G|----------------2---------------------------2--------------------------------2-------------|
D|-----4-----5----2-----5-----4-4--4-----5----2-----5-----4-5-4-2--4-----5-----2-4/5-5/8-8\7-|
A|-----4-----5----0-0-0-5-----4-4--4-----5----0-----5-----4-5-4-2--4-----5-----0-4/5-5/8-8\7-|
E|-17\-2-2-2-3-3-3------3-3-3-2-2--2-2-2-3-3-3--0-0-3-3-3-2-3-2-0--2-2-2-3-3-3---2/3-3/6-6\5-|
         . .   . .  . .   . .        . .   . .  . .   . .            . .   . .  

e|------------------------------------------------------------------|
B|------------------------------------------------------------------|
G|------------------------------------------------------------------|
D|-5\4-2-4--5\4-2-4-------------------------------------------------|
A|-5\4-2-4--5\4-2-4-------------------------------------------------|
E|-3\2-0-2—-3\2-0-2-------------------------------------------------|

0:48 slight pinched harmonic sound to this part with some added effects.
e|---------------------------------------------------------------------------|
B|---------------------------------------------------------------------------|
G|---------------------------------------------------------------------------|
D|---------------------------------------------------------------------------|
A|---------------------------------------------------------------------------|
E|-17\-2-5-2-2-3-2-2-5-2-2-3-2-2-5-2-3-2-5-2-2-3-2-2-5-2-2-3-2-2-5-2-3-2-----|

e|---------------------------------------------------------------------------|
B|---------------------------------------------------------------------------|
G|---------------------------------------------<5>\------/-------------------|
D|-----------------4/5-5/8-8\7-7\5--3/5-5/7-7------\--/\/--------------------|
A|-----------------4/5-5/8-8\7-7\5--3/5-5/7-7-------\/-----------------------|
E|-5-2-2-3-2-2-5-2-2/3-3/6-6\5-5\3--1/3-3/5-5--------------------------------|

1:00
e|-------------------------------------------------------------------------------------------|
B|-------------------------------------------------------------------------------------------|
G|----------------2---------------------------2--------------------------------2-------------|
D|-----4-----5----2-----5-----4-4--4-----5----2-----5-----4-5-4-2--4-----5-----2-4/5-5/8-8\7-|
A|-----4-----5----0-0-0-5-----4-4--4-----5----0-----5-----4-5-4-2--4-----5-----0-4/5-5/8-8\7-|
E|-17\-2-2-2-3-3-3------3-3-3-2-2--2-2-2-3-3-3--0-0-3-3-3-2-3-2-0--2-2-2-3-3-3---2/3-3/6-6\5-|
         . .   . .  . .   . .        . .   . .  . .   . .            . .   . .  

e|------------------------------------------------------------------|
B|------------------------------------------------------------------|
G|-------------------5-5--------------------------------------------|
D|-5\4-2-4--5\4-2-4--5-5--------------------------------------------|
A|-5\4-2-4--5\4-2-4--3-3--------------------------------------------|
E|-3\2-0-2—-3\2-0-2-------------------------------------------------|

1:10
e|-----------------------------------------------------------------------------|
B|-----------------------------------------------------------------------------|
G|----------------2---------------------------2--------------------------------|
D|-----4-----5----2-----5-----4-4--4-----5----2-----5-----4-5-4-2--4-----5-----|
A|-----4-----5----0-0-0-5-----4-4--4-----5----0-----5-----4-5-4-2--4-----5-----|
E|-17\-2-2-2-3-3-3------3-3-3-2-2--2-2-2-3-3-3--0-0-3-3-3-2-3-2-0--2-2-2-3-3-3-|
         . .   . .  . .   . .        . .   . .  . .   . .            . .   . .  

e|---------------------------------------------------------------------------|
B|---------------------------------------------------------------------------|
G|----------------------6--4--2----------------------------------------------|
D|-6/7-7/8--8\7--7\5----6--4--2----------------------------------------------|
A|-6/7-7/8--8\7--7\5----4--2--0----------------------------------------------|
E|-4/5—5/6--6\5--5\3---------------------------------------------------------|


1:20
e|-----------------------------------------------------------------------------|
B|-----------------------------------------------------------------------------|
G|-2-------------------2-----------2---2-----------------------4-2-2-4---------|
D|-2-----------------5-2---------5-2-5-2---------------------5-4-2-2-4---------|
A|-0-0-0-0-0-0-0-0-0-5-0-0-0-0-0-5-0-5-0-0-0-0-0-0-0-0-0-0-0-5-2-0-0-2-2-2-2-2-|
E|-------------------3-----------3---3-----------------------3-----------------|
     . . . . . . . .     . . . .         . . . . . . . . . .           . . . .

e|----------------------------------------------------------------------------|
B|----------------------------------------------------------------------------|
G|---------2-4---------2-4-2-4---------------------2--------------------------|
D|---------2-4---------2-4-2-4---------------------2--5-----------------------|
A|-2-2-2-2-0-2-2-2-2-2-0-2-0-2-2-2-2-2-2-2-2-2-2-2-0--5-----------------------|
E|----------------------------------------------------3-----------------------|
   . . . .     . . . .         . . . . . . . . . .

1:37
e|---------------------------------------------------------------------------|
B|---------------------------------------------------------------------------|
G|---------------------------------------------------------------------------|
D|---------4-----4-----4--------------4-----4-----4--------------------------|
A|---------4-----4-----4--------------4-----4-----4--------------------------|
E|-21\-2-2-2-2-2-2-2-2-2-0-2-4-0--2-2-2-2-2-2-2-2-2-0-2-4-0------------------|
       . .   . .   . .            . .   . .   . . 

e|--------------------------------------------------------------------------|
B|--------------------------------------------------------------------------|
G|-----4-----4-----4-4-4-4-----------------2--2-----------------------------|
D|-----4-----4-----4-4-4-4-----5-----5-----2--2-----------------------------|
A|-2-2-2-2-2-2-2-2-2-2-2-2-----5-----5-----0--0-----------------------------|
E|-------------------------3-3-3-3-3-3-3-3----------------------------------|
   . .   . .   . .         . .   . .   . .

e|-----------------------------------------------------------------------|
B|-----------------------------------------------------------------------|
G|-----------------------------------------------------------------------|
D|-----4-----4-----4--------------4-----4-----4--------------------------|
A|-----4-----4-----4--------------4-----4-----4--------------------------|
E|-2-2-2-2-2-2-2-2-2-0-2-4-0--2-2-2-2-2-2-2-2-2-0-2-4-0------------------|
   . .   . .   . .            . .   . .   . . 

e|--------------------------------------------------------------------------|
B|--------------------------------------------------------------------------|
G|-----4-----4-----4-4-4-4---7----------------------------------------------|
D|-----4-----4-----4-4-4-4---7---7------------------------------------------|
A|-2-2-2-2-2-2-2-2-2-2-2-2---5---7------------------------------------------|
E|-------------------------------5------------------------------------------|
   . .   . .   . .         

Solo   1:58
e|---------------------------------------------------------------------------|
B|---------------------------------------------------------------------------|
G|----------9-10-7-9---------------7-9-7----------9-10-7-9------7-7----------|
D|-7-7-9-10----------10-9-7-7-9-10-------7-7-9-10----------10-9-----10-9-7-7-|
A|---------------------------------------------------------------------------|
E|---------------------------------------------------------------------------|

e|-------------------------------------------------------------------------------------|
B|-------------------------------------------------------------------------------------|
G|----------11-12-9-11-----------------9-11-9----------11-12-9-11------9-9-------------|
D|-9-9-11-12----------12-11-9-9-11-12---------9-9-11-12----------12-11-----12-11-<9>\--|
A|-----------------------------------------------------------------------------------\-|
E|------------------------------------------------------------------------------------\|

e|-----------------------------------------------------------------------|
B|-----------------------------------------------------------------------|
G|-----------------------------------------------------------------------|
D|-----4-----4-----4--------------4-----4-----4--------------------------|
A|-----4-----4-----4--------------4-----4-----4--------------------------|
E|-2-2-2-2-2-2-2-2-2-0-2-4-0--2-2-2-2-2-2-2-2-2-0-2-4-0------------------|
   . .   . .   . .            . .   . .   . . 

e|--------------------------------------------------------------------------|
B|--------------------------------------------------------------------------|
G|-----4-----4-----4-4-4-4-----------------2--2-----------------------------|
D|-----4-----4-----4-4-4-4-----5-----5-----2--2-----------------------------|
A|-2-2-2-2-2-2-2-2-2-2-2-2-----5-----5-----0--0-----------------------------|
E|-------------------------3-3-3-3-3-3-3-3----------------------------------|
   . .   . .   . .         . .   . .   . .

e|-----------------------------------------------------------------------|
B|-----------------------------------------------------------------------|
G|-----------------------------------------------------------------------|
D|-----4-----4-----4--------------4-----4-----4--------------------------|
A|-----4-----4-----4--------------4-----4-----4--------------------------|
E|-2-2-2-2-2-2-2-2-2-0-2-4-0--2-2-2-2-2-2-2-2-2-0-2-4-0------------------|
   . .   . .   . .            . .   . .   . . 

e|--------------------------------------------------------------------------|
B|--------------------------------------------------------------------------|
G|-----4-----4-----4-4-4-4---7----------------------------------------------|
D|-----4-----4-----4-4-4-4---7---7------------------------------------------|
A|-2-2-2-2-2-2-2-2-2-2-2-2---5---7------------------------------------------|
E|-------------------------------5------------------------------------------|
   . .   . .   . .         

Chorus 2:31
e|-----------------------------------------------------------------------------------|
B|-----------------------------------------------------------------------------------|
G|-4--------------7------------------2---4\/\----4----7-----------2---------2--------|
D|-4-------5------7-----2----4----5--2---4\/\----4----7---5---2---2---4--5--2--------|
A|-2-------5------5-----2----4----5--0---2\/\----2----5---5---2---0---4--5--0--------|
E|---------3------------0----2----3-----------------------3---0-------2--3-----------|

Interlude  2:56
e|--------------------------------------------------------------------------------|
B|--------------------------------------------------------------------------------|
G|-2-----------2---------------------2-----------2--------------------------------|
D|-2-----5-----2-----5-----4---------2-----5-----2-----5-----4--------------------|
A|-0-0-0-5-----0-0-0-5-----4---------0-0-0-5-----0-0-0-5-----4--------------------|
E|-------3-3-3-------3-3-3-2-2-2-2-2-------3-3-3-------3-3-3-2-2-2-2-2------------|
     . .   . .   . .   . .   . . . .   . .   . .   . .   . .   . . . .

e|---------------------------------------------------------------------------------------|
B|---------------------------------------------------------------------------------------|
G|-2-----------2---------------------2---------------------------------------------------|
D|-2-----5-----2-----5-----4---------2-----5-----------4-----4---4--4-4-4-4--4-4-4-4-----|
A|-0-0-0-5-----0-0-0-5-----4---------0-0-0-5-----------4-----4---4--4-4-4-4--4-4-4-4-----|
E|-------3-3-3-------3-3-3-2-2-2-2-2-------3-3-3-3-3-3-2-2-2-2-2-2--2-2-2-2--2-2-2-2-----|
     . .   . .   . .   . .   . . . .   . .   . . . . .   . .   .
3:11
e|------------------------------------------------------------------------------------------|
B|------------------------------------------------------------------------------------------|
G|------------------------------------------------------------------------------------------|
D|-----2-2-2-2--2-2-2-2--2-2-2-2--2-2-2-2--2-2-2-2-2-----2-2-2-2--2-2-2-2---------5-5-4-<5>-|
A|-----2-2-2-2--2-2-2-2--2-2-2-2--2-2-2-2--2-2-2-2-2-<2>-2-2-2-2--2-2-2-2-2-2-2-3-----------|
E|-22\-0-0-0-0--0-0-0-0--0-0-0-0--0-0-0-0--0-0-0-0-0-----0-0-0-0--0-0-0-0-------------------|
       . . . .  . . . .  . . . .  . . . .  . . . . .     . . . .  . . . .

e|-------------------------------------------------------------------------------------|
B|-------------------------------------------------------------------------------------|
G|-------------------------------------------------------------------------------------|
D|-2-2-2-2--2-2-2-2--2-2-2-2--2-2-2-2--2-2-2-2-2-3--2-2-2-2--2-2-2-2---------5-5-4-----|
A|-2-2-2-2--2-2-2-2--2-2-2-2--2-2-2-2--2-2-2-2-2-3--2-2-2-2--2-2-2-2-2-2-2-3-------5---|
E|-0-0-0-0--0-0-0-0--0-0-0-0--0-0-0-0--0-0-0-0-0-1--0-0-0-0--0-0-0-0-------------------|
   . . . .  . . . .  . . . .  . . . .  . . . . .    . . . .  . . . .

3:28
e|-------------------------------------------------------------------------------------|
B|-------------------------------------------------------------------------------------|
G|------------7--------------4----6------------------7---------------4-----------------|
D|-4----------7------4-------4----6---------4--------7-----------4---4-----5-----------|
A|-4----------5------4-------2----4---------4--------5-----------4---2-----5-----------|
E|-2-----------------2------------------2-2-2----------------2-2-2---------3-----------|
                                        . .                  . .
3:51
e|----------------------------------------------------------------------------------------|
B|----------------------------------------------------------------------------------------|
G|----------------------------------------------------------------------------------------|
D|-----2-2-2-2--2-2-2-2--2-2-2-2--2-2-2-2--2-2-2-2-2-3--2-2-2-2--2-2-2-2---------5-5-4----|
A|-----2-2-2-2--2-2-2-2--2-2-2-2--2-2-2-2--2-2-2-2-2-3--2-2-2-2--2-2-2-2-2-2-2-3-------5--|
E|-12\-0-0-0-0--0-0-0-0--0-0-0-0--0-0-0-0--0-0-0-0-0-1--0-0-0-0--0-0-0-0------------------|
       . . . .  . . . .  . . . .  . . . .  . . . . .    . . . .  . . . .
 
e|------------------------------------------------------------------------------------------|
B|------------------------------------------------------------------------------------------|
G|------------------------------------------------------------------------------------------|
D|-2-2-2-2--2-2-2-2--2-2-2-2--2-2-2-2--2-2-2-2-2-3--2-2-2-2--2-2-2-2---------5-5-4--<5>\/\/-|
A|-2-2-2-2--2-2-2-2--2-2-2-2--2-2-2-2--2-2-2-2-2-3--2-2-2-2--2-2-2-2-2-2-2-3-------5--------|
E|-0-0-0-0--0-0-0-0--0-0-0-0--0-0-0-0--0-0-0-0-0-1--0-0-0-0--0-0-0-0------------------------|
   . . . .  . . . .  . . . .  . . . .  . . . . .    . . . .  . . . .

4:10
e|-----------------------------------------------------------------------------------|
B|-----------------------------------------------------------------------------------|
G|-4--------------7------------------2---4\/\----4----7-----------2---------2--------|
D|-4-------5------7-----2----4----5--2---4\/\----4----7---5---2---2---4--5--2--------|
A|-2-------5------5-----2----4----5--0---2\/\----2----5---5---2---0---4--5--0--------|
E|---------3------------0----2----3-----------------------3---0-------2--3-----------|

e|---------------------------------------------------------------------------|
B|---------------------------------------------------------------------------|
G|-----6-----6-----6-----6-----6-6------9-----9-----9-----9-----9-9----------|
D|-----6-----6-----6-----6-----6-6------9-----9-----9-----9-----9-9----------|
A|-4-4-4-4-4-4-4-4-4-4-4-4-4-4-4-4--7-7-7-7-7-7-7-7-7-7-7-7-7-7-7-7----------|
E|---------------------------------------------------------------------------|
   . .   . .   . .   . .   . .      . .   . .   . .   . .   . .

e|-------------------------------------------------------------------------|
B|-------------------------------------------------------------------------|
G|-------------------------------9-----------------------------------------|
D|-4-------------6-----7-----9---9-----------------------------------------|
A|-4-------------6-----7-----9---7-7-7-7-7-7-7-7-7-7-7-7-7-----------------|
E|-2-2-2-2-2-2-2-4-4-4-5-5-5-7-7-------------------------------------------|
     . . . . . .   . .   . .   .   . . . . . . . . . . . .
 
e|----------------------------------------------------------------------------------------------|
B|----------------------------------------------------------------------------------------------|
G|-----6-----6-----6-----6-----6----------------------------------4-----------------------------|
D|-----6-----6-----6-----6-----6-----7-----7-----4-----4-----4-4--4-----------------------------|
A|-4-4-4-4-4-4-4-4-4-4-4-4-4-4-4-----7-----7-----4-----4-----4-4--2-2-2-2-2-2-2-2-2-2-2-2-2-2-2-|
E|-------------------------------5-5-5-5-5-5-2-2-2-2-2-2-2-2-2-2--------------------------------|
   . .   . .   . .   . .   . .   . .   . .   . .   . .   . .        . . . . . . . . . . . . . . 

e|----------------------------------------------------------------------------------|
B|----------------------------------------------------------------------------------|
G|---------------2-------------4---6-6--4--6----------------------------------------|
D|-6-------------2-------------4---6-6--4--6----------------------------------------|
A|-6-------------0-0-0-0-0-0-0-2---4-4--2--4----------------------------------------|
E|-4-4-4-4-4-4-4--------------------------------------------------------------------|
     . . . . . .   . . . . . .




| /  slide up
| \  slide down
| h  hammer-on
| p  pull-off
| ~  vibrato
| <5>  pinched harmonic
| .  Palm Mute
| \   etc  whammy dive
   \/

===============================================================================

comments
We did not receive enough feedback on this tab! Please rate:
print report bad tab
1 2 3 4 5
5 comments total. Showing first comments.
0 reply
Mistress_Ibanez wrote on September 4 2006, 12:11 pm

nooo! its in drop-D not standard!

+2 reply
littleleo88 wrote on September 4 2006, 03:01 pm

No, it isnt. watch the DVD. it is in D standard, as i said... trust me, ive watched it enough times whilst tabbing this.

0 reply
emppu_fan wrote on May 17 2007, 09:48 am

yes it's D-standard

I want to post or [tab]
guest
You may want to rate the tab now too:
select rating
Please do not post tabs as comments. Select "correction" instead!