Oops, an error
Loading. Please wait.

Dark Chest Of Wonders Tab

ver2
ver2

Whole song

Interactive

More versions @911Tabs.com
4,889 views 9 this week
2 commentsread comments
1 2 3 4 5
worth learning
x 5
Autoscroll
+/-
esc
set tempo
stop
Contributor
Hey! There's an official Ultimate Guitar app which is ideal
for learning songs when you're away from computer. Get the app
WARNING: You are trying to view
                                    content from Ultimate-Guitar.com
                                    in an unauthorized application,
                                    which is prohibited.

                                    Please use an official Ultimate
                                    Guitar Tabs application for iPhone,
                                    iPad or Android to access legitimate
                                    chords, guitar, bass, and drum tabs
                                    from Ultimate-Guitar.com database.

                                    Type "ultimate guitar tabs" in Apple
                                    App Store's or Android Market's
                                    search to find the application.
#----------------------------------PLEASE NOTE---------------------------------#
#This file is the author's own work and represents their interpretation of the #
#song. You may only use this file for private study, scholarship, or research. #
#------------------------------------------------------------------------------#

Song : Dark Chest Of Wonders
from Nightwish - Once
by OceanSoul oceansoul@nightwish.fr
for http://www.nightwish.fr

Tune in Dropped D


intro
e:--------------------------------------------------------------------|
B:--------------------------------------------------------------------|
G:--------------------------------------------------------------------|
D:--2-0-3-0-5-0-3-0-22--2-0-3-0-5-0-3-0-22222--2-0-3-0-5-0-2/33/55/6~-|
A:--2-0-3-0-5-0-3-0-22--2-0-3-0-5-0-3-0-22222--2-0-3-0-5-0-2/33/55/6~-|
D:--2-0-3-0-5-0-3-0-22--2-0-3-0-5-0-3-0-22222--2-0-3-0-5-0-2/33/55/6~-|
      .   .   .   .       .   .   .   . .....    .   .   .


e:--------------------------------------------------------------------|
B:--------------------------------------------------------------------|
G:--------------------------------------------------------------------|
D:----3-2-0-2--3-2-0-2------------------------------------------------|
A:----3-2-0-2--3-2-0-2------------------------------------------------|
D:----3-2-0-2--3-2-0-2------------------------------------------------|



0.14
e:--------------------------------------------------------------------|
B:--------------------------------------------------------------------|
G:--------------------------------------------------------------------|
D:---------------------------------------------------------------2~---|
A:---------------------------------------------------------------2~-2*|
D:-0020030050030022002003005003 23202-00200300500300220020030056-2~---|
   .. .. .. .. ..  .. .. .. ..        .. .. .. .. ..  .. .. .. ..

0.25
e:--------------------------------------------------------------------|
B:--------------------------------------------------------------------|
G:--------------------------------------------------------------------|
D:--2-0-3-0-5-0-3-0-22--2-0-3-0-5-0-3-0-22222--2-0-3-0-5-0-2/33/55/6--|
A:--2-0-3-0-5-0-3-0-22--2-0-3-0-5-0-3-0-22222--2-0-3-0-5-0-2/33/55/6--|
D:--2-0-3-0-5-0-3-0-22--2-0-3-0-5-0-3-0-22222--2-0-3-0-5-0-2/33/55/6~-|
      .   .   .   .       .   .   .   . .....    .   .   .


e:--------------------------------------------------------------------|
B:--------------------------------------------------------------------|
G:---------------------3-3--------------------------------------------|
D:---3-2-0-2--3-2-0-2--3-3--------------------------------------------|
A:---3-2-0-2--3-2-0-2--1-1--------------------------------------------|
D:---3-2-0-2--3-2-0-2-------------------------------------------------|


e:--------------------------------------------------------------------|
B:--------------------------------------------------------------------|
G:--------------------------------------------------------------------|
D:--2-0-3-0-5-0-3-0-22--2-0-3-0-5-0-3-0-22222--2-0-3-0-5-0-2/33/55/6--|
A:--2-0-3-0-5-0-3-0-22--2-0-3-0-5-0-3-0-22222--2-0-3-0-5-0-2/33/55/6--|
D:--2-0-3-0-5-0-3-0-22--2-0-3-0-5-0-3-0-22222--2-0-3-0-5-0-2/33/55/6~-|
      .   .   .   .       .   .   .   . .....    .   .   .


e:--------------------------------------------------------------------|
B:---------2----------------------------------------------------------|
G:------4--2--5-------------------------------------------------------|
D:------4--0--5-------------------------------------------------------|
A:------2-----3-------------------------------------------------------|
D:--------------------------------------------------------------------|


e:--------------------------------------------------------------------|
B:--------------------------------------------------------------------|
G:----------------------------------7-4-5-2------2-------2---2--------|
D:-5----335----3-5-3-5-------3------7-4-5-2----552-----5-2-5-2-----5--|
A:-5----335----3-5-3-5-------3------5-2-3-00000550000005-0-5-0000005--|
D:-5555533555553-5-3-5555555-333333------------55------5---5-------5--|
    ....   ....       ......  .....        ....   .....       .....


e:--------------------------------------------------------------------|
B:--------------------------------------------------------------------|
G:--------------------------------------------------------------------|
D:----555-0-----------------------------------------------------------|
A:----555-0-----------------------------------------------------------|
D:----555-0-----------------------------------------------------------|


1.02
e:--------------------------------------------------------------------|
B:--------------------------------------------------------------------|
G:---------------------------------------2--2-2-2-2-2-----------------|
D:---2--2--2-----------2--2--2-----------2--2-2-2-2-2----3--3---5--5-5|
A:---2--2--2-----------2--2--2---------000000-0-0-0-0----3--3---5--5-5|
D:-222222222-0-2-4-0-222222222-0-2-4-0-----------------333333-555555-5|
   .. .. ..          .. .. ..          .. ..           .. ..  .. ..

e:--------------------------------------------------------------------|
B:--------------------------------------------------------------------|
G:---------------------------------------2--2-2-2-2-2----5--5---7--7-7|
D:---2--2--2-----------2--2--2-----------2--2-2-2-2-2----5--5---7--7-7|
A:---2--2--2-----------2--2--2---------000000-0-0-0-0--333333-555555-5|
D:-222222222-0-2-4-0-222222222-0-2-4-0--------------------------------|
   .. .. ..          .. .. ..          .. ..           .. ..  .. ..

Solo
e:--------------------------------------------------------------------|
B:--------------------------------------------------------------------|
G:---------7-8--5-7-5----------5-7-5-----------7-8-5-7-5-5-5----------|
D:-5-5-7-8------------5-5-7-8---------5-5-7-8----------------8-7-7-5-5|
A:--------------------------------------------------------------------|
D:--------------------------------------------------------------------|

e:--------------------------------------------------------------------|
B:--------------------------------------------------------------------|
G:-----------9-10-7-9-7----------7-9-7----------9-10-7-9-7-7-7--------|
D:-7-7-9-10-------------7-7-9-10-------7-7-9-10----------------10-9-7~|
A:--------------------------------------------------------------------|
D:--------------------------------------------------------------------|



Play this during the solo

e:--------------------------------------------------------------------|
B:--------------------------------------------------------------------|
G:----------------------------------7-4-5-2------2-------2---2--------|
D:-5----335----3-5-3-5-------3------7-4-5-2----552-----5-2-5-2-----5--|
A:-5----335----3-5-3-5-------3------5-2-3-00000550000005-0-5-0000005--|
D:-5555533555553-5-3-5555555-333333------------55------5---5-------5--|
    ....   ....       ......  .....        ....   .....       .....


e:--------------------------------------------------------------------|
B:--------------------------------------------------------------------|
G:--------------------------------------------------------------------|
D:----555-0-----------------------------------------------------------|
A:----555-0-----------------------------------------------------------|
D:----555-0-----------------------------------------------------------|


1.38
e:--------------------------------------------------------------------|
B:--------------------------------------------------------------------|
G:---------------------------------------2--2-2-2-2-2-----------------|
D:---2--2--2-----------2--2--2-----------2--2-2-2-2-2----3--3---5--5-5|
A:---2--2--2-----------2--2--2---------000000-0-0-0-0----3--3---5--5-5|
D:-222222222-0-2-4-0-222222222-0-2-4-0-----------------333333-555555-5|
   .. .. ..          .. .. ..          .. ..           .. ..  .. ..

e:--------------------------------------------------------------------|
B:--------------------------------------------------------------------|
G:---------------------------------------2--2-2-2-2-2----5--5---------|
D:---2--2--2-----------2--2--2-----------2--2-2-2-2-2----5--5-55555555|
A:---2--2--2-----------2--2--2---------000000-0-0-0-0--333333-55555555|
D:-222222222-0-2-4-0-222222222-0-2-4-0------------------------55555555|
   .. .. ..          .. .. ..          .. ..           .. ..  ....

chorus
e:--------------------------------------------------------------------|
B:--------------------------------------------------------------------|
G:-2-----5-------------2----2---5-------------------------------------|
D:-2---3-5---0---2-3-5-2----2---5-3---0--5--2--3--5-------------------|
A:-0---3-3---0---2-3-5-0----0---3-3---0--5--2--3--5-------------------|
D:-----3-----0---2-3-5------------3---0--5--2--3--5-------------------|

2.20
e:--------------------------------------------------------------------|
B:--------------------------------------------------------------------|
G:--------------------------------------------------------------------|
D:--2-0-3-0-5-0-3-0-2-0-2222--0-2-0-3-0-5-0-3-0-2-0-2222--------------|
A:--2-0-3-0-5-0-3-0-2-0-2222--0-2-0-3-0-5-0-3-0-2-0-2222--------------|
D:--2-0-3-0-5-0-3-0-2-0-2222--0-2-0-3-0-5-0-3-0-2-0-2222--------------|
      .   .   .   .   . ....  .   .   .   .   .   . ....


e:--------------------------------------------------------------------|
B:--------------------------------------------------------------------|
G:--------------------------------------------------------------------|
D:----0-3-0-5-0-3-0-2-2--2-3-2222-2-2-2-2-----------------------------|
A:----0-3-0-5-0-3-0-2-2--2-3-2222-2-2-2-2-----------------------------|
D:----0-3-0-5-0-3-0-2-2--2-3-2222-2-2-2-2-----------------------------|
      .   .   .   .          ....

2.30
e:--------------------------------------------------------------------|
B:--------------------------------------------------------------------|
G:--------------------------------------------------------------------|
D:--2222--2222--2222--2222--------------------------------------------|
A:--2222--2222--2222--2222--------------------------------------------|
D:--2222--2222--2222--2222--------------------------------------------|
    ....  ....  ....  ....

e:--------------------------------------------------------------------|
B:--------------------------------------------------------------------|
G:--------------------------------------------------------------------|
D:--0000-0000-0000-0000-0-0000-1-0000-0000------------232-------------|
A:--0000-0000-0000-0000-0-0000-1-0000-0000----00001111---3------------|
D:--0000-0000-0000-0000-0-0000-1-0000-0000----------------------------|
    .... .... .... .... . ....   .... ....

e:--------------------------------------------------------------------|
B:--------------------------------------------------------------------|
G:--------------------------------------------------------------------|
D:--0000-0000-0000-0000-0-0000-6-0000-0000------------232-------------|
A:--0000-0000-0000-0000-0-0000-6-0000-0000----00001111---3------------|
D:--0000-0000-0000-0000-0-0000-6-0000-0000----------------------------|
    .... .... .... .... . ....   .... ....

2.52
e:--------------------------------------------------------------------|
B:--------------------------------------------------------------------|
G:-----------2-4-----------------2------------------------------------|
D:--2--1--2--2-4--22-2--1--22-2--2-3------------10\-------------------|
A:--2--1--2--0-2--22-2--1--22-2--0-3------------10\-------------------|
D:--2--1--2-------22-2--1--22-2----3------------10\-------------------|
                  ..       ..

3.16
e:--------------------------------------------------------------------|
B:--------------------------------------------------------------------|
G:--------------------------------------------------------------------|
D:--0000-0000-0000-0000-0-0000-1-0000-0000------------232-------------|
A:--0000-0000-0000-0000-0-0000-1-0000-0000----00001111---3------------|
D:--0000-0000-0000-0000-0-0000-1-0000-0000----------------------------|
    .... .... .... .... . ....   .... ....

e:--------------------------------------------------------------------|
B:--------------------------------------------------------------------|
G:--------------------------------------------------------------------|
D:----2---2---2---2-22222-3--2-2---2---------5-4----------------------|
A:----2---2---2---2-22222-3--2-2---2----2/3------5--------------------|
D:--222-222-222-222-22222-3--2-2-222----------------------------------|
    ..  ..  ..  ..  .....        ..

3.36 chorus
e:--------------------------------------------------------------------|
B:--------------------------------------------------------------------|
G:-2-----5------------------2---5-------------------------------------|
D:-2---3-5---0---2-3-5-7----2---5-3---0--5--2--3--5-------------------|
A:-0---3-3---0---2-3-5-7----0---3-3---0--5--2--3--5-------------------|
D:-----3-----0---2-3-5-7----------3---0--5--2--3--5-------------------|

3.58
e:--------------------------------------------------------------------|
B:--------------------------------------------------------------------|
G:----4---4---4---4---4-444---7---7---7---7---7-777-------------------|
D:----4---4---4---4---4-444---7---7---7---7---7-777-------------------|
A:--222-222-222-222-222-222-555-555-555-555-555-555-------------------|
D:--------------------------------------------------------------------|
    ..  ..  ..  ..  ..      ..  ..  ..  ..  ..


e:--------------------------------------------------------------------|
B:--------------------------------------------------------------------|
G:------------------------------7--7----------------------------------|
D:----2---2---2---2---2-2-4-5-7-7--7----------------------------------|
A:----2---2---2---2---2-2-4-5-7-5555----------------------------------|
D:--222-222-222-222-222-2-4-5-7---------------------------------------|
    ..  ..  ..  ..  ..           ..

e:--------------------------------------------------------------------|
B:--------------------------------------------------------------------|
G:----4---4---4---4---4-444-------------------------------2---2---2---|
D:----4---4---4---4---4-444---5---5---5---5---2---2---2---2---2---2---|
A:--222-222-222-222-222-222---5---5---5---5---2---2---2-000-000-000---|
D:--------------------------555-555-555-555-222-222-222---------------|
    ..  ..   .. ..  ..      ..  ..  ..  ..  ..  ..  ..  ..  .. ..


e:--------------------------------------------------------------------|
B:--------------------------------------------------------------------|
G:-----------------------------------------4-4---4-4------------------|
D:----4---4---4---5---5---5---7---7---7----4-4---4-4------------------|
A:----4---4---4---5---5---5---7---7---7----2-2---2-2------------------|
D:--444-444-444-555-555-555-777-777-777-------------------------------|
    ..  ..  ..  ..  ..  ..  ..  ..  ..
comments
print report bad tab
2 comments total.
0 reply
dark_falco3000 wrote on December 6 2006, 10:59 pm

phailed... nightwish don't play in drop D, this album is in standard 1 step down (DGCFAD)

0 reply
Cralis wrote on November 19 2009, 08:56 am

Sorry but this tab isn't right at all.

I want to post or [tab]
guest
You may want to rate the tab now too:
select rating
Please do not post tabs as comments. Select "correction" instead!