Oops, an error
Loading. Please wait.

Dark Chest Of Wonders Tab

ver4
ver4

Whole song

Interactive

More versions @911Tabs.com
2,021 views 3 this week
no commentswrite comment
1 2 3 4 5
please rate
Autoscroll
+/-
esc
set tempo
stop
Contributor
Hey! There's an official Ultimate Guitar app which is ideal
for learning songs when you're away from computer. Get the app
WARNING: You are trying to view
                                    content from Ultimate-Guitar.com
                                    in an unauthorized application,
                                    which is prohibited.

                                    Please use an official Ultimate
                                    Guitar Tabs application for iPhone,
                                    iPad or Android to access legitimate
                                    chords, guitar, bass, and drum tabs
                                    from Ultimate-Guitar.com database.

                                    Type "ultimate guitar tabs" in Apple
                                    App Store's or Android Market's
                                    search to find the application.
#----------------------------------PLEASE NOTE---------------------------------#
#This file is the author's own work and represents their interpretation of the #
#song. You may only use this file for private study, scholarship, or research. #
#------------------------------------------------------------------------------#

DARK CHEST OF WONDERS
As recorded by Nightwish
(From the 2004 Album ONCE)

Transcribed by vengance302
        

Words and Music by Tuomas Holopainen
Arranged by Tuomas Holopainen

Gtr I (D G C F A D) - 'Emppu'
Gtr II (E A D G B E) - 'Intro effect'
Gtr III (E A D G B E) - 'Tuomas'
Gtr IV (D A D G B E) - 'Emppu lead'
Gtr V (E A D G B E) - 'Tuomas synth'
Gtr VI (E A D G B E) - 'Tuomas lead'

 Intro
  Q=100
              F#5     G5    A5    G5    F#5
 4/4
  Gtr I
                  PM|   PM|   PM|   PM|   PM  PM
  W            S  S S S S S S S S S S S S S S S
|----------||-----------------------------------|
|----------||-----------------------------------|
|----------||-----------------------------------|
|----------||-----------------------------------|
|----------||--4------5-----7-----5-----4---4---|
|----------||--2--2-2-3-2-2-5-2-2-3-2-2-2-2-2-2-|
|
| Gtr II      Gtr III
| W            W
|----------||-12--------------------------------|
|----------||-----------------------------------|
|----------||--9--------------------------------|
|----------||-----------------------------------|
|----------||-----------------------------------|
|-0--------||-(0)-------------------------------|


         G5    A5    G5    F#G5F#E5
     PM|   PM|   PM|   PM--------|
   S S S S S S S S S S S S S S S S
|----------------------------------|
|----------------------------------|
|----------------------------------|
|----------------------------------|
|--4-----5-----7-----5-----4-5-4-2-|
|--2-2-2-3-2-2-5-2-2-3-2-2-2-3-2-0-|
|
|  W
|-12-------------------------------|
|----------------------------------|
|--9-------------------------------|
|----------------------------------|
|----------------------------------|
|----------------------------------|


  F#5    G5    A5  F#G5  Bb5 A5  G5    F#E5F#5 G5F#E5F#5
     PM|   PM|   PM
   S S S S S S S S S S S S S S S S   S S S S E S S S S Q.
|----------------------------------|------------------------|
|----------------------------------|------------------------|
|----------------------------------|------------------------|
|----------------------------------|------------------------|
|--4-----5-----7---4s5-5s8-8s7-7s5-|-5-4-2-4---5-4-2-4------|
|--2-2-2-3-2-2-5-2-2s3-3s6-6s5-5s3-|-3-2-0-2---3-2-0-2------|
|
|  W                                 W
|-12-------------------------------|------------------------|
|----------------------------------|------------------------|
|--9-------------------------------|------------------------|
|----------------------------------|------------------------|
|----------------------------------|------------------------|
|----------------------------------|------------------------|


  N.C.
  S S S S S S S S S S S S S S S S   S S S S S S S S S S S S S S S S
|---------------------------------|----------------------------------|
|---------------------------------|----------------------------------|
|---------------------------------|----------------------------------|
|---------------------------------|----------------------------------|
|---------------------------------|----------------------------------|
|-5-2-2-3-2-2-5-2-2-3-2-2-2-2-2-2-|-5-2-2-3-2-2-5-2-2-3-2-2-2-3-2-0--|


                                    G5F#E5F#5 G5F#E5     F#5
  S S S S S S S S S S S S S S S S   S S S S E S S  S     S   Q.
|---------------------------------|-------------------------------------|
|---------------------------------|-------------------------------------|
|---------------------------------|-------------------------------------|
|---------------------------------|-------------------------------------|
|---------------------------------|-5-4-2-4---5-4--2-----4--------------|
|-5-2-2-3-2-2-5-2-2-3-3-6-6-5-3-0-|-3-2-0-2---3-2--0-----2--------------|
|
| Gtr IV
|                                                  \1.5______/
|                                                                  ~~~~~
| W                                 Q       Q      E        +E    +Q
|---------------------------------|-------------------------------------|
|---------------------------------|-------------------------------------|
|---------------------------------|---------------<5>------(<5>)-(<5>)--|
|---------------------------------|-------------------------------------|
|---------------------------------|-------------------------------------|
|---------------------------------|-------------------------------------|


  A5    G5    A5    G5    F#5       A5    G5    A5    G5    F#G5F#E5
    PM|   PM|   PM|   PM|   PM  PM    PM|   PM|   PM|   PM--------|
  S S S S S S S S S S S S S S S S   S S S S S S S S S S S S S S S S
|---------------------------------|----------------------------------|
|---------------------------------|----------------------------------|
|---------------------------------|----------------------------------|
|---------------------------------|----------------------------------|
|-7-----5-----7-----5-----4---4---|-7-----5-----7-----5-----4-5-4-2--|
|-5-2-2-3-2-2-5-2-2-3-2-2-2-2-2-2-|-5-2-2-3-2-2-5-2-2-3-2-2-2-3-2-0--|
|
| Gtr V
| H               Q       Q         W
|---------------------------------|----------------------------------|
|-5---------------5-------5-------|-5--------------------------------|
|-4---------------3-------5-------|-4--------------------------------|
|---------------------------------|-2--------------------------------|
|---------------------------------|----------------------------------|
|---------------------------------|----------------------------------|


  A5    G5    A5  F#G5  Bb5 A5  G5    F#E5F#5 G5F#E5F#5
    PM|   PM|   PM
  S S S S S S S S S S S S S S S S   S S S S E S S S S Q.
|---------------------------------|------------------------|
|---------------------------------|------------------------|
|---------------------------------|------------------------|
|---------------------------------|------------------------|
|-7-----5-----7---4s5-5s8-8s7-7s5-|-5-4-2-4---5-4-2-4------|
|-5-2-2-3-2-2-5-2-2s3-3s6-6s5-5s3-|-3-2-0-2---3-2-0-2------|
|
| H               Q       Q         W
|---------------------------------|------------------------|
|-5---------------5-------5-------|-5----------------------|
|-4---------------3-------5-------|-4----------------------|
|---------------------------------|-2----------------------|
|---------------------------------|------------------------|
|---------------------------------|------------------------|


  A5      G5      A5     G5       F#5
     PM|      PM|   PM|      PM|      PM    PM
  S  S  S  S  S S S S  S  S  S  S  S  S  S  S
|---------------------------------------------|
|---------------------------------------------|
|---------------------------------------------|
|---------------------------------------------|
|-7--------5------7-------5--------4-----4----|
|-5--2--2--3--2-2-5-2--2--3--2--2--2--2--2--2-|
|
| H                    Q           Q
|---------------------------------------------|
|-5--------------------5-----------5----------|
|-4--------------------3-----------5----------|
|---------------------------------------------|
|---------------------------------------------|
|---------------------------------------------|
|
| Gtr VI
| S  S  S  S  S S E    S  S  S  S  S  S  S  S
|------------19----------------17----------20-|
|---17-19-20-12-------17-19-20-10-17-19-20-13-|
|----9-11-12-----------9-11-12-----9-11-12----|
|---------------------------------------------|
|---------------------------------------------|
|---------------------------------------------|


  A5      G5      A5    G5    F#G5F#E5
     PM|      PM|   PM|   PM--------|
  S  S  S  S  S S S S S S S S S S S S
|--------------------------------------|
|--------------------------------------|
|--------------------------------------|
|--------------------------------------|
|-7--------5------7-----5-----4-5-4-2--|
|-5--2--2--3--2-2-5-2-2-3-2-2-2-3-2-0--|
|
| W
|--------------------------------------|
|-5------------------------------------|
|-4------------------------------------|
|-2------------------------------------|
|--------------------------------------|
|--------------------------------------|
|
| S  S  S  S  S E   S Q       Q
|------------19------------------------|
|---17-19-20-12------------------------|
|----9-11-12---------------------------|
|--------------------------------------|
|--------------------------------------|
|--------------------------------------|


  A5      G5      A5  F#5G5    Bb5   A5    G5   C#5/Ab             B5/A5/E
     PM|      PM|   PM
  S  S  S  S  S S S S  S  S  S  S  S  S  S  S    H                 Q  Q
|---------------------------------------------|--------------------------||
|---------------------------------------------|--------------------------||
|---------------------------------------------|--------------------------||
|---------------------------------------------|--6-----------------4--2--||
|-7--------5------7----4s=5--5s=8--8s=7--7s=5-|--4-----------------2--0--||
|-5--2--2--3--2-2-5-2--2s=3--3s=6--6s=5--5s=3-|--4-----------------2--0--||
|
| H                    Q           Q             H                 Q  Q
|---------------------------------------------|--------------------------||
|-5--------------------5-----------5----------|--5-----------------5--5--||
|-4--------------------3-----------5----------|--4-----------------2--5--||
|-2--------------------2-----------2----------|--2-----------------2--2--||
|---------------------------------------------|--------------------------||
|---------------------------------------------|--------------------------||
|
| S  S  S  S  S S E    S  S  S  S  S  S  S  S    S  S  S  S  S S E Q  Q
|------------19----------------17----------20-|-19-----------------------||
|---17-19-20-12-------17-19-20-10-17-19-20-13-|----19--------------------||
|----9-11-12-----------9-11-12-----9-11-12----|-------19-17-16-----------||
|---------------------------------------------|--------------------------||
|---------------------------------------------|--------------------------||
|---------------------------------------------|--------------------------||


  $
  A5                       B5 G5   A5              G5
 3/4
     PM-----------------|                PM------|
  E  S  S  S S  S  S  S  S  S  S    E    S  S  S S  E  E  E
|--------------------------------|--------------------------|
|--------------------------------|--------------------------|
|--------------------------------|--------------------------|
|--------------------------------|--------------------------|
|-7-------------------------9--5-|--7---------------5--5--5-|
|-5--5--5--5-5--5--5--5--5--7--3-|--5----5--5--5-5--3--3--3-|
|
| Gtr IV
| E  S  S  S S  S  S  S  S  S  S    E    S  S  S S  E  E  E
|--------------------------------|--------------------------|
|--------------------------------|--------------------------|
|---------------7--8--5--7-------|------------------5--7--5-|
|----5--7--8----------------7----|--5----5--7--8------------|
|------------------------------8-|--------------------------|
|--------------------------------|--------------------------|
|
| E  S  S  S S  S  S  S  S  S  S    S S  S  S  S S  E  E  E
|---15-17-18---22-23-20-22-17-13-|-15---15-17-18---20-22-20-|
|--------------------------------|--------------------------|
|---12-14-15---19-20-17-19-14-10-|-12---12-14-15----8--5--7-|
|--------------------------------|--------------------------|
|--------------------------------|--------------------------|
|--------------------------------|--------------------------|


  A5                               G5
     PM-----------------|                PM------|
  E  S  S  S S  S  S  S  S  S  S    E    S  S  S S  E  E  E
|--------------------------------|---------------------------||
|--------------------------------|---------------------------||
|--------------------------------|---------------------------||
|--------------------------------|---------------------------||
|-7-------------------------7--7-|--5------------------------||
|-5--5--5--5-5--5--5--5--5--5--5-|--3----3--3--3-3--7--5--3--||
|
| E  S  S  S S  S  S  S  S  S  S    E    S  S  S S  E  E  E
|--------------------------------|---------------------------||
|--------------------------------|---------------------------||
|---------------7--8--5--7-------|--5----5-------------------||
|----5--7--8----------------7----|----------8--7----7--5-----||
|------------------------------8-|------------------------8--||
|--------------------------------|---------------------------||
|
| E  S  S  S S  S  S  S  S  S  S    S S  S  S  S S  E  E  E
|---15-17-18---22-23-20-22-17-13-|-20---20-18-17---17-15-13--||
|--------------------------------|---------------------------||
|---12-14-15---19-20-17-19-14-10-|-17---17-15-14---10--7--5--||
|--------------------------------|---------------------------||
|--------------------------------|---------------------------||
|--------------------------------|---------------------------||


  B5                           A5   B5              A5
      PM-----------------|                PM------|
   E  S  S  S S  S  S  S  S  S  S    E    S  S  S S  E  E  E
|---------------------------------|--------------------------|
|---------------------------------|--------------------------|
|---------------------------------|--------------------------|
|---------------------------------|--------------------------|
|--9-------------------------9--7-|--9---------------7--7--7-|
|--7--7--7--7-7--7--7--7--7--7--5-|--7----7--7--7-7--5--5--5-|
|
|  E  S  S  S S  S  S  S  S  S  S    E    S  S  S S  E  E  E
|---------------------------------|--------------------------|
|---------------------------------|--------------------------|
|----------------9-10--7--9-------|------------------7--9--7-|
|--7--7--9-10----------------9----|--7----7--9-10------------|
|------------------------------10-|--------------------------|
|---------------------------------|--------------------------|
|
|  E  S  S  S S  S  S  S  S  S  S    S S  S  S  S S  E  E  E
|-17-17-19-20---24-25-22-24-19-15-|-17---17-19-20---22-24-22-|
|---------------------------------|--------------------------|
|-14-14-16-17---21-22-19-21-16-12-|-14---14-16-17---12-14-12-|
|---------------------------------|--------------------------|
|---------------------------------|--------------------------|
|---------------------------------|--------------------------|


                                          To Coda
  B5                                A5           E5
      PM-----------------|
   E  S  S  S S  S  S  S  S  S  S    Q.           Q.
|---------------------------------|--------------------||
|---------------------------------|--------------------||
|---------------------------------|--------------------||
|---------------------------------|--7------------2----||
|--9-------------------------9--9-|--7------------2----||
|--7--7--7--7-7--7--7--7--7--7--7-|--5------------0----||
|
|  E  S  S  S S  S  S  S  S  S  S    E   S  S  E  Q.
|---------------------------------|--------------------||
|---------------------------------|--------------------||
|----------------9-10--7--9-------|--7---7-------------||
|--7--7--9-10----------------9----|--------10--9--7----||
|------------------------------10-|--------------------||
|---------------------------------|--------------------||
|
|  E  S  S  S S  S  S  S  S  S  S    E   S  S  E  Q.
|-17-17-19-20---24-25-22-24-19-15-|-22--22-20-19-17----||
|---------------------------------|--------------------||
|-14-14-16-17---21-22-19-21-16-12-|-19--19-17-16-14----||
|---------------------------------|--------------------||
|---------------------------------|--------------------||
|---------------------------------|--------------------||


  Em                    F#5
 4/4
                        PM|       PM|       PM|
   W                    S S  E    S S  E    S S  E   S S S S
|---------------------|--------------------------------------|
|---------------------|--------------------------------------|
|---------------------|--------------------------------------|
|---------------------|------4---------4---------4-----------|
|---------------------|------4---------4---------4-----------|
|---------------------|-2-2--2----2-2--2----2-2--2---0-2-4-0-|
|
| Gtr V
|  W                    E    E    E    E    E    E   Q
|-12------------------|-----12--------12--------12-----------|
|-12------------------|------8---------8---------7-----------|
|-12------------------|------9---------9---------9-----------|
|-14------------------|--------------------------------------|
|-14------------------|--------------------------------------|
|-12------------------|--------------------------------------|
|
|  E  S E.  S S Q  Q    E    S E.      S E.      S S Q
|----19----19---------|-----19--------19--------19-----------|
|---------------------|--------------------------------------|
|----12----11---------|-----12--------12--------11-----------|
|---------------------|--------------------------------------|
|---------------------|--------------------------------------|
|---------------------|--------------------------------------|


  PM|       PM|       PM|
  S S  E    S S  E    S S  E   S S S S
|---------------------------------------||
|---------------------------------------||
|---------------------------------------||
|------4---------4---------4------------||
|------4---------4---------4------------||
|-2-2--2----2-2--2----2-2--2---0-2-4-0--||
|
| E    E    E    E    E    E   Q
|-----12--------12--------12------------||
|------8---------8---------7------------||
|------9---------9---------9------------||
|---------------------------------------||
|---------------------------------------||
|---------------------------------------||
|
| E    S E.      S E.      S S Q
|-----19--------19--------19------------||
|---------------------------------------||
|-----12--------12--------11------------||
|---------------------------------------||
|---------------------------------------||
|---------------------------------------||


 Verse
  B5                                 G5               A5
   PM|   PM|   PM|   PM  PM  PM  PM-----|   PM|   PM|    PM|   PM|
   S S S S S S S S S S S S S S S S    S S S S S S S S  S S S S S S S S
|----------------------------------|-----------------------------------|
|----------------------------------|-----------------------------------|
|----------------------------------|-----------------------------------|
|----------------------------------|-----------------------------------|
|------9-----9-----9---9---9---9---|------5-----5------7-----7-----7-7-|
|--7-7-7-7-7-7-7-7-7-7-7-7-7-7-7-7-|--3-3-3-3-3-3-3-3--5-5-5-5-5-5-5-5-|
|
|  W                                  H                H
|-12-------------------------------|-13---------------10---------------|
|-13-------------------------------|-10---------------12---------------|
|-14-------------------------------|-10---------------12---------------|
|-14-------------------------------|-10---------------12---------------|
|-12-------------------------------|--8---------------10---------------|
|----------------------------------|-----------------------------------|


  F#5
  PM|       PM|       PM|                PM|       PM|       PM|
  S S  E    S S  E    S S  E   S S S S   S S  E    S S  E    S S  E   S S S S
|--------------------------------------|--------------------------------------|
|--------------------------------------|--------------------------------------|
|--------------------------------------|--------------------------------------|
|--------------------------------------|--------------------------------------|
|------4---------4---------4-----------|------4---------4---------4-----------|
|-2-2--2----2-2--2----2-2--2---0-2-4-0-|-2-2--2----2-2--2----2-2--2---0-2-4-0-|
|
| E    E    E    E    E    E   Q         E    E    E    E    E    E   Q
|-----12--------12--------12-----------|-----12--------12--------12-----------|
|------8---------8---------7-----------|------8---------8---------7-----------|
|------9---------9---------9-----------|------9---------9---------9-----------|
|--------------------------------------|--------------------------------------|
|--------------------------------------|--------------------------------------|
|--------------------------------------|--------------------------------------|
|
| Gtr VI
| E    S E.      S E.      S S Q         E    S E.      S E.      S S Q
|-----19--------19--------19-----------|-----19--------19--------19-----------|
|--------------------------------------|--------------------------------------|
|-----12--------12--------11-----------|-----12--------12--------11-----------|
|--------------------------------------|--------------------------------------|
|--------------------------------------|--------------------------------------|
|--------------------------------------|--------------------------------------|


                                                         D.S. al Coda
  B5                                 D5               E5
   PM|   PM|   PM|   PM  PM  PM  PM     PM|   PM|   PM   PM|   PM|   PM
   S S S S S S S S S S S S S S S S    S S S S S S S S  S S S S S S S S
|----------------------------------|-----------------------------------||
|----------------------------------|-----------------------------------||
|----------------------------------|-----------------------------------||
|----------------------------------|--7-----7-----7----9-----9-----9---||
|------9-----9-----9---9---9---9---|--5-5-5-5-5-5-5-5--7-7-7-7-7-7-7-7-||
|--7-7-7-7-7-7-7-7-7-7-7-7-7-7-7-7-|-----------------------------------||
|
|  W                                  H                H
|-12-------------------------------|-13---------------13---------------||
|-13-------------------------------|-13---------------15---------------||
|-14-------------------------------|--9---------------10---------------||
|-14-------------------------------|-----------------------------------||
|-12-------------------------------|-----------------------------------||
|----------------------------------|-----------------------------------||


    &
    F#5
    PM|       PM|       PM|
    S S  E    S S  E    S S  E   S S S S
||---------------------------------------|
||o--------------------------------------|
||---------------------------------------|
||---------------------------------------|
||o------4---------4---------4-----------|
||--2-2--2----2-2--2----2-2--2---0-2-4-0-|
|
|   E    E    E    E    E    E   Q
||------12--------12--------12-----------|
||o------8---------8---------7-----------|
||-------9---------9---------9-----------|
||---------------------------------------|
||o--------------------------------------|
||---------------------------------------|
|
|   Gtr VI
|   E    S E.      S E.      S S Q
||------19--------19--------19-----------|
||o--------------------------------------|
||------12--------12--------11-----------|
||---------------------------------------|
||o--------------------------------------|
||---------------------------------------|


  PM|       PM|       PM|
  S S  E    S S  E    S S  E   S S S S
|--------------------------------------||
|--------------------------------------||
|--------------------------------------||
|--------------------------------------||
|------4---------4---------4-----------||
|-2-2--2----2-2--2----2-2--2---0-2-4-0-||
|
| E    E    E    E    E    E   Q
|-----12--------12--------12-----------||
|------8---------8---------7-----------||
|------9---------9---------9-----------||
|--------------------------------------||
|--------------------------------------||
|--------------------------------------||
|
| E    S E.      S E.      S S Q
|-----19--------19--------19-----------||
|--------------------------------------||
|-----12--------12--------11-----------||
|--------------------------------------||
|--------------------------------------||
|--------------------------------------||


  1.
  B5                                 G5               A5
   PM|   PM|   PM|   PM  PM  PM  PM-----|   PM|   PM|    PM|   PM|
   S S S S S S S S S S S S S S S S    S S S S S S S S  S S S S S S S S
|----------------------------------|------------------------------------||
|----------------------------------|-----------------------------------o||
|----------------------------------|------------------------------------||
|----------------------------------|------------------------------------||
|------9-----9-----9---9---9---9---|------5-----5------7-----7-----7-7-o||
|--7-7-7-7-7-7-7-7-7-7-7-7-7-7-7-7-|--3-3-3-3-3-3-3-3--5-5-5-5-5-5-5-5--||
|
| Gtr V
|  W                                  H                H
|-12-------------------------------|-13---------------10----------------||
|-13-------------------------------|-10---------------12---------------o||
|-14-------------------------------|-10---------------12----------------||
|-14-------------------------------|-10---------------12----------------||
|-12-------------------------------|--8---------------10---------------o||
|----------------------------------|------------------------------------||


  2.
  B5                                 D5               A5
   PM|   PM|   PM|   PM  PM  PM  PM     PM|   PM|   PM   PM|   PM|
   S S S S S S S S S S S S S S S S    S S S S S S S S  S S S S S S S S
|----------------------------------|-----------------------------------|
|----------------------------------|-----------------------------------|
|----------------------------------|-----------------------------------|
|----------------------------------|--7-----7-----7--------------------|
|------9-----9-----9---9---9---9---|--5-5-5-5-5-5-5-5--7-----7-----7-7-|
|--7-7-7-7-7-7-7-7-7-7-7-7-7-7-7-7-|-------------------5-5-5-5-5-5-5-5-|
|
|  W                                  H                H
|-12-------------------------------|-13---------------10---------------|
|-13-------------------------------|-10---------------12---------------|
|-14-------------------------------|-10---------------12---------------|
|-14-------------------------------|-10---------------12---------------|
|-12-------------------------------|------------------10---------------|
|----------------------------------|-----------------------------------|


 Chorus
  B5               G5     D5
   H.              Q       W
|-----------------------|-----------------------|
|-----------------------|-----------------------|
|-----------------------|--7--------------------|
|--9---------------5----|--7--------------------|
|--9---------------5----|--5--------------------|
|--7---------------3----|-----------------------|
|
|  H       E.   E.    E    H      E.   E.   E
|-12-------8----7-------|-15-----15---13---15---|
|-13-----(13)-(13)---13-|-13----(13)-(13)-(13)--|
|-14-----(14)-(14)---14-|-12----(12)-(12)-(12)--|
|-14-----(14)-(14)---15-|-14----(14)-(14)-(14)--|
|-12-----(12)-(12)------|-15----(15)-(15)-(15)--|
|-----------------------|-----------------------|


  E5                     B5
   H      E.   E.   E     W
|----------------------|-----------------------|
|----------------------|-----------------------|
|----------------------|-----------------------|
|--2-------------------|--9--------------------|
|--2-------------------|--9--------------------|
|--0------0----3----5--|--7--------------------|
|
|  H      E.   E.   E     H      E.   E.   E
|-17-----17---19---20--|-20-----20---19---20---|
|-18----(18)-(18)-(18)-|-17----(17)-(17)-(17)--|
|-19----(19)-(19)-(19)-|-17----(17)-(17)-(17)--|
|-19----(19)-(19)-(19)-|-19----(19)-(19)-(19)--|
|-17----(17)-(17)-(17)-|-19----(19)-(19)-(19)--|
|----------------------|-17----(17)-(17)-(17)--|


  B5               A5       G5    E5
   H.              Q         H     H
|-------------------------|-------------|
|-------------------------|-------------|
|-------------------------|-------------|
|--9---------------7------|--5-----2----|
|--9---------------7------|--5-----2----|
|--7---------------5------|--3-----0----|
|
|  H       E.   E.     E     H     H
|-17------17---15-----12--|-13----22----|
|-13-----(13)-(13)---(13)-|-10----10----|
|-14-----(14)-(14)---(14)-|-10----10----|
|-14-----(14)-(14)---(14)-|-10----12----|
|-12-----(12)-(12)---(12)-|--8----------|
|-------------------------|-------------|


  A5          F#5   G5               A5
   W           H     H                W
|-----------|----------------------|-------||
|-----------|----------------------|-------||
|-----------|----------------------|-------||
|--7--------|--4-----5-------------|--7----||
|--7--------|--4-----5-------------|--7----||
|--5--------|--2-----3-------------|--5----||
|
|  W           H     E.   E.   E      W
|-22--------|-20----20---22---24---|-22----||
|-12--------|--8----10--(10)-(10)--|-12----||
|-12--------|--9----10--(10)-(10)--|-12----||
|-12--------|--9----10--(10)-(10)--|-12----||
|-10--------|--7-----8---(8)--(8)--|-10----||
|-----------|----------------------|-------||


  A5     G5      A5      G5      F#5
    PM|     PM|      PM|    PM|            PM-----|
  S S  S  S S  S  S  S S S  S  S  E        T T  T T
|---------------------------------------------------|
|---------------------------------------------------|
|---------------------------------------------------|
|---------------------------------------------------|
|-7-------5-------7------5--------4-----------------|
|-5-2--2--3-2--2--5--2-2-3--2--2--2--------2-2--2-2-|
|
| H                    Q          Q
|---------------------------------------------------|
|--------------------------------17b18--------------|
|--------------------------------16b17--------------|
|--------------------------------14b15--------------|
|---------------------------------------------------|
|---------------------------------------------------|
|
| Gtr VI
| E    S  S S  S  S  S E    S  S  S     S  S    S
|--------24------24-----------24----------24--------|
|-----24------24----24-----25----------25------25---|
|---------------------------------------------------|
|---------------------------------------------------|
|---------------------------------------------------|
|---------------------------------------------------|


  A5     G5      A5      G5      F#5
    PM|     PM|      PM|    PM|            PM-----|
  S S  S  S S  S  S  S S S  S  S  E        T T  T T
|----------------------------------------------------|
|----------------------------------------------------|
|----------------------------------------------------|
|----------------------------------------------------|
|-7-------5-------7------5--------4------------------|
|-5-2--2--3-2--2--5--2-2-3--2--2--2--------2-2--2-2--|
|
| H                    Q          Q
|----------------------------------------------------|
|--------------------------------17b18---------------|
|--------------------------------16b17---------------|
|--------------------------------14b15---------------|
|----------------------------------------------------|
|----------------------------------------------------|
|
| E    S  S S  S  S  S E    S  S  S     S  S    S
|--------22------22-----------24----------24---------|
|-----22------22----22-----24----------24------24----|
|----------------------------------------------------|
|----------------------------------------------------|
|----------------------------------------------------|
|----------------------------------------------------|


  A5     G5      A5      G5      F#5
    PM|     PM|      PM|    PM|
  S S  S  S S  S  S  S S S  S  S  E        E
|-----------------------------------------------|
|-----------------------------------------------|
|-----------------------------------------------|
|-----------------------------------------------|
|-7-------5-------7------5--------4--------4----|
|-5-2--2--3-2--2--5--2-2-3--2--2--2--------2----|
|
| H                    Q          Q
|-----------------------------------------------|
|--------------------------------17b18----------|
|--------------------------------16b17----------|
|--------------------------------14b15----------|
|-----------------------------------------------|
|-----------------------------------------------|
|
| E    S  S S  S  S  S E    S  S  S     S  S  S
|--------24------24-----------24----------24----|
|-----24------24----24-----25----------25----25-|
|-----------------------------------------------|
|-----------------------------------------------|
|-----------------------------------------------|
|-----------------------------------------------|


  A5     G5                  F#5
    PM|     PM-------------|    PM|
  S S  S  S S  S  T T  T T S S  S  S E     E
|------------------------------------------------|
|------------------------------------------------|
|------------------------------------------------|
|------------------------------------------------|
|-7-------5------------------4-------4-----4-----|
|-5-2--2--3-2--2--2-2--2-2-2-2--2--2-2-----2-----|
|
| W
|------------------------------------------------|
|------------------------------------------------|
|------------------------------------------------|
|------------------------------------------------|
|------------------------------------------------|
|------------------------------------------------|
|
| E    S  S S  S  S    S   E    S  S S  S  S  S
|--------22------22---------------24------24-----|
|-----22------22------22-------24------24----24--|
|------------------------------------------------|
|------------------------------------------------|
|------------------------------------------------|
|------------------------------------------------|


  F#5
   S  S  S  S E  S  S  S  S E  S  S  S  S   E  S  S  S  S E Q  Q
|-----------------------------------------|-----------------------||
|-----------------------------------------|-----------------------||
|-----------------------------------------|-----------------------||
|-----------------------------------------|-----------------------||
|--4--4--4--4----4--4--4--4----4--4--4--4-|----4--4--4--4---------||
|--2--2--2--2----2--2--2--2----2--2--2--2-|----2--2--2--2---------||
|
|  S  S  S  S E  S  S  S  S E  S  S  S  S   E  S  S  S  S E Q  Q
|-----------------------------------------|---12-12-12-12---------||
|--5--5--5--5----5--5--5--5---12-12-12-12-|-----------------------||
|-----------------------------------------|-----------------------||
|--2--2--2--2----2--2--2--2----2--2--2--2-|----2--2--2--2---------||
|-----------------------------------------|-----------------------||
|-----------------------------------------|-----------------------||
|
|  S  S  S  S E  S  S  S  S E  S  S  S  S   E  S  S  S  S E Q  Q
|-----------------------------------------|---24-24-24-24---------||
|-----------------------------24-24-24-24-|-----------------------||
|-----------------------------------------|-----------------------||
|-14-14-14-14---14-14-14-14---------------|-----------------------||
|-----------------------------------------|-----------------------||
|-----------------------------------------|-----------------------||


 Breakdown
  E5                                                  F5
  S S S S E S S S S E S S S S   E S S S S E E S S S S E
|-----------------------------|-------------------------|
|-----------------------------|-------------------------|
|-----------------------------|-------------------------|
|-----------------------------|-------------------------|
|-2-2-2-2---2-2-2-2---2-2-2-2-|---2-2-2-2---2-2-2-2-2-3-|
|-0-0-0-0---0-0-0-0---0-0-0-0-|---0-0-0-0---0-0-0-0-0-1-|


      E5
                             2/4
  +E  S S S S E S S S S E E   +E  E S S E
|---------------------------|----------------|
|---------------------------|----------------|
|---------------------------|----------------|
|---------------------------|-------5-4-0----|
|-(3)-2-2-2-2---2-2-2-2---2-|-(2)-3----------|
|-(1)-0-0-0-0---0-0-0-0-----|----------------|


  E5
 4/4
                                                       ~~~~
  S S S S E S S S S E S S S S   E S S S S E E S S S S  E
|-----------------------------|---------------------------|
|-----------------------------|---------------------------|
|-----------------------------|---------------------------|
|-----------------------------|---------------------------|
|-2-2-2-2---2-2-2-2---2-2-2-2-|---2-2-2-2---2-2-2-2-2-----|
|-0-0-0-0---0-0-0-0---0-0-0-0-|---0-0-0-0---0-0-0-0-0-[1]-|


                               2/4
 ~~~~~
  +E  S S S S E S S S S E S S   E E S S E
|-----------------------------|-----------||
|-----------------------------|-----------||
|-----------------------------|-----------||
|-----------------------------|-----5-4-0-||
|-----2-2-2-2---2-2-2-2---2-2-|-2-3-------||
|-(1)-0-0-0-0---0-0-0-0-------|-----------||


 Bridge
  F#5                   F5
 4/4
   W                     W
|---------------------|---------------------|
|---------------------|---------------------|
|---------------------|---------------------|
|--4------------------|--3------------------|
|--4------------------|--3------------------|
|--2------------------|--1------------------|
|
| Gtr V
|  E E  E E  E E  E E    E E  E E  E E  E E
|---------------------|---------------------|
|-12---12---12---12---|-13---13---13---13---|
|-12-9-12-9-12-9-12-9-|-12-8-12-8-12-8-12-8-|
|---------------------|---------------------|
|---------------------|---------------------|
|---------------------|---------------------|


  F#5                   B5        C#5
   W                     H         H
|---------------------|-----------------------|
|---------------------|-----------------------|
|---------------------|--4---------6----------|
|--4------------------|--4---------6----------|
|--4------------------|--2---------4----------|
|--2------------------|-----------------------|
|
|  E E  E E  E E  E E    E E  E E  E  E  E  E
|---------------------|-----------------------|
|-12---12---12---12---|-15---15---17----17----|
|-12-9-12-9-12-9-12-9-|-14-9-14-9-16-11-16-11-|
|---------------------|-----------------------|
|---------------------|-----------------------|
|---------------------|-----------------------|


  F#5                        F5
   E  E  H.                   W
|--------------------------|-------------------------|
|--------------------------|-------------------------|
|--------------------------|-------------------------|
|--4--4--4-----------------|--3----------------------|
|--4--4--4-----------------|--3----------------------|
|--2--2--2-----------------|--1----------------------|
|
|  E  E  E   E  E  E  E  E    E  E  E  E  E  E  E  E
|-24-12-24--12-24-12-24-12-|-27-26-27-26-27-26-27-26-|
|-20----20-----20----20----|-24-22-24-22-24-22-24-22-|
|--------------------------|-------------------------|
|--------------------------|-------------------------|
|--------------------------|-------------------------|
|--------------------------|-------------------------|


  F#5                    B5    G5      N.C.
   E E  H.                H     H      W
|----------------------|-------------|-------------------------||
|----------------------|-------------|-------------------------||
|----------------------|--4----------|-------------------------||
|--4-4--4--------------|--4-----5----|-------------------------||
|--4-4--4--------------|--2-----5----|-------------------------||
|--2-2--2--------------|--------3----|-------------------------||
|
|  E E  E  E  E E  E E    H     H      S S S S E S S S S E Q
|-12---12----12---12---|-12----15----|-------------------------||
|-12---12----12---12---|-------------|-------------------------||
|-12-9-12--9-12-9-12-9-|--9----12----|-7-7-7-7---7-7-7-7-------||
|----------------------|-------------|-------------------------||
|----------------------|-------------|-5-5-5-5---5-5-5-5-------||
|----------------------|-------------|-------------------------||


  E5                                                                    F5
   S S  S  S E  S S  S  S E  S S  S  S   E  S  S  S  S E      E S S S S  E
|--------------------------------------|--------------------------------------------|
|--------------------------------------|--------------------------------------------|
|--------------------------------------|--------------------------------------------|
|--------------------------------------|--------------------------------------------|
|--2-2--2--2----2-2--2--2----2-2--2--2-|----2--2--2--2--------2-2-2-2-2--3----------|
|--0-0--0--0----0-0--0--0----0-0--0--0-|----0--0--0--0--------0-0-0-0-0--1----------|
|
| Gtr VI
|  E    S  S E  E    S  S E  E    S  S   E  S  S  S  E    +S  Q     E    T  T  T  T
|-22---22-22---20---20-20---22---22-22-|---25-24-22-22---(22)-----------22h25p22h25p|
|--------------------------------------|--------------------------------------------|
|--------------------------------------|--------------------------------------------|
|--------------------------------------|--------------------------------------------|
|--------------------------------------|--------------------------------------------|
|--------------------------------------|--------------------------------------------|


           E5                          N.C.
                                          2/4
  +E       S S S   S   E   S  S S S  E E    E  E  S  S  E
|----------------------------------------|----------------||
|----------------------------------------|----------------||
|----------------------------------------|----------------||
|----------------------------------------|--------5--4--0-||
|-(3)------2-2-2---2-------2--2-2-2----2-|--2--3----------||
|-(1)------0-0-0---0-------0--0-0-0------|----------------||
|
|  T  T  Q        +S   E  +Q         Q      E  E  S  S  E
|-22h25-25-------(25)-22-(22)-------20---|-17-18-25-24-15-||
|----------------------------------------|----------------||
|----------------------------------------|----------------||
|----------------------------------------|----------------||
|----------------------------------------|----------------||
|----------------------------------------|----------------||


  F#5
 4/4
   S S S S E  S S S S E  S S S S
|--------------------------------|
|--------------------------------|
|--------------------------------|
|--------------------------------|
|--4-4-4-4----4-4-4-4----4-4-4-4-|
|--2-2-2-2----2-2-2-2----2-2-2-2-|
|
| Gtr V
|  Q       E  Q       E  Q
|-15---------14---------17-------|
|-17---------17---------17-------|
|-16---------16---------16-------|
|--------------------------------|
|--------------------------------|
|--------------------------------|


                          G5      F#5
  E  S S S S E E S  S S S E   +E  S S S S  E S S S S  E E
|---------------------------|-------------------------------||
|---------------------------|-------------------------------||
|---------------------------|-------------------------------||
|---------------------------|-------------------------------||
|----4-4-4-4---4-4--4-4-4-5-|-(5)-4-4-4-4----4-4-4-4----4---||
|----2-2-2-2---2-2--2-2-2-3-|-(3)-2-2-2-2----2-2-2-2--------||
|
| E  H           Q.            Q      E    Q     E    Q
|---15----------------------|-15----------14---------10-----||
|---17----------------------|-17----------17----------------||
|---16----------------------|-16----------16----------7-----||
|---------------------------|-------------------------------||
|---------------------------|-------------------------------||
|---------------------------|-------------------------------||


  N.C.
 2/4              4/4
   E  E  S  S  E   W
|----------------|------||
|----------------|------||
|----------------|------||
|--------7--6----|------||
|--4--5--------7-|------||
|----------------|------||
|
|  E  E  S  S  E   W
|-10-12-15-14-10-|------||
|----------------|------||
|--7--9-12-11--7-|------||
|----------------|------||
|----------------|------||
|----------------|------||


 Chorus
  B5               G5     D5
   H.              Q       W
|-----------------------|-----------------------|
|-----------------------|-----------------------|
|-----------------------|--7--------------------|
|--9---------------5----|--7--------------------|
|--9---------------5----|--5--------------------|
|--7---------------3----|-----------------------|
|
|  H       E.   E.    E    H      E.   E.   E
|-12-------8----7-------|-15-----15---13---15---|
|-13-----(13)-(13)---13-|-13----(13)-(13)-(13)--|
|-14-----(14)-(14)---14-|-12----(12)-(12)-(12)--|
|-14-----(14)-(14)---15-|-14----(14)-(14)-(14)--|
|-12-----(12)-(12)------|-15----(15)-(15)-(15)--|
|-----------------------|-----------------------|


  E5                     B5
   H      E.   E.   E     W
|----------------------|-----------------------|
|----------------------|-----------------------|
|----------------------|-----------------------|
|--2-------------------|--9--------------------|
|--2-------------------|--9--------------------|
|--0------0----3----5--|--7--------------------|
|
|  H      E.   E.   E     H      E.   E.   E
|-17-----17---19---20--|-20-----20---19---20---|
|-18----(18)-(18)-(18)-|-17----(17)-(17)-(17)--|
|-19----(19)-(19)-(19)-|-17----(17)-(17)-(17)--|
|-19----(19)-(19)-(19)-|-19----(19)-(19)-(19)--|
|-17----(17)-(17)-(17)-|-19----(19)-(19)-(19)--|
|----------------------|-17----(17)-(17)-(17)--|


                   A5       G5    E5
   H.              Q         H     H
|-------------------------|-------------|
|-------------------------|-------------|
|-------------------------|-------------|
|--9---------------7------|--5-----2----|
|--9---------------7------|--5-----2----|
|--7---------------5------|--3-----0----|
|
|  H       E.   E.     E     H     H
|-17------17---15-----12--|-13----22----|
|-13-----(13)-(13)---(13)-|-10----10----|
|-14-----(14)-(14)---(14)-|-10----10----|
|-14-----(14)-(14)---(14)-|-10----12----|
|-12-----(12)-(12)---(12)-|--8----------|
|-------------------------|-------------|


  A5          F#5   G5               A5
   W           H     H                W
|-----------|----------------------|-------||
|-----------|----------------------|-------||
|-----------|----------------------|-------||
|--7--------|--4-----5-------------|--7----||
|--7--------|--4-----5-------------|--7----||
|--5--------|--2-----3-------------|--5----||
|
|  W           H     E.   E.   E      W
|-22--------|-20----20---22---24---|-22----||
|-12--------|--8----10--(10)-(10)--|-12----||
|-12--------|--9----10--(10)-(10)--|-12----||
|-12--------|--9----10--(10)-(10)--|-12----||
|-10--------|--7-----8---(8)--(8)--|-10----||
|-----------|----------------------|-------||


 Out-Chorus
  C#5                                 B5
   PM|      PM|      PM|      PM    PM    PM    PM-
   S  S  S  S  S  S  S  S  S  S  S  S  S  S  S  S
|-------------------------------------------------|
|-------------------------------------------------|
|-------------------------------------------------|
|--------6--------6--------6-----6-----4-----4----|
|--4--4--4--4--4--4--4--4--4--4--4--4--2--2--2--2-|
|-------------------------------------------------|
|
|  S  S  S  S  S  S  S  S  S  S  S  S  S  S  S  S
|-22----------22----------22----------22----------|
|----22----22----22----22----22----22----22----22-|
|-------23----------23----------23----------23----|
|-------------------------------------------------|
|-------------------------------------------------|
|-------------------------------------------------|
|
| Gtr VI
|  S  S  S  S  S  S  S  S  S  S  S  S  S  S  S  S
|-22----------22----------22----------22----------|
|-10-22-------10-22----22-10-22-------10-22-------|
|----11----------11-23-------11----------11-23----|
|-------12----------12----------12----------12----|
|-------------------------------------------------|
|-------------------------------------------------|


  E5
 ----|      PM|      PM|      PM    PM    PM    PM
   S  S  S  S  S  S  S  S  S  S  S  S  S  S  S  S
|--------------------------------------------------|
|--------------------------------------------------|
|--------------------------------------------------|
|--------9--------9--------9-----9-----9-----9-----|
|--7--7--7--7--7--7--7--7--7--7--7--7--7--7--7--7--|
|--------------------------------------------------|
|
|  S  S  S  S  S  S  S  S  S  S  S  S  S  S  S  S
|-22----------22----------22----------22-----------|
|----22----22----22----22----22----22----22----22--|
|-------23----------23----------23----------23-----|
|--------------------------------------------------|
|--------------------------------------------------|
|--------------------------------------------------|
|
|  S  S  S  S  S  S  S  S  S  S  S  S  S  S  S  S
|-22----------22----------22----------22-----------|
|-10-22-------10-22----22-10-22-------10-22--------|
|----11----------11-23-------11----------11-23-----|
|-------12----------12----------12----------12-----|
|--------------------------------------------------|
|--------------------------------------------------|


  F#5                                 A5    B5
   PM|      PM|      PM|      PM
   S  S  S  S  S  S  S  S  S  S  S  S  S  S  S  S
|-------------------------------------------------|
|-------------------------------------------------|
|-------------------------------------------------|
|-------------------------------------------------|
|--------4--------4--------4-----4--4--7--7--9--9-|
|--2--2--2--2--2--2--2--2--2--2--2--2--5--5--7--7-|
|
|  S  S  S  S  S  S  S  S  S  S  S  S  S  S  S  S
|-24----------24----------24----------24-------21-|
|----24----24----24----24----24----24----24-------|
|-------24----------24----------24----------24----|
|-------------------------------------------------|
|-------------------------------------------------|
|-------------------------------------------------|
|
|  S  S  S  S  S  S  S  S  S  S  S  S  S  S  S  S
|-24----------24----------24----------24----15-21-|
|-12-24-------12-24----24-12-24-------12-24-12-14-|
|----12----------12-24-------12----------12-------|
|-------14----------14----------14----------------|
|-------------------------------------------------|
|-------------------------------------------------|


  C#5
   PM|           PM-|           PM-|         PM       PM       PM      PM
   S   S    S    S    S    S    S    S   S   S    S   S   S    S   S   S
|--------------------------------------------------------------------------|
|--------------------------------------------------------------------------|
|--------------------------------------------------------------------------|
|-----------6--------------6-------------6--------6-------6--------6-------|
|--4---4----4----4----4----4----4----4---4---4----4---4---4----4---4---4---|
|--------------------------------------------------------------------------|
|
|  S   S    S    S    S    S    S    S   S   S    S   S   S    S   S   S
|-22-----------------22-----------------22---------------22-----------21---|
|-----24--------24--------24--------24------24-------24-------24--22-------|
|----------23------------------23----------------23------------------------|
|--------------------------------------------------------------------------|
|--------------------------------------------------------------------------|
|--------------------------------------------------------------------------|
|
|  S   S    S   +S    S    S    S   +S   S   S    S   S   S    S   S   S
|-26-(26)-(26)-(26)-(26)-(26)-(26)-(26)-26-(26)-(26)-24-(24)-(24)-21-(21)--|
|-15-----------------15-----------------15---------------15----------------|
|-----16------------------16----------------16----------------16------14---|
|----------16------------------16----------------16---------------16-------|
|--------------------------------------------------------------------------|
|--------------------------------------------------------------------------|


                                      B5
   PM|      PM|      PM|      PM    PM    PM    PM-
   S  S  S  S  S  S  S  S  S  S  S  S  S  S  S  S
|-------------------------------------------------|
|-------------------------------------------------|
|-------------------------------------------------|
|--------6--------6--------6-----6-----4-----4----|
|--4--4--4--4--4--4--4--4--4--4--4--4--2--2--2--2-|
|-------------------------------------------------|
|
|  S  S  S  S  S  S  S  S  S  S  S  S  S  S  S  S
|-22----------22----------22----------22----------|
|----24----24----24----24----24----24----24----24-|
|-------23----------23----------23----------23----|
|-------------------------------------------------|
|-------------------------------------------------|
|-------------------------------------------------|
|
|  S  S  S  S  S  S  S  S  S  S  S  S  S  S  S  S
|-22----------22----------22----------22-------21-|
|-10-24-------10-24----24-12-24-------12-24-------|
|----11----------11-23-------11----------11-23----|
|-------12----------12----------12----------12----|
|-------------------------------------------------|
|-------------------------------------------------|


  A5                      F#5
 ----|      PM|      PM|      PM    PM    PM    PM
   S  S  S  S  S  S  S  S  S  S  S  S  S  S  S  S
|--------------------------------------------------|
|--------------------------------------------------|
|--------------------------------------------------|
|--------------------------------------------------|
|--------7--------7--------4-----4-----4-----4-----|
|--5--5--5--5--5--5--5--5--2--2--2--2--2--2--2--2--|
|
|  S  S  S  S  S  S  S  S  S  S  S  S  S  S  S  S
|-22----------22----------24----------24-----------|
|----24----24----24----24----24----24----24----24--|
|-------24----------24----------24----------24-----|
|--------------------------------------------------|
|--------------------------------------------------|
|--------------------------------------------------|
|
|  S  S  S  S  S  S  S  S  S  S  S  S  S  S  S  S
|-22----------22----------22----------22----15-22--|
|-12-24-------12-24----24-12-24-------12-24-12-----|
|----12----------12-24-------12----------12--------|
|-------14----------14----------14-----------------|
|--------------------------------------------------|
|--------------------------------------------------|


  B5
   PM|      PM|      PM|      PM    PM    PM    PM-
   S  S  S  S  S  S  S  S  S  S  S  S  S  S  S  S
|-------------------------------------------------|
|-------------------------------------------------|
|-------------------------------------------------|
|--------4--------4--------4-----4-----4-----4----|
|--2--2--2--2--2--2--2--2--2--2--2--2--2--2--2--2-|
|-------------------------------------------------|
|
|  S  S  S  S  S  S  S  S  S  S  S  S  S  S  S  S
|-21----------21----------24----------24----------|
|----22----22----22----22----22----22----22----22-|
|-------21----------21----------21----------21----|
|-------------------------------------------------|
|-------------------------------------------------|
|-------------------------------------------------|
|
|  S  S  S  S  S  S  S  S  S  S  S  S  S  S  S  S
|-21----------21----------24----------24----------|
|-14-22-------14-22----22-14-22----22-14-22-14-22-|
|----14----------14-21-------14-21-------14-------|
|-------14----------14----------14----------------|
|-------------------------------------------------|
|-------------------------------------------------|


  A5
 ----|      PM|      PM|      PM    PM    PM    PM
   S  S  S  S  S  S  S  S  S  S  S  S  S  S  S  S
|--------------------------------------------------|
|--------------------------------------------------|
|--------------------------------------------------|
|--------------------------------------------------|
|--------7--------7--------7-----7-----7-----7-----|
|--5--5--5--5--5--5--5--5--5--5--5--5--5--5--5--5--|
|
|  S  S  S  S  S  S  S  S  S  S  S  S  S  S  S  S
|-22----------22----------22----------22-----------|
|----24----24----24----24----24----24----24----24--|
|-------24----------24----------24----------24-----|
|--------------------------------------------------|
|--------------------------------------------------|
|--------------------------------------------------|
|
|  S  S  S  S  S  S  S  S  S  S  S  S  S  S  S  S
|-22----------22----------22----------22-----------|
|-15-24-------15-24----24-15-24-------15-24-17-24--|
|----16----------16-24-------16----------16-24-----|
|-------17----------17----------17-----------------|
|--------------------------------------------------|
|--------------------------------------------------|


  B5
   PM|      PM|      PM|      PM    PM    PM    PM
   S  S  S  S  S  S  S  S  S  S  S  S  S  S  S  S
|-------------------------------------------------|
|-------------------------------------------------|
|-------------------------------------------------|
|-------------------------------------------------|
|--------9--------9--------9-----9-----9-----9----|
|--7--7--7--7--7--7--7--7--7--7--7--7--7--7--7--7-|
|
|  S  S  S  S  S  S  S  S  S  S  S  S  S  S  S  S
|-24----------24----------24----------24----------|
|----26----26----26----26----26----26----26----26-|
|-------26----------26----------26----------26----|
|-------------------------------------------------|
|-------------------------------------------------|
|-------------------------------------------------|
|
|  S  S  S  S  S  S  S  S  S  S  S  S  S  S  S  S
|-24----------24----------24----------24----------|
|-17-26-------17-26----26-17-26-------17-26----26-|
|----18----------18-26-------18----------18-26----|
|-------19----------19----------19----------19----|
|-------------------------------------------------|
|-------------------------------------------------|


  C#5
   S  S Q   S  H    S   W
|---------------------|------*|
|---------------------|------*|
|---------------------|------*|
|--6--6-----6--6------|------*|
|--4--4-----4--4------|------*|
|---------------------|------*|
|
|  S  S Q   S  H    S   W
|-19-19----19-19------|------*|
|---------------------|------*|
|-16-16----16-16------|------*|
|---------------------|------*|
|---------------------|------*|
|---------------------|------*|
|
|  S  S Q   S  H    S   W
|---------------------|------*|
|-24-24----24-24------|------*|
|---------------------|------*|
|---------------------|------*|
|---------------------|------*|
|---------------------|------*|



Duration Legend
---------------
W - whole; H - half; Q - quarter; E - 8th; S - 16th; T - 32nd; X - 64th; a - acciaccatura
+ - note tied to previous; . - note dotted; .. - note double dotted
Uncapitalized letters represent notes that are staccato (1/2 duration)
Irregular groupings are notated above the duration line
Duration letters will always appear directly above the note/fret number it represents the
duration for.  Duration letters with no fret number below them represent rests.  Multi-
bar rests are notated in the form Wxn, where n is the number of bars to rest for.  Low
melody durations appear below the staff

Tablature Legend
----------------
 h   - hammer-on
 p   - pull-off
 b   - bend
 pb  - pre-bend
 r   - bend release (if no number after the r, then release immediately)
 /\  - slide into or out of (from/to "nowhere")
 s   - legato slide
 S   - shift slide
 - natural harmonic
[n]  - artificial harmonic
n(n) - tapped harmonic
 ~   - vibrato
 tr  - trill
 T   - tap
 TP  - trem. picking
 PM  - palm muting
\n/  - tremolo bar dip; n = amount to dip
 \n  - tremolo bar down
 n/  - tremolo bar up
/n\  - tremolo bar inverted dip
 =   - hold bend; also acts as connecting device for hammers/pulls
 <> - volume swell (louder/softer)
 x   - on rhythm slash represents muted slash
 o   - on rhythm slash represents single note slash

Misc Legend
-----------
 |  - bar
||  - double bar
||o - repeat start
o|| - repeat end
*|  - double bar (ending)
 :  - bar (freetime)
 $  - Segno
 &  - Coda
Tempo markers -  = BPM(8/16=s8/s16), where s8 = swing 8ths, s16 = swing 16ths

comments
We did not receive enough feedback on this tab! Please rate:
print report bad tab
1 2 3 4 5
I want to post or [tab]
guest
You may want to rate the tab now too:
select rating
Please do not post tabs as comments. Select "correction" instead!