Oops, an error
Loading. Please wait.

Dead Gardens Tab

ver2
ver2

Intro

Whole song

Interactive

More versions @911Tabs.com
1,537 views 3 this week
no commentswrite comment
1 2 3 4 5
accurate
x 3
Autoscroll
+/-
esc
set tempo
stop
Contributor
WARNING: You are trying to view
                                    content from Ultimate-Guitar.com
                                    in an unauthorized application,
                                    which is prohibited.

                                    Please use an official Ultimate
                                    Guitar Tabs application for iPhone,
                                    iPad or Android to access legitimate
                                    chords, guitar, bass, and drum tabs
                                    from Ultimate-Guitar.com database.

                                    Type "ultimate guitar tabs" in Apple
                                    App Store's or Android Market's
                                    search to find the application.
Nightwish
Dead Gardens
Once



. Palm Mute
~ Vibrato




  . .          . .          . .          . .
D|------------|------------|------------|------------|
G|------------|------------|------------|------------|
C|------------|------------|------------|------------|
F|------------|------------|------------|------------|
A|------------|------------|-4-4-4------|-5-5-5------|
D|-3-3-3------|-6-6-6------|------------|------------|


|----------|-----------------|------------|----------------|---------------|
|----------|-----------------|------------|----------------|---------------|
|----------|-----------------|------------|----------------|---------------|
|----------|-----------------|------------|----------------|---------------|
|--------4-|-----4---------5-|-5--5--5--5-|-----4--------5-|-5--5----------|
|----3-6---|-3-6---3--4-3--3-|-3--3--3--3-|-3-6---3--4-3-3-|-3--3-3--4-1-4-|


|------------------|-------------------|-------------------|---------------|
|------------------|-------------------|-------------------|---------------|
|------------------|-------------------|-------------------|---------------|
|------------------|-------------------|-------------------|----------4-6-6|
|-----4----------6-|-----5-------------|------4----------6-|----------2-4-4|
|-3-6---3--4-3-3-4-|-3-3-3-3-3---4-1-4-|-3-6----3--4-3-3-4-|-3-3--4-3------|

            . .   . .   . .   . .  
|---------|------------------------------|
|---------|------------------------------|
|---------|------------------------------|
|---------|----------------------------7-|
|-2-------|-------------------------5--5-|
|-0-------|-0-3-6-0-3-6-0-3-6-0-3-6-3----|

  . . .  . .  .    . .  . . .   . . .  . .  .    . .  .
|---------------|-------------|---------------|---------------|
|---------------|-------------|---------------|---------------|
|---------------|-------------|---------------|---------------|
|---------------|-------------|---------------|---------------|
|-2-2-2--2-2--2-|--2-2--2-2-2-|-2-2-2--2-2--2-|--2-2----2-----|
|-0-0-0--0-0--0-|--0-0--0-0-0-|-0-0-0--0-0--0-|--0-0--0---2-3-|

  . . .  . .  .    . .  . . .
|---------------|-------------|--------------|-----------|
|---------------|-------------|--------------|-----------|
|---------------|-------------|--------------|------7----|
|---------------|-------------|-7--7-7---7-7-|-9----5--7-|
|-2-2-2--2-2--2-|--2-2--2-2-2-|-5--5-5---5-5-|-7-------5-|
|-0-0-0--0-0--0-|--0-0--0-0-0-|--------------|-----------|


  . . .  . .  .    . .  . . .   . . .  . .  .    . .  .
|---------------|-------------|---------------|---------------|
|---------------|-------------|---------------|---------------|
|---------------|-------------|---------------|---------------|
|---------------|-------------|---------------|---------------|
|-2-2-2--2-2--2-|--2-2--2-2-2-|-2-2-2--2-2--2-|--2-2----2-----|
|-0-0-0--0-0--0-|--0-0--0-0-0-|-0-0-0--0-0--0-|--0-0--0---2-3-|

  . . .  . .  .    . .  . . .
|---------------|-------------|--------------|-----------|--------|
|---------------|-------------|--------------|-----------|--------|
|---------------|-------------|--------------|------7----|--------|
|---------------|-------------|-7--7-7---7-7-|-9----5--7-|-5------|
|-2-2-2--2-2--2-|--2-2--2-2-2-|-5--5-5---5-5-|-7-------5-|-3------|
|-0-0-0--0-0--0-|--0-0--0-0-0-|--------------|-----------|--------|


|--------|--------|-------------|
|--------|--------|-------------|
|--------|--------|-------------|
|--------|-2------|-----4-4-4-4-|
|--------|-0------|-----2-2-2-2-|
|--------|--------|-------------|

                 . . .
|--------------|-----------------|
|--------------|-----------------|
|--------------|-----------------|
|--------------|---------7-7-7-7-|
|-5---5------2-|-2-2-2---5-5-5-5-|
|-3-0-3----0-0-|-0-0-0-----------|

                 . .
|--------------|-------------------|
|--------------|-------------------|
|--------------|-------------------|
|--------------|-------7-9---------|
|-5---5------2-|-------5-7-5-5-5-5-|
|-3-0-3----0-0-|-0-0-------3-3-3-3-|

  . . . . . . . .   . . . . . . . .
|-----------------|-----------------|-------------|-------19~~--|
|-----------------|-----------------|-------------|-------17~~--|
|-----------------|-----------------|-------------|-------------|
|-7-7-7-7-7-7-7-7-|-7-7-7-7-7-7-7-7-|-------------|----9--------|
|-5-5-5-5-5-5-5-5-|-5-5-5-5-5-5-5-5-|-2---0-----2-|-2--7--------|
|-----------------|-----------------|-0-----3-2-0-|-0-----------|


                 . . .
|--------------|-----------------|
|--------------|-----------------|
|--------------|-----------------|
|--------------|---------7-7-7-7-|
|-5---5------2-|-2-2-2---5-5-5-5-|
|-3-0-3----0-0-|-0-0-0-----------|

                 . .
|--------------|-------------------|
|--------------|-------------------|
|--------------|-------------------|
|--------------|-------7-9---------|
|-5---5------2-|-------5-7-5-5-5-5-|
|-3-0-3----0-0-|-0-0-------3-3-3-3-|


  . . . . . . . .   . . . . . . . .
|-----------------|-----------------|------------------|--------|
|-----------------|-----------------|------------------|--------|
|-----------------|-----------------|------------------|--------|
|-7-7-7-7-7-7-7-7-|-7-7-7-7-7-7-7-7-|--9---9-7------7--|--------|
|-5-5-5-5-5-5-5-5-|-5-5-5-5-5-5-5-5-|--7-------10-9-5--|--------|
|-----------------|-----------------|------------------|--------|



|-----------------|--------------|
|-----------------|--------------|
|-----------------|--------------|
|-----------------|--------------|
|---------------2-|-2---2---8-8--|
|-0-3-6-0-1-0---0-|-0---0-3-6-6--|


  . . .  . .  .    . .  . . .   . . .  . .  .    . .  .
|---------------|-------------|---------------|---------------|
|---------------|-------------|---------------|---------------|
|---------------|-------------|---------------|---------------|
|---------------|-------------|---------------|---------------|
|-2-2-2--2-2--2-|--2-2--2-2-2-|-2-2-2--2-2--2-|--2-2----2-----|
|-0-0-0--0-0--0-|--0-0--0-0-0-|-0-0-0--0-0--0-|--0-0--0---2-3-|

  . . .  . .  .    . .  . . .
|---------------|-------------|--------------|-----------|
|---------------|-------------|--------------|-----------|
|---------------|-------------|--------------|------7----|
|---------------|-------------|-7--7-7---7-7-|-9----5--7-|
|-2-2-2--2-2--2-|--2-2--2-2-2-|-5--5-5---5-5-|-7-------5-|
|-0-0-0--0-0--0-|--0-0--0-0-0-|--------------|-----------|


  . . .  . .  .    . .  . . .   . . .  . .  .    . .  .
|---------------|-------------|---------------|---------------|
|---------------|-------------|---------------|---------------|
|---------------|-------------|---------------|---------------|
|---------------|-------------|---------------|---------------|
|-2-2-2--2-2--2-|--2-2--2-2-2-|-2-2-2--2-2--2-|--2-2----2-----|
|-0-0-0--0-0--0-|--0-0--0-0-0-|-0-0-0--0-0--0-|--0-0--0---2-3-|

  . . .  . .  .    . .  . . .
|---------------|-------------|--------------|-----------|--------|------|
|---------------|-------------|--------------|-----------|--------|------|
|---------------|-------------|--------------|------7----|--------|------|
|---------------|-------------|-7--7-7---7-7-|-9----5--7-|-5------|-2----|
|-2-2-2--2-2--2-|--2-2--2-2-2-|-5--5-5---5-5-|-7-------5-|-3------|-0----|
|-0-0-0--0-0--0-|--0-0--0-0-0-|--------------|-----------|--------|------|


|------------------|-----------------|---------------|
|------------------|-----------------|---------------|
|------------------|-----------------|---------------|
|------------------|-----------------|---------------|
|-0-3-2-----0--1---|-3-2---2---2---2-|-2---2-----1---|
|-------2-3------0-|-1-0---0---0---0-|-0---0-0-3---0-|


|-----------------|---------------|
|-----------------|---------------|
|-----------------|---------------|
|-----------------|---------------|
|-3-2---2---2---2-|-2---2-----1---|
|-1-0---0---0---0-|-0---0-0-3---0-|

    . .   . .   .   .   . .             . .   . .   .   .   . .   
|-----------------|-----------------|-----------------|----------------|
|-----------------|-----------------|-----------------|----------------|
|-----------------|-----------------|-----------------|----------------|
|-----------------|-----------------|-----------------|----------------|
|-3-----3-----3---|---3-------------|-3-----3-----3---|---3-----5-7--8-|
|-1-0-0-1-0-0-1-0-|-0-1-0-0-0-3-6-0-|-1-0-0-1-0-0-1-0-|-0-1-0-0-3-5--6-|

  . .  . .  . .    . .  .   . 
|---------------|-------------|
|---------------|-------------|
|---------------|-------------|
|---------------|-------------|
|-2-2--2-2--2-2-|--2-2--2---2-|
|-0-0--0-0--0-0-|--0-0--0---0-|

  . .  . .  . .    . .  .   .
|---------------|-------------|
|---------------|-------------|
|---------------|-------------|
|---------------|-------------|
|-2-2--2-2--2-2-|--2-2--2---2-|
|-0-0--0-0--0-0-|--0-0--0---0-|

  . .  . .  . .    . .  .   .
|---------------|-------------|
|---------------|-------------|
|---------------|-------------|
|---------------|-------------|
|-7-7--7-7--7-7-|--7-7--7---7-|
|-5-5--5-5--5-5-|--5-5--5---5-|

  . .  . .  . .    . .  .   .
|---------------|-------------|
|---------------|-------------|
|---------------|-------------|
|---------------|-------------|
|-7-7--7-7--7-7-|--7-7--7---7-|
|-5-5--5-5--5-5-|--5-5--5---5-|


  . .  . .  . .    . .  .   . 
|---------------|-------------|
|---------------|-------------|
|---------------|-------------|
|---------------|-------------|
|-2-2--2-2--2-2-|--2-2--2---2-|
|-0-0--0-0--0-0-|--0-0--0---0-|

  . .  . .  . .    . .  .   .
|---------------|-------------|
|---------------|-------------|
|---------------|-------------|
|---------------|-------------|
|-2-2--2-2--2-2-|--2-2--2---2-|
|-0-0--0-0--0-0-|--0-0--0---0-|


|---------------|------------|
|---------------|------------|
|---------------|------------|
|---------------|------------|
|-6-6--6-6--6-6-|-6-6--6---6-|
|-4-4--4-4--4-4-|-4-4--4---4-|

|----------------|---------------|
|----------------|---------------|
|----------------|---------------|
|----------------|---------------|
|-666--6-6-666-6-|--666--6-6-666-|
|-444--4-4-444-4-|--444--4-4-444-|


|-------------|-----------|
|-------------|-----------|
|-------------|-----------|
|-------------|----9-7----|
|-2---0-----2-|----7-5----|
|-0-----3-2-0-|-----------|


                 . . .
|--------------|-----------------|
|--------------|-----------------|
|--------------|-----------------|
|--------------|---------7-7-7-7-|
|-5---5------2-|-2-2-2---5-5-5-5-|
|-3-0-3----0-0-|-0-0-0-----------|

                 . .
|--------------|-------------------|
|--------------|-------------------|
|--------------|-------------------|
|--------------|-------7-9---------|
|-5---5------2-|-------5-7-5-5-5-5-|
|-3-0-3----0-0-|-0-0-------3-3-3-3-|


  . . . . . . . .   . . . . . . . .
|-----------------|-----------------|------------------|-----------|
|-----------------|-----------------|------------------|-----------|
|-----------------|-----------------|------------------|-----------|
|-7-7-7-7-7-7-7-7-|-7-7-7-7-7-7-7-7-|--9---9-7------7--|-----------|
|-5-5-5-5-5-5-5-5-|-5-5-5-5-5-5-5-5-|--7-------10-9-5--|-----------|
|-----------------|-----------------|------------------|---0-3-6-0-|


|-----------------|---------------|
|-----------------|---------------|
|-----------------|---------------|
|-----------------|---------------|
|-3-2---2---2---2-|-2---2-----1---|
|-1-0---0---0---0-|-0---0-0-3---0-|


|-----------------|---------------|
|-----------------|---------------|
|-----------------|---------------|
|-----------------|---------------|
|-3-2---2---2---2-|-2---2-----1---|
|-1-0---0---0---0-|-0---0-0-3---0-|


        
|-----------------|-----------------|-----------------|----------------|
|-----------------|-----------------|-----------------|----------------|
|-----------------|-----------------|-----------------|----------------|
|-----------------|-----------------|-----------------|----------------|
|-----------------|-----------------|-----------------|---------5-7--8-|
|-1-0-0-1-0-0-1-0-|-0-1-0-0-0-3-6-0-|-1-0-0-1-0-0-1-0-|-0-1-0-0-3-5--6-|


|---------------|---------|---------------|
|---------------|---------|---------------|
|---------------|---------|---------------|
|---------------|---------|---------------|
|---------3-2-2-|-2-2-2-2-|---------32--0-|
|-0-3-6-0-1-0-0-|-0-0-0-0-|-0-3-6-0-10--0-|

|------------|
|------------|
|------------|
|------------|
|-2--2--2--2-|
|-0--0--0--0-|


|-----------------|-----------------|-----------------|
|-----------------|-----------------|-----------------|
|-----------------|-----------------|-----------------|10x
|-----------------|-----------------|-----------------|
|-----------------|-----------------|-----------------|
|-0-3-6-0-3-6-0-3-|-6-0-3-6-0-3-6-0-|-3-6-0-3-6-0-3-6-|


Sakuboi
comments
We did not receive enough feedback on this tab! Please rate:
print report bad tab
1 2 3 4 5
I want to post or [tab]
guest
You may want to rate the tab now too:
select rating
Please do not post tabs as comments. Select "correction" instead!