Oops, an error
Loading. Please wait.

Dead To The World Tab

ver2
ver2

Whole song

Interactive

More versions @911Tabs.com
1,291 views 1 this week
no commentswrite comment
1 2 3 4 5
please rate
add to favorites launch autoscroll
font size
0
reset
Autoscroll
+/-
esc
set tempo
stop
Contributor
Tuning
D G C F A D
WARNING: You are trying to view
                                    content from Ultimate-Guitar.com
                                    in an unauthorized application,
                                    which is prohibited.

                                    Please use an official Ultimate
                                    Guitar Tabs application for iPhone,
                                    iPad or Android to access legitimate
                                    chords, guitar, bass, and drum tabs
                                    from Ultimate-Guitar.com database.

                                    Type "ultimate guitar tabs" in Apple
                                    App Store's or Android Market's
                                    search to find the application.
#----------------------------------PLEASE NOTE---------------------------------#
#This file is the author's own work and represents their interpretation of the #
#song. You may only use this file for private study, scholarship, or research. #
#------------------------------------------------------------------------------#

DEAD TO THE WORLD
As recorded by Nightwish
(From the 2002 Album CENTURY CHILD)

Transcribed by Pete (Delirium_Veil)
        

Words and Music by Tuomas Holopainen

Gtr I (D G C F A D) - 'Emppu'
Gtr II (D G C F A D) - 'Emppu - Lead'
Gtr III (D G C F A D) - 'Tuomas'
Gtr IV (D G C F A D) - 'Toumas - synth'

 Intro
  Q=145
  N.C.
 4/4
  Gtr I
  W          W          W
|----------|----------|------||
|----------|----------|------||
|----------|----------|------||
|----------|----------|------||
|----------|----------|------||
|----------|----------|------||


  G5                                                                 D5
   E.     H.                        S   H               Q.            E
|-------------------------------------|-----------------------------------|
|-------------------------------------|-----------------------------------|
|-------------------------------------|-------------------------------7---|
|--5----------------------------------|-------------------------------7---|
|--5----------------------------------|-------------------------------5---|
|--3----------------------------------|-----------------------------------|
|
| Gtr III
|  S  S S S  S  S S S S S S S S S S S   S S S S S S S S S  S S S S S  S S
|-------------------------------------|-----------------------------------|
|-------------------------------------|-----------------------------------|
|--7--0-0-7--0--0-7h8-5-0-0-5-0-0-5h7-|-3-0-0-3-0-0-3h5-2--0-0-2-0-0--3h5-|
|-------------------------------------|-----------------------------------|
|-------------------------------------|-----------------------------------|
|-------------------------------------|-----------------------------------|
|
| Gtr IV
|  Q         H.                         H               Q.            E
|-10----------------------------------|------------------------------10---|
|-11----------------------------------|------------------------------11---|
|-12----------------------------------|------------------------------12---|
|-------------------------------------|-----------------------------------|
|-------------------------------------|-----------------------------------|
|-------------------------------------|-----------------------------------|


  Eb5                                   C5                Bb5  F/A
   E.      H.                       S    H                 Q    Q
|-------------------------------------|------------------------------|
|-------------------------------------|------------------------------|
|--8----------------------------------|--5-----------------3---------|
|--8----------------------------------|--5-----------------3----3----|
|--6----------------------------------|--3-----------------1----0----|
|-------------------------------------|------------------------------|
|
|  S  S S  S  S S S S S S S S S S S S    S S S S S S S  S  E E  E E
|-------------------------------------|------------------------------|
|-------------------------------------|------------------------------|
|--7--0-0--7--0-0-7h8-5-0-0-5-0-0-5h7-|--8-0-0-8-0-0-8h10--8-7--5-8--|
|-------------------------------------|------------------------------|
|-------------------------------------|------------------------------|
|-------------------------------------|------------------------------|
|
|  E    H.                        E      H                 Q    Q
|-11----------------------------------|-11----------------10----8----|
|-11----------------------------------|-13----------------11---10----|
|-12----------------------------------|-12----------------10---10----|
|-------------------------------------|------------------------------|
|-------------------------------------|------------------------------|
|-------------------------------------|------------------------------|


          G5                                                            D5
  Q        H.                          +H.                        +E     E
|-----------------------------------|----------------------------------------|
|-----------------------------------|----------------------------------------|
|-----------------------------------|------------------------------------7---|
|----------5------------------------|--(5)------------------------(5)----7---|
|----------5------------------------|--(5)------------------------(5)----5---|
|----------3------------------------|--(3)------------------------(3)--------|
|
| S S S S  S  S S S S S S S S S S S     S  S S S S S S S S S S S   S  S  S S
|-----------------------------------|----------------------------------------|
|-----------------------------------|----------------------------------------|
|-7-0-0-7--0--0-7h8-5-0-0-5-0-0-5h7-|---3--0-0-3-0-0-3h5-2-----2---------3h5-|
|-----------------------------------|----------------------3-3-----3--3------|
|-----------------------------------|----------------------------------------|
|-----------------------------------|----------------------------------------|
|
| Q        H.                          +H.                        +E     E
|---------10------------------------|-(10)-----------------------(10)---10---|
|---------11------------------------|-(11)-----------------------(11)---11---|
|---------12------------------------|-(12)-----------------------(12)---12---|
|-----------------------------------|----------------------------------------|
|-----------------------------------|----------------------------------------|
|-----------------------------------|----------------------------------------|


  Eb5                                    C5                Bb5  F/A
   E    E.      H               E.        H                 Q    Q
|--------------------------------------|------------------------------||
|--------------------------------------|------------------------------||
|--8----8------------------------------|--5-----------------3---------||
|--8----8------------------------------|--5-----------------3----3----||
|--6----6------------------------------|--3-----------------1----0----||
|--------------------------------------|------------------------------||
|
|  S S  S  S S  S S S S S S S S S  S S    S S S S S S S  S  E E  E E
|--------------------------------------|------------------------------||
|--------------------------------------|------------------------------||
|--7-0--0--7-0--0-7h8-5-0-0-5-0-0--5h7-|--8-0-0-8-0-0-8h10--8-7--5-8--||
|--------------------------------------|------------------------------||
|--------------------------------------|------------------------------||
|--------------------------------------|------------------------------||
|
|  E    E    H.                           H                 Q    Q
|-11---11------------------------------|-11----------------10----8----||
|-11---11------------------------------|-13----------------11---10----||
|-12---12------------------------------|-12----------------10---10----||
|--------------------------------------|------------------------------||
|--------------------------------------|------------------------------||
|--------------------------------------|------------------------------||


    Gtrs I, III
     S S S S S S S S S S S S S S S S     S  S S S S S S S S S S S S S S S
||-----------------------------------|------------------------------------|
||o--7-0-0-7-0-0-7h8-5-0-0-5-0-0-5h7-|---3--0-0-3-0-0-3h5-2-0-0-2-0-0-3h5-|
||-----------------------------------|------------------------------------|
||-----------------------------------|------------------------------------|
||o----------------------------------|------------------------------------|
||-----------------------------------|------------------------------------|
|
|   Gtr IV
|    W                                  +W
||--14-------------------------------|-(14)-------------------------------|
||o-15-------------------------------|-(15)-------------------------------|
||--16-------------------------------|-(16)-------------------------------|
||-----------------------------------|------------------------------------|
||o----------------------------------|------------------------------------|
||-----------------------------------|------------------------------------|
|
|   Gtr II
|    S S S S S S S S S S S S S S S S     S  S S S S S S S S S S S S S S S
||-----------------------------------|------------------------------------|
||o----------------------------------|------------------------------------|
||---4-----4-4-4-----4-----4-4-4-----|---4------4-4-4-----4-----4-4-4-----|
||-----4-4-------4-7---4-4-------4-7-|------4-4-------4-7---4-4-------4-7-|
||o----------------------------------|------------------------------------|
||-----------------------------------|------------------------------------|


                      G5
    S  S S S S S  S S S S S S S S S S
|-------------------------------------|
|---7--0-0-7-0-0--7h8-5-0-0-5-0-0-5h7-|
|-------------------------------------|
|-------------------------------------|
|-------------------------------------|
|-------------------------------------|
|
|   W
|--15---------------------------------|
|-(15)--------------------------------|
|-(16)--------------------------------|
|-------------------------------------|
|-------------------------------------|
|-------------------------------------|
|
|              ~~
|   E    S E   E.     E   S S S S S S
|-------------------------------------|
|-------------------------------------|
|-------------------------------------|
|---5----5-5---4------5---------------|
|---------------------5---5-5-5-5-5-5-|
|---------------------3---3-3-3-3-3-3-|


  E5                  D5        A/C#
                                      Gtr I
    S  S S S S S S  S  E E   E  E      E E E E  E E E E
|----------------------------------||-------------------|
|---8--0-0-8-0-0-8h10--8-7---5--8-o||-------------------|
|----------------------------------||-------------------|
|----------------------------------||-------------------|
|---------------------------------o||--9-7-5-9--7-5-4---|
|----------------------------------||-----------------5-|
|
|   H                  Q     Q         H        H
|-(15)----------------14----12-----||-14-------12-------|
|--17-----------------15----14----o||-15-------14-------|
|-(16)----------------14---(14)----||-14-------14-------|
|----------------------------------||-------------------|
|---------------------------------o||-------------------|
|----------------------------------||-------------------|
|
|                                     Gtr III
|   H                  Q     Q         E E E E  E E E E
|----------------------------------||-------------------|
|---------------------------------o||--7-5-3-7--5-3-----|
|----------------------------------||---------------6-2-|
|---2------------------7-----7-----||-------------------|
|---2------------------5-----4----o||-------------------|
|---0------------------------------||-------------------|


  B5
   W             +W               +W             +E   E H.
|-------------|-----------------|--------------|--------------||
|-------------|-----------------|--------------|--------------||
|-------------|-----------------|--------------|--------------||
|--9----------|--(9)------------|-(9)----------|-(9)\---------||
|--9----------|--(9)------------|-(9)----------|-(9)\---------||
|--7----------|--(7)------------|-(7)----------|-(7)\---------||
|
|  H     H        H       H        H      H       W
|-------------|--12-----(12)----|-10------9----|--------------||
|-12----14----|-(14)-----12-----|-12-----10----|--------------||
|-------14----|-(14)-----12-----|-11------9----|--------------||
|-12----14----|-----------------|--------------|--------------||
|-------------|-----------------|--------------|--------------||
|-------------|-----------------|--------------|--------------||
|
|  W              W                W              E   E H.
|-------------|-----------------|--------------|--------------||
|-------------|-----------------|--------------|--------------||
|--4----------|---4-------------|--4-----------|--4-----------||
|-------------|-----------------|--------------|--------------||
|-------------|-----------------|--------------|--------------||
|-------------|-----------------|--------------|--------------||


   Verse
    $
    B5
    E E E E E E E E    E  S S E E E E E E
||------------------|---------------------|
||o-----------------|---------------------|
||--------------2S4-|---------------------|
||--4-----4-2-------|--4--------4-2-------|
||o---2-2-----2-----|-----2-2-2-----2-5-4-|
||------------------|---------------------|
|
|   W                 +W
||--2---------------|-(2)-----------------|
||o-3---------------|-(3)-----------------|
||--4---------------|-(4)-----------------|
||------------------|---------------------|
||o-----------------|---------------------|
||------------------|---------------------|


  A5
  E E E E E E E E    E  E E E E E E E
|-----------------|--------------------|
|-----------------|--------------------|
|-----------------|--------------------|
|-----------------|--------------------|
|-7-----7-5---4-5-|--7------7-5---4-5--|
|---5-5-----5-----|-----5-5-----5------|
|
| W                  W
|-----------------|--------------------|
|-5---------------|--2-----------------|
|-7---------------|--6-----------------|
|-7---------------|-(7)----------------|
|-----------------|--------------------|
|-----------------|--------------------|


                             To Coda
  E5
  PM--------------------------------|
  E E E E E E E E    E  E E E E E E E
|-----------------|-------------------|
|-----------------|-------------------|
|-----------------|-------------------|
|-----------------|-------------------|
|-2-2-2-2-2-2-2-2-|--2--2-2-2-2-2-2-2-|
|-0-0-0-0-0-0-0-0-|--0--0-0-0-0-0-0-0-|
|
| W                 +W
|-----------------|-------------------|
|-5---------------|-(5)---------------|
|-4---------------|-(4)---------------|
|-----------------|-------------------|
|-----------------|-------------------|
|-----------------|-------------------|


  A5 B5                A5 G5
   E  E E  H     +E     E E E H    +E
|--------------------|-------------------||
|--------------------|------------------o||
|--------------------|-------------------||
|--7S=9----9-----(9)-|--7-5---5----(5)---||
|--7S=9----9-----(9)-|--7-5---5----(5)--o||
|--5S=7----7-----(7)-|--5-3---3----(3)---||
|
|  E  E E  H     +E     E E E H    +E
|--9-10---10----(10)-|--9-7---7----(7)---||
|-10-12---12----(12)-|-10-8---8----(8)--o||
|--9-11---11----(11)-|--9-7---7----(7)---||
|--------------------|-------------------||
|--------------------|------------------o||
|--------------------|-------------------||


 Pre-Chorus
  (E)
   PM--------------------------------------
   S S  S S  S S  S S  S S  S S  S S  S S
|-----------------------------------------|
|-----------------------------------------|
|-----------------------------------------|
|-----------------------------------------|
|-----------------------------------------|
|--0-0--0-0--0-0--0-0--0-0--0-0--0-0--0-0-|
|
|  W
|--7--------------------------------------|
|--8--------------------------------------|
|--9--------------------------------------|
|-----------------------------------------|
|-----------------------------------------|
|-----------------------------------------|
|
| Gtr III
|  E    E    E    E    E    E    E    E
|-----------------------------------------|
|-----------------------------------------|
|-12-------------14-------------16--------|
|-----------14-------------14--------14---|
|------14-------------14------------------|
|-----------------------------------------|


 ----------------------------------------|
   S  S  S S  S S  S S  S S  S S  S S  S S
|------------------------------------------|
|------------------------------------------|
|------------------------------------------|
|------------------------------------------|
|------------------------------------------|
|--0--0--0-0--0-0--0-0--0-0--0-0--0-0--0-0-|
|
| +W
|-(7)--------------------------------------|
|-(8)--------------------------------------|
|-(9)--------------------------------------|
|------------------------------------------|
|------------------------------------------|
|------------------------------------------|
|
|  E     E    E    E    E    E    E    E
|------------------------------------------|
|------------------------------------------|
|-14--------------12-------------11--------|
|------------14-------------14--------14---|
|-------14-------------14------------------|
|------------------------------------------|


  B5
    PM----|   PM----|    PM--------|   PM----|   PM----|
  E S S S S E S S S S  E S S    S  S E S S S S E S S S S E
|----------------------------|-----------------------------|
|----------------------------|-----------------------------|
|-4---------4----------4-----|-------4---------4---------4-|
|-4---------4----------4-----|-------4---------4---------4-|
|-2-2-2-2-2-2-2-2-2-2--2-2-2-|--2--2-2-2-2-2-2-2-2-2-2-2-2-|
|----------------------------|-----------------------------|
|
| W                            +W
|-7--------------------------|-(7)-------------------------|
|-7--------------------------|-(7)-------------------------|
|-7--------------------------|-(7)-------------------------|
|----------------------------|-----------------------------|
|----------------------------|-----------------------------|
|----------------------------|-----------------------------|
|
| E E   E   E E   E    E E      E    E E   E   E E   E   E
|----------------------------|-----------------------------|
|----------------------------|-----------------------------|
|-7---------9---------11-----|--9----------7-----6---7---9-|
|-------9---------9------9---|---------9-------------------|
|---9---------9--------------|-------9---------9-----------|
|----------------------------|-----------------------------|


  D5                        A5
   W                         W
|-------------------------|------------------------|
|-------------------------|------------------------|
|--7----------------------|------------------------|
|--7----------------------|--7---------------------|
|--5----------------------|--7---------------------|
|-------------------------|--5---------------------|
|
|  W                         W
|--5----------------------|-(5)--------------------|
|--7----------------------|--5---------------------|
|--7----------------------|--6---------------------|
|-------------------------|------------------------|
|-------------------------|------------------------|
|-------------------------|------------------------|
|
|  E  E  E  E  E  E  E  E    E   E  E E  E  E E  E
|-------------------------|------------------------|
|-------------------------|------------------------|
|-11-------11-12-14-12-11-|--9--------9-------9-11-|
|-------12----------------|--------11------11------|
|----12-------------------|-----12------12---------|
|-------------------------|------------------------|


  E5                        B5          D5
   W                         H           H
|-------------------------|------------------------|
|-------------------------|------------------------|
|--9----------------------|--4-----------7---------|
|--9----------------------|--4-----------7---------|
|--7----------------------|--2-----------5---------|
|-------------------------|------------------------|
|
|  W                         H           H
|--7----------------------|--7----------10---------|
|--8----------------------|--7----------10---------|
|--9----------------------|--7----------11---------|
|-------------------------|------------------------|
|-------------------------|------------------------|
|-------------------------|------------------------|
|
|  E  E  E  E  E  E  E  E    E  E  E  E  E  E  Q
|-------------------------|------------------------|
|-------------------------|------------------------|
|-12-------14----16-14-12-|-11-------11-------11---|
|-------14----------------|-------12-------12------|
|----14-------14----------|----14-------14---------|
|-------------------------|------------------------|


  E5
   S S  S S  S S  S S  S S  S S  S S  S S
|-----------------------------------------|
|-----------------------------------------|
|-----------------------------------------|
|-----------------------------------------|
|--2-2--2-2--2----2----2-2--2----2-2--2---|
|--0-0--0-0--0----0----0-0--0----0-0--0---|
|
|  W
|--7--------------------------------------|
|--8--------------------------------------|
|--9--------------------------------------|
|-----------------------------------------|
|-----------------------------------------|
|-----------------------------------------|
|
|  E    E    E    E    E    E    E    E
|-----------------------------------------|
|-----------------------------------------|
|-12-------------14-------------16--------|
|-----------14-------------14--------14---|
|------14-------------14------------------|
|-----------------------------------------|


   S  S  S S  S S  S S  S S  S S  S S  S S
|------------------------------------------|
|------------------------------------------|
|------------------------------------------|
|------------------------------------------|
|--2--2--2-2--2----2----2-2--2----2-2--2---|
|--0--0--0-0--0----0----0-0--0----0-0--0---|
|
| +W
|-(7)--------------------------------------|
|-(8)--------------------------------------|
|-(9)--------------------------------------|
|------------------------------------------|
|------------------------------------------|
|------------------------------------------|
|
|  E     E    E    E    E    E    E    E
|------------------------------------------|
|------------------------------------------|
|-14--------------12-------------11--------|
|------------14-------------14--------14---|
|-------14-------------14------------------|
|------------------------------------------|


  B5
   S S S S S S S S S S S S  S S S S     S  S S S S S S S S S S S S S S S
|-----------------------------------|------------------------------------|
|-----------------------------------|------------------------------------|
|-----------------------------------|------------------------------------|
|--4-4-4-4-4---4---4-4-4----4-4-4---|---4--4-4-4-4---4---4-4-4---4-4-4---|
|--2-2-2-2-2---2---2-2-2----2-2-2---|---2--2-2-2-2---2---2-2-2---2-2-2---|
|-----------------------------------|------------------------------------|
|
|  W                                   +W
|-10--------------------------------|-(10)-------------------------------|
|-12--------------------------------|-(12)-------------------------------|
|-11--------------------------------|-(11)-------------------------------|
|-----------------------------------|------------------------------------|
|-----------------------------------|------------------------------------|
|-----------------------------------|------------------------------------|
|
|  E   E   E   E   E   E    E   E       E    E   E   E   E   E   E   E
|-----------------------------------|------------------------------------|
|-----------------------------------|------------------------------------|
|--7-----------9-----------11-------|---9------------7-------6---7---9---|
|----------9-----------9--------9---|------------9-----------------------|
|------9-----------9----------------|--------9-----------9---------------|
|-----------------------------------|------------------------------------|


                                     D.S. al Coda
  G5                        A5
   W                         W
|-------------------------|-------------------------||
|-------------------------|-------------------------||
|-------------------------|-------------------------||
|--5----------------------|--7----------------------||
|--5----------------------|--7----------------------||
|--3----------------------|--5----------------------||
|
|  W                         W
|-10----------------------|--9----------------------||
|-12----------------------|-10----------------------||
|-12----------------------|--9----------------------||
|-------------------------|-------------------------||
|-------------------------|-------------------------||
|-------------------------|-------------------------||
|
|  E  E  E  E  E  E  E  E    E  E  E  E  E  E  E  E
|-14----------------------|-------------------------||
|-------15-17----15-17-15-|-14-------14-15-14-------||
|----16-------16----------|-------14----------16-14-||
|-------------------------|----16-------------------||
|-------------------------|-------------------------||
|-------------------------|-------------------------||


 Chorus
  &
  A5 B5                A5 E5             A5          B5
   E  E E  H     +E     E E E H    +E     W           W
|--------------------|-----------------|-----------|-------|
|--------------------|-----------------|-----------|-------|
|--------------------|-----------------|-----------|-------|
|--7S=9----9-----(9)-|--7-2---2----(2)-|--7--------|--9----|
|--7S=9----9-----(9)-|--7-2---2----(2)-|--7--------|--9----|
|--5S=7----7-----(7)-|--5-0---0----(0)-|--5--------|--7----|
|
|  E  E E  H     +E     E E E H    +E     W           W
|--9-10---10----(10)-|--9-7---7----(7)-|--9--------|-10----|
|-10-12---12----(12)-|-10-8---8----(8)-|-10--------|-12----|
|--9-11---11----(11)-|--9-9---9----(9)-|--9--------|-11----|
|--------------------|-----------------|-----------|-------|
|--------------------|-----------------|-----------|-------|
|--------------------|-----------------|-----------|-------|


  A5 B5                A5 G5             D5          A5
   E  E E  H     +E     E E E H    +E     W           W
|--------------------|-----------------|-----------|---------------||
|--------------------|-----------------|-----------|---------------||
|--------------------|-----------------|--7--------|---------------||
|--7S=9----9-----(9)-|--7-5---5----(5)-|--7--------|--7------------||
|--7S=9----9-----(9)-|--7-5---5----(5)-|--5--------|--7------------||
|--5S=7----7-----(7)-|--5-3---3----(3)-|-----------|--5------------||
|
|  E  E E  H     +E     E E E H    +E     W           H      H
|--9-10---10----(10)-|--9-7---7----(7)-|-10--------|-12----(12)----||
|-10-12---12----(12)-|-10-8---8----(8)-|-10--------|-15-----14-----||
|--9-11---11----(11)-|--9-7---7----(7)-|-11--------|-14----(14)----||
|--------------------|-----------------|-----------|---------------||
|--------------------|-----------------|-----------|---------------||
|--------------------|-----------------|-----------|---------------||


  D5 E5                D5 A5                D5          E5
   E  E E  H     +E     E  E E  H     +E     W           W
|--------------------|--------------------|-----------|-------|
|--------------------|--------------------|-----------|-------|
|--7S=9----9-----(9)-|--7--2----2-----(2)-|--7--------|--9----|
|--7S=9----9-----(9)-|--7--2----2-----(2)-|--7--------|--9----|
|--5S=7----7-----(7)-|--5--0----0-----(0)-|--5--------|--7----|
|--------------------|--------------------|-----------|-------|
|
|  E  E E  H     +E     E  E E  H     +E     W           W
|-14-15---15----(15)-|-14-12---12----(12)-|-14--------|-15----|
|-15-17---17----(17)-|-15-13---13----(13)-|-15--------|-17----|
|-14-16---16----(16)-|-14-14---14----(14)-|-14--------|-16----|
|--------------------|--------------------|-----------|-------|
|--------------------|--------------------|-----------|-------|
|--------------------|--------------------|-----------|-------|


  D5 E5                D5 C5                G5          D5
   E  E E  H     +E     E  E E  H     +E     W           W
|--------------------|--------------------|-----------|-------||
|--------------------|--------------------|-----------|-------||
|--7S=9----9-----(9)-|--7--5----5-----(5)-|-----------|--7----||
|--7S=9----9-----(9)-|--7--5----5-----(5)-|--5--------|--7----||
|--5S=7----7-----(7)-|--5--3----3-----(3)-|--5--------|--5----||
|--------------------|--------------------|--3--------|-------||
|
|  E  E E  H     +E     E  E E  H     +E     W           W
|-14-15---15----(15)-|-14-12---12----(12)-|-10--------|-------||
|-15-17---17----(17)-|-15-13---13----(13)-|-12--------|-10----||
|-14-16---16----(16)-|-14-12---12----(12)-|-12--------|-11----||
|--------------------|--------------------|-----------|-12----||
|--------------------|--------------------|-----------|-------||
|--------------------|--------------------|-----------|-------||


    E5                                                    B5
    Gtrs I, III
     S S S S S S S S S S S S S S S S     S  S S S S S S S  S S S S S S S S
||---7-0-0-7-0-0-7h8-5-0-0-5-0-0-5h7-|---3--0-0-3-0-0-3h5--2-0-0-2-0-0-3h5--|
||o----------------------------------|--------------------------------------|
||-----------------------------------|--------------------------------------|
||-----------------------------------|--------------------------------------|
||o----------------------------------|--------------------------------------|
||-----------------------------------|--------------------------------------|
|
|   Gtr II
|    W                                  +H                 H
||-----------------------------------|--------------------------------------|
||o----------------------------------|--------------------------------------|
||-----------------------------------|---------------------4----------------|
||---2-------------------------------|--(2)----------------4----------------|
||o--2-------------------------------|--(2)----------------2----------------|
||---0-------------------------------|--(0)---------------------------------|
|
|   Gtr IV
|    W                                  +H                 H
||-----------------------------------|--------------------------------------|
||o-12-------------------------------|-(12)---------------12----------------|
||--12-------------------------------|-(12)---------------11----------------|
||--14-------------------------------|-(14)---------------12----------------|
||o----------------------------------|--------------------------------------|
||-----------------------------------|--------------------------------------|


  C5                                 A5                G5   D/F#
   S S S S S S S S S S S S S S S S    S S S S S S S  S  E E  E E
|--7-0-0-7-0-0-7h8-5-0-0-5-0-0-5h7-|--8-0-0-8-0-0-8h10--8-7--5-8--||
|----------------------------------|-----------------------------o||
|----------------------------------|------------------------------||
|----------------------------------|------------------------------||
|----------------------------------|-----------------------------o||
|----------------------------------|------------------------------||
|
|  W                                  H                 Q    Q
|----------------------------------|------------------------------||
|----------------------------------|-----------------------------o||
|--5-------------------------------|--2---------------------------||
|--5-------------------------------|--2-----------------5----4----||
|--3-------------------------------|--0-----------------5----5---o||
|----------------------------------|--------------------3----2----||
|
|  W                                  H                 Q    Q
|----------------------------------|------------------------------||
|-13-------------------------------|-13----------------12---10---o||
|-12-------------------------------|-14----------------12---11----||
|-14-------------------------------|-14----------------12---12----||
|----------------------------------|-----------------------------o||
|----------------------------------|------------------------------||


   Bridge
    C#
    Gtr I
     PM-----------------------------------------------------------------|
     S S S S S S S S S S S S S S S S     S  S S S S S S S S S S S S S S S
||-----------------------------------|------------------------------------|
||o----------------------------------|------------------------------------|
||-----------------------------------|------------------------------------|
||-----------------------------------|------------------------------------|
||o--4-4-4-4-4-4-4-4-4-4-4-4-4-4-4-4-|---4--4-4-4-4-4-4-4-4-4-4-4-4-4-4-4-|
||-----------------------------------|------------------------------------|
|
|    S S S S S S S S S S S S S S S S     S  S S S S S S S S S S S S S S S
||---4-x-x-4-x-x-4-5-7-x-x-7-x-x-4-5-|---7--x-x-7-x-x-5-x-4-x-x-----------|
||o----------------------------------|--------------------------7-x-x-5-x-|
||-----------------------------------|------------------------------------|
||-----------------------------------|------------------------------------|
||o----------------------------------|------------------------------------|
||-----------------------------------|------------------------------------|
|
|    W                                  +W
||--16-------------------------------|-(16)-------------------------------|
||o-17-------------------------------|-(17)-------------------------------|
||--18-------------------------------|-(18)-------------------------------|
||-----------------------------------|------------------------------------|
||o----------------------------------|------------------------------------|
||-----------------------------------|------------------------------------|


  A                                    F#5   E5  B5
   S S S  S S S  S S S S S S S S S S    H     Q   Q
|------------------------------------|----------------||
|------------------------------------|---------------o||
|------------------------------------|--------9-------||
|------------------------------------|--4-----9---9---||
|-12-0-0-12-0-0-11-0-9-0-0-0-0-0-0-0-|--4-----7---9--o||
|------------------------------------|--2---------7---||
|
|  W                                    H     Q   Q
|------------------------------------|----------------||
|------------------------------------|---------------o||
|------------------------------------|--------9-------||
|------------------------------------|--4-----9---9---||
|------------------------------------|--4-----7---9--o||
|------------------------------------|--2---------7---||
|
|  W                                    H     Q   Q
|-17---------------------------------|-17----16--14---||
|-17---------------------------------|-19----17--16--o||
|-18---------------------------------|-18----16--16---||
|------------------------------------|----------------||
|------------------------------------|---------------o||
|------------------------------------|----------------||


 Guitar Solo
  E5               E7sus4
   H                +E.    +S   S  S  S  S
|------------------------------------------|
|-15b17============(15)r==(15)-15-13-12----|
|---------------------------------------14-|
|------------------------------------------|
|------------------------------------------|
|------------------------------------------|
|
|  E     E S S S S   E  E       S  S  S  S
|------------------------------------------|
|------------------------------------------|
|--9-----9-x---x-----7--7------------------|
|--9-----9-x---x-----7--7-------9--7-------|
|--7-----7-7---7-----7--7------------10--9-|
|------------------------------------------|


  E5                         E7sus4E5               E7sus4
                   ~~~        ~~
   H               E.      S  Q     H                E S  E   S  E
|--------------------------------|------------------------------------|
|--------------------------------|------------------------------------|
|-11b12-----------12------11-----|-14b16============14---14-----14----|
|----------------------------14--|------------------------------------|
|--------------------------------|------------------------------------|
|--------------------------------|------------------------------------|
|
|  E    E S S S S  S  S S  S  Q     E     E S S S S  E E    S S  S S
|--------------------------------|------------------------------------|
|--------------------------------|------------------------------------|
|--9----9-x---x----x----------7--|--9-----9-x---x----7-7--------------|
|--9----9-x---x----x----------7--|--9-----9-x---x----7-7----9-7-------|
|--7----7-7---7----7----7--7--7--|--7-----7-7---7----7-7--------10-9--|
|--------------------------------|------------------------------------|


  B5
   ~~~
   H              +E   S  S  S  S  S  S
|------------------------------------12-|
|---------------------------12h13h15----|
|-14r============(14)-12h14-------------|
|---------------------------------------|
|---------------------------------------|
|---------------------------------------|
|
|    PM--------|
|  E S S S S S S   E   S  S  S  S  S  S
|---------------------------------------|
|------------------------------17-19-20-|
|--4------------------16-17-19----------|
|--4---------------4--------------------|
|--2-2-2-2-2-2-2---2--------------------|
|---------------------------------------|


  C5            Cmaj7sus2           C5            Cmaj7sus2
   E  E E   E    E  E  S  S  S  S    E  E E   E    E  E  S  S  S  S
|-12-12-x---x---------------------|-12-12-x---x---------12-----------|
|---------------15p12-------12h13-|---------------15-12----15-13-12--|
|------------------------14-------|----------------------------------|
|---------------------14----------|----------------------------------|
|---------------------------------|----------------------------------|
|---------------------------------|----------------------------------|
|
|  E  E S S S S  E  E  S  S  S  S    E  E S S S S  E  E  S  S  S  S
|---------------------------------|----------------------------------|
|----------------3--3-------------|----------------3--3--5--3--------|
|--5--5-x---x----4--4-------------|--5--5-x---x----4--4--------5--4--|
|--5--5-x---x----5--5-------------|--5--5-x---x----5--5--------------|
|--3--3-3---3----3--3--0--2--3--5-|--3--3-3---3----3--3--------------|
|---------------------------------|----------------------------------|


  N.C.
                                 ~~
   Q.    Q   Q   E    E.  E.  E  H
|-12---------------|------------------||
|-------15--13--12-|-15--13--12-------||
|------------------|------------14----||
|------------------|------------------||
|------------------|------------------||
|------------------|------------------||
|
|  Q.    Q   Q   E    E.  E.  E  H
|------------------|------------------||
|------------------|--3---1-----------||
|--5-----4---2---0-|--4---2---4--2----||
|------------------|----------5--4----||
|------------------|------------------||
|------------------|------------------||


 Verse
  Em
   W                        +W
|-------------------------|--------------------------|
|-------------------------|--------------------------|
|--0----------------------|-(0)----------------------|
|--2----------------------|-(2)----------------------|
|-------------------------|--------------------------|
|-------------------------|--------------------------|
|
| Gtr III
|  E  E  E  E  E  E  E  E    E   E  E  E  E  E  E  E
|-15-------17-------19----|-17--------15-------14-12-|
|-------17-------17----17-|--------17-------17-------|
|----16-------16----------|-----16-------16----------|
|-------------------------|--------------------------|
|-------------------------|--------------------------|
|-------------------------|--------------------------|
|
| Gtr IV
|  W                        +W
|--3----------------------|-(3)----------------------|
|--5----------------------|-(5)----------------------|
|--4----------------------|-(4)----------------------|
|-------------------------|--------------------------|
|-------------------------|--------------------------|
|-------------------------|--------------------------|


   W                          W
|--------------------------|-------------------------|
|--------------------------|-------------------------|
|--------------------------|-------------------------|
|--------------------------|-------------------------|
|--------------------------|-------------------------|
|--------------------------|-------------------------|
|
|  E   E  E  E  E  E  E  E    E   E  E  E  E E  E  E
|-10--------12-------14----|-12--------10----9-10-12-|
|--------12-------12-------|--------12---------------|
|-----11-------11-------11-|-----11-------11---------|
|--------------------------|-------------------------|
|--------------------------|-------------------------|
|--------------------------|-------------------------|
|
|  W                         +W
|--2-----------------------|-(2)---------------------|
|--3-----------------------|-(3)---------------------|
|-(4)----------------------|-(4)---------------------|
|--------------------------|-------------------------|
|--------------------------|-------------------------|
|--------------------------|-------------------------|


  D/A                        A
  Gtr III
   E   E  E  E  E  E  E  E    E  E  E  E  E  E  E  E
|-14--------15----17-15-14-|-12-------12-------12-14-|
|--------15----------------|-------14-------14-------|
|-----14-------14----------|----14-------14----------|
|--------------------------|-------------------------|
|--------------------------|-------------------------|
|--------------------------|-------------------------|
|
| Gtr IV
|  W                          W
|-(2)----------------------|-------------------------|
|-(3)----------------------|--5----------------------|
|--2-----------------------|--6----------------------|
|--------------------------|--7----------------------|
|--------------------------|-------------------------|
|--------------------------|-------------------------|


  Em/B                       Bm           D
   E   E  E  E  E  E  E  E    E   E  E  E  E  E  E  E
|-15--------17----19-17-15-|-14--------12-14-------14-|
|--------17----------------|-----12-15----------15----|
|-----16-------16----------|-----------------14-------|
|--------------------------|--------------------------|
|--------------------------|--------------------------|
|--------------------------|--------------------------|
|
|  W                          H            H
|--3-----------------------|--2------------5----------|
|-(5)----------------------|--3------------7----------|
|--4-----------------------|-(4)-----------7----------|
|--------------------------|--------------------------|
|--------------------------|--------------------------|
|--------------------------|--------------------------|


  Em
   E  E  E  E  E  E  E     E    E   E  E  E  E  E  E  E
|-27----24-29----24-29b31----|-29-----24-27----24-26-24-|
|----24-------24----------24-|-----24-------24----------|
|----------------------------|--------------------------|
|----------------------------|--------------------------|
|----------------------------|--------------------------|
|----------------------------|--------------------------|
|
|  W                           +W
|--3-------------------------|-(3)----------------------|
|--5-------------------------|-(5)----------------------|
|--4-------------------------|-(4)----------------------|
|----------------------------|--------------------------|
|----------------------------|--------------------------|
|----------------------------|--------------------------|
|
| Gtr I
|  W                           +W
|-^3-------------------------|-(3)----------------------|
|-^5-------------------------|-(5)----------------------|
|-^4-------------------------|-(4)----------------------|
|-^2-------------------------|-(2)----------------------|
|----------------------------|--------------------------|
|----------------------------|--------------------------|


  Bm/F#
   E   E  E  E  E  E  E  E    E   E  E  E  E  E  E  E
|-22--------24-------26----|-24--------22-------21----|
|--------24-------24-------|--------24-------24-------|
|-----23-------23-------23-|-----23-------23-------23-|
|--------------------------|--------------------------|
|--------------------------|--------------------------|
|--------------------------|--------------------------|
|
|  W                         +W
|--2-----------------------|-(2)----------------------|
|--3-----------------------|-(3)----------------------|
|-(4)----------------------|-(4)----------------------|
|--------------------------|--------------------------|
|--------------------------|--------------------------|
|--------------------------|--------------------------|
|
|  W                         +W
|-^2-----------------------|-(2)----------------------|
|-^3-----------------------|-(3)----------------------|
|-^4-----------------------|-(4)----------------------|
|-^4-----------------------|-(4)----------------------|
|--------------------------|--------------------------|
|--------------------------|--------------------------|


  D                          Dsus2                     Bm/F#
   E   E  E  E  E  E  E  E    E  E  E  E  E  E  E  E    W           +W
|-22-----19-24-------22----|-21-------21-22-21-19-17-|-19--------|-(19)----|
|-----20----------24-------|-------22----------------|-----------|---------|
|--------------24-------24-|----21-------------------|-----------|---------|
|--------------------------|-------------------------|-----------|---------|
|--------------------------|-------------------------|-----------|---------|
|--------------------------|-------------------------|-----------|---------|
|
|  W                          W                         W           +W
|--------------------------|-------------------------|--2--------|--(2)----|
|-(3)----------------------|--5----------------------|--3--------|--(3)----|
|-(4)----------------------|--6----------------------|--4--------|--(4)----|
|--5-----------------------|--7----------------------|-----------|---------|
|--------------------------|-------------------------|-----------|---------|
|--------------------------|-------------------------|-----------|---------|
|
|  W                          W                         W           +W
|-^2-----------------------|-^0----------------------|-^2--------|--(2)----|
|-^3-----------------------|-^3----------------------|-^3--------|--(3)----|
|-^2-----------------------|-^2----------------------|-^4--------|--(4)----|
|-^0-----------------------|-^0----------------------|-^4--------|--(4)----|
|--------------------------|-------------------------|-----------|---------|
|--------------------------|-------------------------|-----------|---------|


   W           +W
|------------|--------||
|------------|--------||
|--4---------|-(4)----||
|------------|--------||
|--2---------|-(2)----||
|------------|--------||
|
| +W           +W
|-(2)--------|-(2)----||
|-(3)--------|-(3)----||
|-(4)--------|-(4)----||
|------------|--------||
|------------|--------||
|------------|--------||
|
| +W           +W
|-(2)--------|-(2)----||
|-(3)--------|-(3)----||
|-(4)--------|-(4)----||
|-(4)--------|-(4)----||
|------------|--------||
|------------|--------||


 Chorus
  N.C.                  D5          E5
  Gtr I
  W          W           W           W
|----------|----------|-----------|-------|
|----------|----------|-----------|-------|
|----------|----------|--7--------|--9----|
|----------|----------|--7--------|--9----|
|----------|----------|--5--------|--7----|
|----------|----------|-----------|-------|
|
| Gtr IV
| W          W           W           W
|----------|----------|-14--------|-15----|
|----------|----------|-15--------|-17----|
|----------|----------|-14--------|-16----|
|----------|----------|-----------|-------|
|----------|----------|-----------|-------|
|----------|----------|-----------|-------|


  D5 E5                D5 C5                G5          D5
   E  E E  H     +E     E  E E  H     +E     W           W
|--------------------|--------------------|-----------|-------||
|--------------------|--------------------|-----------|-------||
|--7S=9----9-----(9)-|--7--5----5-----(5)-|-----------|--7----||
|--7S=9----9-----(9)-|--7--5----5-----(5)-|--5--------|--7----||
|--5S=7----7-----(7)-|--5--3----3-----(3)-|--5--------|--5----||
|--------------------|--------------------|--3--------|-------||
|
|  E  E E  H     +E     E  E E  H     +E     W           W
|-14-15---15----(15)-|-14-12---12----(12)-|-10--------|-------||
|-15-17---17----(17)-|-15-13---13----(13)-|-12--------|-10----||
|-14-16---16----(16)-|-14-12---12----(12)-|-12--------|-11----||
|--------------------|--------------------|-----------|-12----||
|--------------------|--------------------|-----------|-------||
|--------------------|--------------------|-----------|-------||


    A5 B5                A5 E5             A5          B5
     E  E E  H     +E     E E E H    +E     W           W
||---------------------|-----------------|-----------|-------|
||o--------------------|-----------------|-----------|-------|
||---------------------|-----------------|-----------|-------|
||---7S=9----9-----(9)-|--7-2---2----(2)-|--7--------|--9----|
||o--7S=9----9-----(9)-|--7-2---2----(2)-|--7--------|--9----|
||---5S=7----7-----(7)-|--5-0---0----(0)-|--5--------|--7----|
|
|    E  E E  H     +E     E E E H    +E     W           W
||---9-10---10----(10)-|--9-7---7----(7)-|--9--------|-10----|
||o-10-12---12----(12)-|-10-8---8----(8)-|-10--------|-12----|
||---9-11---11----(11)-|--9-9---9----(9)-|--9--------|-11----|
||---------------------|-----------------|-----------|-------|
||o--------------------|-----------------|-----------|-------|
||---------------------|-----------------|-----------|-------|


  A5 B5                A5 G5             D5          A5
   E  E E  H     +E     E E E H    +E     W           W
|--------------------|-----------------|-----------|----------------||
|--------------------|-----------------|-----------|---------------o||
|--------------------|-----------------|--7--------|----------------||
|--7S=9----9-----(9)-|--7-5---5----(5)-|--7--------|--7-------------||
|--7S=9----9-----(9)-|--7-5---5----(5)-|--5--------|--7------------o||
|--5S=7----7-----(7)-|--5-3---3----(3)-|-----------|--5-------------||
|
|  E  E E  H     +E     E E E H    +E     W           H      H
|--9-10---10----(10)-|--9-7---7----(7)-|-10--------|-12----(12)-----||
|-10-12---12----(12)-|-10-8---8----(8)-|-10--------|-15-----14-----o||
|--9-11---11----(11)-|--9-7---7----(7)-|-11--------|-14----(14)-----||
|--------------------|-----------------|-----------|----------------||
|--------------------|-----------------|-----------|---------------o||
|--------------------|-----------------|-----------|----------------||


  B5       A5 B5
   Q  H     E  E    +E   H.      E
|----------------|-----------------*|
|----------------|-----------------*|
|----------------|-----------------*|
|--9--------7--9-|--(9)\-----------*|
|--9--------7--9-|--(9)\-----------*|
|--7--------5--7-|--(7)\-----------*|
|
|  Q  H     E  E    +E   H.      E
|-10-------17-19-|-(19)------------*|
|-12-------17-19-|-(19)------------*|
|-11-------18-19-|-(19)------------*|
|----------------|-----------------*|
|----------------|-----------------*|
|----------------|-----------------*|



Duration Legend
---------------
W - whole; H - half; Q - quarter; E - 8th; S - 16th; T - 32nd; X - 64th; a - acciaccatura
+ - note tied to previous; . - note dotted; .. - note double dotted
Uncapitalized letters represent notes that are staccato (1/2 duration)
Irregular groupings are notated above the duration line
Duration letters will always appear directly above the note/fret number it represents the
duration for.  Duration letters with no fret number below them represent rests.  Multi-
bar rests are notated in the form Wxn, where n is the number of bars to rest for.  Low
melody durations appear below the staff

Tablature Legend
----------------
 h   - hammer-on
 p   - pull-off
 b   - bend
 pb  - pre-bend
 r   - bend release (if no number after the r, then release immediately)
 /\  - slide into or out of (from/to "nowhere")
 s   - legato slide
 S   - shift slide
<n> - natural harmonic
[n]  - artificial harmonic
n(n) - tapped harmonic
 ~   - vibrato
 tr  - trill
 T   - tap
 TP  - trem. picking
 PM  - palm muting
\n/  - tremolo bar dip; n = amount to dip
 \n  - tremolo bar down
 n/  - tremolo bar up
/n\  - tremolo bar inverted dip
 =   - hold bend; also acts as connecting device for hammers/pulls
 <> - volume swell (louder/softer)
 x   - on rhythm slash represents muted slash
 o   - on rhythm slash represents single note slash

Misc Legend
-----------
 |  - bar
||  - double bar
||o - repeat start
o|| - repeat end
*|  - double bar (ending)
 :  - bar (freetime)
 $  - Segno
 &  - Coda
Tempo markers - <E/E./Q/Q./H/H.> = BPM(8/16=s8/s16), where s8 = swing 8ths, s16 = swing 16ths

comments
We did not receive enough feedback on this tab! Please rate:
print report bad tab
1 2 3 4 5
I want to post or [tab]
guest
You may want to rate the tab now too:
select rating
Please do not post tabs as comments. Select "correction" instead!