Oops, an error
Loading. Please wait.

Elvenpath Tab

ver3
ver3

Whole song

Interactive

More versions @911Tabs.com
800 views 1 this week
no commentswrite comment
1 2 3 4 5
please rate
Autoscroll
+/-
esc
set tempo
stop
Contributor
Hey! There's an official Ultimate Guitar app which is ideal
for learning songs when you're away from computer. Get the app
WARNING: You are trying to view
                                    content from Ultimate-Guitar.com
                                    in an unauthorized application,
                                    which is prohibited.

                                    Please use an official Ultimate
                                    Guitar Tabs application for iPhone,
                                    iPad or Android to access legitimate
                                    chords, guitar, bass, and drum tabs
                                    from Ultimate-Guitar.com database.

                                    Type "ultimate guitar tabs" in Apple
                                    App Store's or Android Market's
                                    search to find the application.
#----------------------------------PLEASE NOTE---------------------------------#
#This file is the author's own work and represents their interpretation of the #
#song. You may only use this file for private study, scholarship, or research. #
#------------------------------------------------------------------------------#

ELVENPATH
As recorded by Nightwish
(From the 1997 Album ANGELS FALL FIRST)

Transcribed by Pete (Delirium_Veil)
        

Words and Music by T. Holopainen
Arranged by Nightwish

Gtr I (E A D G B E) - 'String Ensemble'
Gtr II (E A D G B E) - 'Marimba'
Gtr III (E A D G B E) - 'Distortion 1'
Gtr IV (E A D G B E) - 'Distortion 2'
Gtr V (E A D G B E) - 'Harpsichord'

 Intro
  Q=150
  (A)
 4/4
  Gtr I
  W          +W           +W
|----------|------------|--------|
|----------|------------|--------|
|----------|------------|--------|
|----------|------------|--------|
|-0--------|-(0)--------|-(0)----|
|----------|------------|--------|


  +W           +W           +W           +W
|------------|------------|------------|--------|
|------------|------------|------------|--------|
|------------|------------|------------|--------|
|------------|------------|------------|--------|
|-(0)--------|-(0)--------|-(0)--------|-(0)----|
|------------|------------|------------|--------|


  +W                      +W
|-----------------------|----------------------|
|-----------------------|----------------------|
|-----------------------|----------------------|
|-----------------------|----------------------|
|-(0)-------------------|-(0)------------------|
|-----------------------|----------------------|
|
| Gtr II
|  E  E  E E  E  E E  E    E  E  E E  E E E  E
|--------8----8-10---12-|--------8----8-7----8-|
|-------10---10-12---13-|-------10---10-8---10-|
|-----9----9------------|-----9----9-----------|
|-----------------------|----------------------|
|-----------------------|----------------------|
|-----------------------|----------------------|


                          (F)
  +W                        H.                 Q
|-----------------------|---------------------------|
|-----------------------|---------------------------|
|-----------------------|---------------------------|
|-----------------------|---------------------------|
|-(0)-------------------|---------------------------|
|-----------------------|---1-----------------------|
|
|  E  E  E E  E  E E  E    +E   E  E  E  E  E  E  E
|--------8----8-10------|---------------------------|
|-------10---10-12------|------13-12-10----10-------|
|-----9----9---------10-|-(10)----------------12----|
|-----------------------|---------------12-------12-|
|-----------------------|---------------------------|
|-----------------------|---------------------------|


  (A)
  W                     +W
|---------------------|----------------------|
|---------------------|----------------------|
|---------------------|----------------------|
|---------------------|----------------------|
|-0-------------------|-(0)------------------|
|---------------------|----------------------|
|
| E E  E E  E  E E  E    E  E  E E  E E E  E
|------8----8-10---12-|--------8----8-7----8-|
|-----10---10-12---13-|-------10---10-8---10-|
|---9----9------------|-----9----9-----------|
|---------------------|----------------------|
|---------------------|----------------------|
|---------------------|----------------------|
|
| Gtr III
| W                      W
|---------------------|----------------------|
|---------------------|----------------------|
|---------------------|----------------------|
|---------------------|----------------------|
|---------------------|----------------------|
|---------------------|----------------------|


                     N.C.
  +H.              E  E    +E   E  E  E E  E E E
|-----------------------|-------8--7------10-8---|
|---------------------6-|--(6)-------10-8------8-|
|-----------------------|------------------------|
|-----------------------|------------------------|
|-(0)-------------------|------------------------|
|-----------------------|------------------------|
|
|  E  E  E E  E  E E  E    +E   E  E  E E  E E E
|--------8----8-10------|-----------------10-8---|
|-------10---10-12------|------13-12-10--------8-|
|-----9----9---------10-|-(10)----------7--------|
|-----------------------|------------------------|
|-----------------------|------------------------|
|-----------------------|------------------------|
|
|  H.              E  E    +E   E  E  E E  E E E
|-----------------------|------------------------|
|-----------------------|------------------------|
|-----------------------|------------------------|
|-----------------------|------------------------|
|-----------------------|-------3--2--0----5-3---|
|---------------------1-|--(1)----------3------3-|


    $
        A5      G5                      G5  A5
    E E  E E  E  E E  E    E  E  E E  E E E  E
||-------8----8-10---12-|--------8----8-7----8-|
||o-----10---10-12---13-|-------10---10-8---10-|
||----9----9------------|-----9----9-----------|
||----------------------|----------------------|
||o---------------------|----------------------|
||----------------------|----------------------|
|
|   Gtr III
|                     ~~~~~~~~
|   E E  E E  E  E E  E   +E  E  E E  E E E  E
||----------------------|----------------------|
||o---------------------|----------------------|
||--------------------5-|-(5)------------------|
||-------7----7--5----5-|-(5)----7----7-5----7-|
||o------7----7--5------|--------7----7-5----7-|
||----5--5----5--3------|-----5--5----5-3----5-|


                G5   N.C.
   E  E  E E  E  E E  E    +E   E  E  E  E  E  E  E
|--------8----8-10------|----------------------------|
|-------10---10-12------|------13-12-10----10--------|
|-----9----9---------10-|-(10)----------------12-----|
|-----------------------|---------------12-------12--|
|-----------------------|----------------------------|
|-----------------------|----------------------------|
|
| +E  E  E E  E  E E  E    +E   E  E  E  E  E  E  E
|-----------------------|----------------------------|
|-----------------------|----------------------------|
|-----------------------|----------------------------|
|-(7)----7----7--5------|-------------------7--5-----|
|-(7)----7----7--5------|-------3--2--0-/5--------5--|
|-(5)-5--5----5--3----1-|--(1)-----------------------|


      A5      G5                      G5  A5
  E E  E E  E  E E  E    E  E  E E  E E E  E
|------8----8-10---12-|--------8----8-7----8-|
|-----10---10-12---13-|-------10---10-8---10-|
|---9----9------------|-----9----9-----------|
|---------------------|----------------------|
|---------------------|----------------------|
|---------------------|----------------------|
|
|                   ~~~~~~~~
| E E  E E  E  E E  E   +E  E  E E  E E E  E
|---------------------|----------------------|
|---------------------|----------------------|
|-------------------5-|-(5)------------------|
|------7----7--5----5-|-(5)----7----7-5----7-|
|------7----7--5------|--------7----7-5----7-|
|---5--5----5--3------|-----5--5----5-3----5-|


                G5   N.C.
   E  E  E E  E  E E  E    +E   E  E  E E  E E E
|--------8----8-10------|-----------------10-8----||
|-------10---10-12------|------13-12-10--------8-o||
|-----9----9---------10-|-(10)----------7---------||
|-----------------------|-------------------------||
|-----------------------|------------------------o||
|-----------------------|-------------------------||
|
| +E  E  E E  E  E E  E    +E   E  E  E E  E E E
|-----------------------|-------------------------||
|-----------------------|------------------------o||
|-----------------------|-------------------------||
|-(7)----7----7--5------|-------------------------||
|-(7)----7----7--5------|-------3--2--0-5--5-3---o||
|-(5)-5--5----5--3----1-|--(1)-----------------3--||


 Verse
  A5         Bb5  G5     A5         D5   F5
  Gtr III
  W          H    H      W          H     H
|----------|-----------|----------|------------|
|----------|-----------|----------|------------|
|-2--------|-3---------|-2--------|-7----10----|
|-2--------|-3----5----|-2--------|-7----10----|
|-0--------|-1----5----|-0--------|-5-----8----|
|----------|------3----|----------|------------|


  A5         Bb5  G5     A5              N.C.
  W          H    H      Q  E H    +E     E  E  Q   E E  E  E
|----------|-----------|---------------|----------------------|
|----------|-----------|---------------|----------------------|
|-2--------|-3---------|-2----2----(2)-|----------------------|
|-2--------|-3----5----|-2----2----(2)-|-/3--2--0-------------|
|-0--------|-1----5----|-0----0----(0)-|-----------------0--2-|
|----------|------3----|---------------|------------1-3-------|
|
| Gtr I
| W          W           W                E  E  Q   E E  E  E
|----------|-----------|---------------|-13-12-10-------------|
|----------|-----------|---------------|--------------8-10-12-|
|----------|-----------|---------------|-----------10---------|
|----------|-----------|---------------|----------------------|
|----------|-----------|---------------|----------------------|
|----------|-----------|---------------|----------------------|


  A5                 Bb5      G5         A5                 D5       F5
     PM----------|      PM--|    PM--|      PM----------|      PM--|    PM--|
   E E E E E E E E    E E E E  E E E E    E E E E E E E E    E E E E  E E E E
|------------------|-------------------|------------------|-------------------|
|------------------|-------------------|------------------|-------------------|
|--2---------------|--3----------------|--2---------------|--7-------10-------|
|--2---------------|--3----------------|--2---------------|--7-------10-------|
|--0-0-0-0-0-0-0-0-|--1-1-1-1--5-------|--0-0-0-0-0-0-0-0-|--5-5-5-5--8-8-8-8-|
|------------------|-----------3-3-3-3-|------------------|-------------------|
|
|  W                  H        H          W                  H        H
|--8---------------|-10-------10-------|--8---------------|-10--------8-------|
|-10---------------|-11-------11-------|-10---------------|-10-------10-------|
|--9---------------|-10-------12-------|--9---------------|-10-------10-------|
|------------------|-------------------|------------------|-------------------|
|------------------|-------------------|------------------|-------------------|
|------------------|-------------------|------------------|-------------------|


  A5                 Bb5      G5         A5
     PM----------|      PM--|    PM--|
   E E E E E E E E    E E E E  E E E E    Q  E H    +E      Q   E Q.   E E
|------------------|-------------------|----------------|------------------||
|------------------|-------------------|----------------|------------------||
|--2---------------|--3----------------|--2----2----(2)-|---2-----2--------||
|--2---------------|--3----------------|--2----2----(2)-|---2-----2--------||
|--0-0-0-0-0-0-0-0-|--1-1-1-1--5-------|--0----0----(0)-|---0-----0----0-2-||
|------------------|-----------3-3-3-3-|----------------|------------------||
|
|  W                  H        H          W                +W
|--8---------------|-10-------10-------|--8-------------|--(8)-------------||
|-10---------------|-11-------12-------|-10-------------|-(10)-------------||
|--9---------------|-10-------12-------|--9-------------|--(9)-------------||
|------------------|-------------------|----------------|------------------||
|------------------|-------------------|----------------|------------------||
|------------------|-------------------|----------------|------------------||


 Chorus
  C5                               G5
     PM------------------------|      PM-------------------------|
   E S S S S S S S S S S S S S S    E S S S S S S  S S S S S S S S
|--------------------------------|---------------------------------|
|--------------------------------|---------------------------------|
|--------------------------------|---------------------------------|
|--5-----------------------------|---------------------------------|
|--3-3-3-3-3-3-3-3-3-3-3-3-3-3-3-|--5------------------------------|
|--------------------------------|--3-3-3-3-3-3-3--3-3-3-3-3-3-3-3-|
|
|  W                                H              H
|-12-----------------------------|-10------------------------------|
|-13-----------------------------|-13-------------12---------------|
|-12-----------------------------|-12------------------------------|
|--------------------------------|---------------------------------|
|--------------------------------|---------------------------------|
|--------------------------------|---------------------------------|


  Bb5                              A5
     PM------------------------|      PM-------------------------|
   E S S S S S S S S S S S S S S    E S S S S S S  S S S S S S S S
|--------------------------------|---------------------------------|
|--------------------------------|---------------------------------|
|--------------------------------|---------------------------------|
|--3-----------------------------|--2------------------------------|
|--1-1-1-1-1-1-1-1-1-1-1-1-1-1-1-|--0-0-0-0-0-0-0--0-0-0-0-0-0-0-0-|
|--------------------------------|---------------------------------|
|
|  W                                H              H
|-13-----------------------------|-12------------------------------|
|-15-----------------------------|-15-------------13---------------|
|-15-----------------------------|-14------------------------------|
|--------------------------------|---------------------------------|
|--------------------------------|---------------------------------|
|--------------------------------|---------------------------------|


  F5                               D5
     PM------------------------|      PM----|   PM----|   PM|
   E S S S S S S S S S S S S S S    E S S S S E S S S S E S S
|--------------------------------|----------------------------|
|--------------------------------|----------------------------|
|--------------------------------|----------------------------|
|--------------------------------|--7---------7---------7-----|
|--3-----------------------------|--5-5-5-5-5-5-5-5-5-5-5-5-5-|
|--1-1-1-1-1-1-1-1-1-1-1-1-1-1-1-|----------------------------|
|
|  W                                W
|--------------------------------|-13-------------------------|
|-13-----------------------------|-15-------------------------|
|-14-----------------------------|-14-------------------------|
|-15-----------------------------|----------------------------|
|--------------------------------|----------------------------|
|--------------------------------|----------------------------|


  N.C.
   S S S S S S S S S S S S S S S S    S S S S S S S S  S S S S E S S
|----------------------------------|----------------------------------|
|----------------------------------|----------------------------------|
|----------------------------------|----------------------------------|
|----------------------------------|----------------------------------|
|--5h7-7-7-7-7-7-7-5h7-7-7-7-7-7-7-|--5h7-7-7-5h7-7-7--7h8-7-5-3-0-0--|
|----------------------------------|----------------------------------|
|
|  W                                  H                H
|-16-------------------------------|-17---------------19--------------|
|-17-------------------------------|----------------------------------|
|-16-------------------------------|----------------------------------|
|----------------------------------|----------------------------------|
|----------------------------------|----------------------------------|
|----------------------------------|----------------------------------|


  C5
         PM------------------------------------|
   E     S  S  S  S  S  S  S  S  S  S  S  S  S  S
|-------------------------------------------------|
|-------------------------------------------------|
|-------------------------------------------------|
|--5----------------------------------------------|
|--3-----3--3--3--3--3--3--3--3--3--3--3--3--3--3-|
|-------------------------------------------------|
|
|  W
|-12----------------------------------------------|
|-13----------------------------------------------|
|-12----------------------------------------------|
|-------------------------------------------------|
|-------------------------------------------------|
|-------------------------------------------------|
|
| Gtr V
|  S  S  S  S  S  S  S  S  S  S  S  S  S  S  S  S
|-12----------12----------12----------12----------|
|----13----13----13----13----13----13----13----13-|
|-------12----------12----------12----------12----|
|-------------------------------------------------|
|-------------------------------------------------|
|-------------------------------------------------|


  G5
       PM---------------------------|
   E   S S  S S S S  S S S S  S S S S
|-------------------------------------|
|-------------------------------------|
|-------------------------------------|
|-------------------------------------|
|--5----------------------------------|
|--3---3-3--3-3-3-3--3-3-3-3--3-3-3-3-|
|
|  H                 H
|-10----------------------------------|
|-13----------------12----------------|
|-12----------------------------------|
|-------------------------------------|
|-------------------------------------|
|-------------------------------------|
|
|  S S S S  S S S S  S S S S  S S S S
|-10-8---8-10-8---8-10-7---7-10-7---7-|
|------8--------8--------8--------8---|
|-------------------------------------|
|-------------------------------------|
|-------------------------------------|
|-------------------------------------|


  Bb5
         PM------------------------------------|
   E     S  S  S  S  S  S  S  S  S  S  S  S  S  S
|-------------------------------------------------|
|-------------------------------------------------|
|-------------------------------------------------|
|--3----------------------------------------------|
|--1-----1--1--1--1--1--1--1--1--1--1--1--1--1--1-|
|-------------------------------------------------|
|
|  W
|-13----------------------------------------------|
|-15----------------------------------------------|
|-15----------------------------------------------|
|-------------------------------------------------|
|-------------------------------------------------|
|-------------------------------------------------|
|
|  S  S  S  S  S  S  S  S  S  S  S  S  S  S  S  S
|-13-10----10-13-10----10-13-10----10-13-10----10-|
|-------11----------11----------11----------11----|
|-------------------------------------------------|
|-------------------------------------------------|
|-------------------------------------------------|
|-------------------------------------------------|


  A5
         PM------------------------------------|
   E     S  S  S  S  S  S  S  S  S  S  S  S  S  S
|-------------------------------------------------|
|-------------------------------------------------|
|-------------------------------------------------|
|--2----------------------------------------------|
|--0-----0--0--0--0--0--0--0--0--0--0--0--0--0--0-|
|-------------------------------------------------|
|
|  H                       H
|-12----------------------------------------------|
|-15----------------------13----------------------|
|-14----------------------------------------------|
|-------------------------------------------------|
|-------------------------------------------------|
|-------------------------------------------------|
|
|  S  S  S  S  S  S  S  S  S  S  S  S  S  S  S  S
|-12-10----10-12-10----10-12----------12----------|
|-------10----------10-------13----13----13----13-|
|-------------------------------14----------14----|
|-------------------------------------------------|
|-------------------------------------------------|
|-------------------------------------------------|


  F5
         PM------------------------------------|
   E     S  S  S  S  S  S  S  S  S  S  S  S  S  S
|-------------------------------------------------|
|-------------------------------------------------|
|-------------------------------------------------|
|-------------------------------------------------|
|--3----------------------------------------------|
|--1-----1--1--1--1--1--1--1--1--1--1--1--1--1--1-|
|
|  W
|-------------------------------------------------|
|-13----------------------------------------------|
|-14----------------------------------------------|
|-15----------------------------------------------|
|-------------------------------------------------|
|-------------------------------------------------|
|
|  S  S  S  S  S  S  S  S  S  S  S  S  S  S  S  S
|-------------------------------------------------|
|-13----------13----------13----------13----------|
|----14----14----14----14----14----14----14----14-|
|-------15----------15----------15----------15----|
|-------------------------------------------------|
|-------------------------------------------------|


                                           D.S.
  E5
   W
|-------------------------------------------------||
|-------------------------------------------------||
|-------------------------------------------------||
|--2----------------------------------------------||
|--2----------------------------------------------||
|--0----------------------------------------------||
|
|  H                       H
|-------------------------------------------------||
|-12----------------------------------------------||
|-14----------------------13----------------------||
|-14----------------------------------------------||
|-------------------------------------------------||
|-------------------------------------------------||
|
|  S  S  S  S  S  S  S  S  S  S  S  S  S  S  S  S
|-------------------------------------------------||
|-12----------12----------12----------12----------||
|----14----14----14----14----13----13----13----13-||
|-------14----------14----------14----------14----||
|-------------------------------------------------||
|-------------------------------------------------||


  N.C.                      A5      G5  A5
  Gtr I
  E E  E E  E  E E  E   E E  E E  E E E  E
|------8----8-10---12-|------8----8-7----8-|
|-----10---10-12---13-|-----10---10-8---10-|
|---9----9------------|---9----9-----------|
|---------------------|--------------------|
|---------------------|--------------------|
|---------------------|--------------------|
|
| Gtr III
| W                     E E  E E  E E E  E
|---------------------|--------------------|
|---------------------|--------------------|
|---------------------|--------------------|
|---------------------|------7----7-5----7-|
|---------------------|------7----7-5----7-|
|---------------------|---5--5----5-3----5-|


                     N.C.
   E  E  E E  E  E E  E    +E   E  E  E  E  E  E  E
|--------8----8-10------|---------------------------|
|-------10---10-12------|------13-12-10----10-------|
|-----9----9---------10-|-(10)----------------12----|
|-----------------------|---------------12-------12-|
|-----------------------|---------------------------|
|-----------------------|---------------------------|
|
| +E  Q    Q     Q    E    +E   E  E  E  E  E  E  E
|-----------------------|---------------------------|
|-----------------------|---------------------------|
|-----------------------|---------------------------|
|-(7)-------------------|-------------------7--5----|
|-(7)-------------------|-------3--2--0-/5--------5-|
|-(5)-----------------1-|--(1)----------------------|


                            A5      G5  A5
  E E  E E  E  E E  E   E E  E E  E E E  E
|------8----8-10---12-|------8----8-7----8-|
|-----10---10-12---13-|-----10---10-8---10-|
|---9----9------------|---9----9-----------|
|---------------------|--------------------|
|---------------------|--------------------|
|---------------------|--------------------|
|
| W                     E E  E E  E E E  E
|---------------------|--------------------|
|---------------------|--------------------|
|---------------------|--------------------|
|---------------------|------7----7-5----7-|
|---------------------|------7----7-5----7-|
|---------------------|---5--5----5-3----5-|


                     N.C.
   E  E  E E  E  E E  E    +E   E  E  E E  E E E
|--------8----8-10------|-----------------10-8---||
|-------10---10-12------|------13-12-10--------8-||
|-----9----9---------10-|-(10)----------7--------||
|-----------------------|------------------------||
|-----------------------|------------------------||
|-----------------------|------------------------||
|
| +E  Q    Q     Q    E    +E   E  E  E E  E E E
|-----------------------|------------------------||
|-----------------------|------------------------||
|-----------------------|------------------------||
|-(7)-------------------|------------------------||
|-(7)-------------------|-------3--2--0-5--5-3---||
|-(5)-----------------1-|--(1)-----------------3-||


 Bridge
       E5F5/E5/B           F5/C              E5F5/E5/B      F5  C5
  Gtr III
  H    E  E Q    +Q   Q  E  Q.      +E  Q.   E  E Q    +Q    Q  H
|--------------|-----------------|-------------------|---------------|
|--------------|-----------------|-------------------|---------------|
|------9S10-9--|-(9)-----9-10----|-(10)------9S10-9--|-(9)--10--5----|
|------9S10-9--|-(9)-----9-10----|-(10)------9S10-9--|-(9)--10--5----|
|------7S=8-7--|-(7)-----7--8----|--(8)------7S=8-7--|-(7)---8--3----|
|------7S=8-7--|-(7)-----7--8----|--(8)------7S=8-7--|-(7)-----------|


       E5F5/E5/B           F5/C              E5F5/E5/B      F5  C5
                                                      7/8
  H    E  E Q    +Q   Q  E  Q.      +E  Q.   E  E Q    +Q    Q  Q.
|--------------|-----------------|-------------------|---------------||
|--------------|-----------------|-------------------|---------------||
|------9S10-9--|-(9)-----9-10----|-(10)------9S10-9--|-(9)--10--5----||
|------9S10-9--|-(9)-----9-10----|-(10)------9S10-9--|-(9)--10--5----||
|------7S=8-7--|-(7)-----7--8----|--(8)------7S=8-7--|-(7)---8--3----||
|------7S=8-7--|-(7)-----7--8----|--(8)------7S=8-7--|-(7)-----------||


   Verse
    N.C.
   4/4
                                    |-3-| |-3-|
    E E E  E  E E E  E    E E E  E  E E E E E E
||----------------------|-----------------------|
||o---------------------|-----------------------|
||----------------------|-----------------------|
||------3-[2]-----5-[3]-|-----3-[2]-5-3-2-------|
||o-0-0-------0-0-------|-0-0-------------5-3-2-|
||----------------------|-----------------------|


                        Bb5
                          PM|   PM|   PM
  E E E  E  E E E  E    E E E E E E E E
|---------------------|-------------------|
|---------------------|-------------------|
|---------------------|-3-----3-----3-----|
|-----3-[2]-----5-[3]-|-3-----3-----3-----|
|-0-0-------0-0-------|-1-1-1-1-1-1-1-1---|
|---------------------|-------------------|


  N.C.                                                                D5
                                  |-3-| |-3-|
  E E E  E  E E E  E    E E E  E  E E E E E E   E E E  E  E E E  E    W
|---------------------|-----------------------|---------------------|-------||
|---------------------|-----------------------|---------------------|------o||
|---------------------|-----------------------|---------------------|-------||
|-----3-[2]-----5-[3]-|-----3-[2]-5-3-2-------|-----3-[2]-----5-[3]-|-7-----||
|-0-0-------0-0-------|-0-0-------------5-3-2-|-0-0-------0-0-------|-5----o||
|---------------------|-----------------------|---------------------|-------||


 Bridge
       E5F5/E5/B           F5/C              E5F5/E5/B      F5  C5
  H    E  E Q    +Q   Q  E  Q.      +E  Q.   E  E Q    +Q    Q  H
|--------------|-----------------|-------------------|---------------|
|--------------|-----------------|-------------------|---------------|
|------9S10-9--|-(9)-----9-10----|-(10)------9S10-9--|-(9)--10--5----|
|------9S10-9--|-(9)-----9-10----|-(10)------9S10-9--|-(9)--10--5----|
|------7S=8-7--|-(7)-----7--8----|--(8)------7S=8-7--|-(7)---8--3----|
|------7S=8-7--|-(7)-----7--8----|--(8)------7S=8-7--|-(7)-----------|


       E5F5/E5/B           F5/C              E5F5/E5/B      F5 G5
                                                      7/8
  H    E  E Q    +Q   Q  E  Q.      +E  Q.   E  E Q    +Q   Q  Q.
|--------------|-----------------|-------------------|--------------||
|--------------|-----------------|-------------------|--------------||
|------9S10-9--|-(9)-----9-10----|-(10)------9S10-9--|-(9)----------||
|------9S10-9--|-(9)-----9-10----|-(10)------9S10-9--|-(9)--3--5----||
|------7S=8-7--|-(7)-----7--8----|--(8)------7S=8-7--|-(7)--3--5----||
|------7S=8-7--|-(7)-----7--8----|--(8)------7S=8-7--|-(7)--1--3----||


 Outro Solo
       A5      G5    A5                 G5  A5
 4/4
  Gtr IV
                                 ~~
  E  E  E E  E  E  E  E    E   E H.
|-----------------------|---------------------|
|------10---12h13-12----|---------------------|
|---/9----9----------12-|--9h=10-9------------|
|-----------------------|---------------------|
|-----------------------|---------------------|
|-----------------------|---------------------|
|
| Gtr III
| E  E  E E  E  E  E  E   +E   E E  E E E E E
|-----------------------|---------------------|
|-----------------------|---------------------|
|-----------------------|---------------------|
|-------7----7--5-----7-|-(7)----7----7-5---7-|
|-------7----7--5-----7-|-(7)----7----7-5---7-|
|----5--5----5--3-----5-|-(5)--5-5----5-3---5-|


                 G5    N.C.
   E   E  E E  E  E  E  E    +E   E  E Q     E E  E
|-------------------------|-------------------------|
|--------10---12h13-12----|-------------------------|
|-----/9----9----------12-|-(12)--------------------|
|-------------------------|------12-10-9----10-9----|
|-------------------------|----------------------10-|
|-------------------------|-------------------------|
|
| +E   E  E E  E  E  E  E    +E   E  E E  E  E E  E
|-------------------------|-------------------------|
|-------------------------|-------------------------|
|-------------------------|-------------------------|
|-(7)-----7----7--5-------|------------------7-5----|
|-(7)-----7----7--5-------|-------3--2-0-/5-------5-|
|-(5)--5--5----5--3-----1-|--(1)--------------------|


      A5      G5   A5                      G5    A5
  ~
  E E  E  Q    E E  E    +E   E  E  E  +E   E  E  E
|---------------------|--------------------------12-|
|--------10---12---13-|-(13)-12-13-15-(15)-13-15----|
|-----/9--------------|-----------------------------|
|---------------------|-----------------------------|
|-7-------------------|-----------------------------|
|---------------------|-----------------------------|
|
| E E  E  E E  E E  E    +E   E  E  E   E   E  E  E
|---------------------|-----------------------------|
|---------------------|-----------------------------|
|---------------------|-----------------------------|
|------7----7--5----7-|--(7)-----7------7---5-----7-|
|------7----7--5----7-|--(7)-----7------7---5-----7-|
|---5--5----5--3----5-|--(5)--5--5------5---3-----5-|


                G5             N.C.
        ~~
   +E   H        +E   T T  T T E
|-(12)---------------------------|
|--------------------------------|
|------12-------(12)-10p7--------|
|-------------------------10p7---|
|------------------------------8-|
|--------------------------------|
|
|  +E   E E E E   E   E        E
|--------------------------------|
|--------------------------------|
|--------------------------------|
|--(7)----7---7---5--------------|
|--(7)----7---7---5--------------|
|--(5)--5-5---5---3------------1-|


                                            A5    G5  A5
                                       ~~       ~
   S  S S S S S S S S  S S S S S S S   Q.     E Q   E E
|------------------------------------|------------------|
|-------------------8h10p8-----------|------------------|
|-------4h5p4-5h7h9--------9p7-9p7-5-|------------------|
|--5h=7------------------------------|-7----------------|
|------------------------------------|--------7-5---3-0-|
|------------------------------------|------------------|
|
| +E    E   E   E   E    E   E   E     E  E E E E E E E
|------------------------------------|------------------|
|------------------------------------|------------------|
|------------------------------------|------------------|
|------------------------------------|------7---7-5---7-|
|-------3---2---0---5----5---3-------|------7---7-5---7-|
|-(1)----------------------------3---|----5-5---5-3---5-|


                G5  A5              G5  N.C.
  +H        +E  Q   E   +Q    E E E Q   E
|---------------------|-----------------------|
|---------------------|-----------------------|
|---------------------|-----------------7b9r==|
|---------------------|-------2-3-5-3---------|
|-(0)-------(0)-----0-|-(0)-------------------|
|---------------3-----|-----------------------|
|
| +E  E E E  E  E E E   +E  E E E E E E E
|---------------------|-----------------------|
|---------------------|-----------------------|
|---------------------|-----------------------|
|-(7)---7----7--5---7-|-(7)---7---7-5---------|
|-(7)---7----7--5---7-|-(7)---7---7-5---------|
|-(5)-5-5----5--3---5-|-(5)-5-5---5-3---1-----|


                                        A5               G5    A5
                 ~~~~~
  +Q    +Q      +H            S  S S  S  S  S  S  S  S S  Q.
|---------------------------|------------------------------------|
|---------------------------|--------------10h13p12p10-9-10------|
|-(7)---(7)b9r==(7)b9-------|------9h10h12-----------------------|
|---------------------------|-7h10-------------------------------|
|---------------------------|------------------------------------|
|---------------------------|------------------------------------|
|
|  E  E  E    E  E    E E E   E    E     E     E     E    E  E E
|---------------------------|------------------------------------|
|---------------------------|------------------------------------|
|---------------------------|------------------------------------|
|---------------------7-5---|------------7-----------7----5----7-|
|-----3--2----0-/5--------5-|------------7-----------7----5----7-|
|--1------------------------|------5-----5-----------5----3----5-|


                        G5    A5                      G5    N.C.
   +Q     S  S  S  S  E  E  E  E    +E.    S  E  E  E  E  E  S  S
|-----------------------12-------|-----------17p16h17-------------|
|-(10)---10-10-12-12-13----12-13-|-(13)---17----------17----------|
|--------------------------------|-----------------------17-16-14-|
|--------------------------------|--------------------------------|
|--------------------------------|--------------------------------|
|--------------------------------|--------------------------------|
|
|  +E  E  E     E     E  E  E  E    +E  E     E  E  E  E  E  E
|--------------------------------|--------------------------------|
|--------------------------------|--------------------------------|
|--------------------------------|--------------------------------|
|--(7)----7-----------7--5-----7-|--(7)-------7-----7--5----------|
|--(7)----7-----------7--5-----7-|--(7)-------7-----7--5----------|
|--(5)-5--5-----------5--3-----5-|--(5)-5-----5-----5--3-----1----|


                             H.=H
                             A5
   S   S  Q    Q    E  Q      E E  E E E  E E E    E  E E E H      W
|--------------------------|--------------------|----------------|------*|
|-13p=12-13---12---10------|-10-----------------|----------------|------*|
|---------------------12---|----9-10-7-9----7---|----------------|------*|
|--------------------------|-------------10---9-|-10--7-9-6-7----|------*|
|--------------------------|--------------------|----------------|------*|
|--------------------------|--------------------|----------------|------*|
|
| +E      E E  E E  E  E E    W                   +W               W
|--------------------------|--------------------|----------------|------*|
|--------------------------|--------------------|----------------|------*|
|--------------------------|--2-----------------|-(2)------------|------*|
|--------------------------|--2-----------------|-(2)------------|------*|
|---------3-2--0-5--5--3---|--0-----------------|-(0)------------|------*|
|-(1)--------------------3-|--------------------|----------------|------*|



Duration Legend
---------------
W - whole; H - half; Q - quarter; E - 8th; S - 16th; T - 32nd; X - 64th; a - acciaccatura
+ - note tied to previous; . - note dotted; .. - note double dotted
Uncapitalized letters represent notes that are staccato (1/2 duration)
Irregular groupings are notated above the duration line
Duration letters will always appear directly above the note/fret number it represents the
duration for.  Duration letters with no fret number below them represent rests.  Multi-
bar rests are notated in the form Wxn, where n is the number of bars to rest for.  Low
melody durations appear below the staff

Tablature Legend
----------------
 h   - hammer-on
 p   - pull-off
 b   - bend
 pb  - pre-bend
 r   - bend release (if no number after the r, then release immediately)
 /\  - slide into or out of (from/to "nowhere")
 s   - legato slide
 S   - shift slide
 - natural harmonic
[n]  - artificial harmonic
n(n) - tapped harmonic
 ~   - vibrato
 tr  - trill
 T   - tap
 TP  - trem. picking
 PM  - palm muting
\n/  - tremolo bar dip; n = amount to dip
 \n  - tremolo bar down
 n/  - tremolo bar up
/n\  - tremolo bar inverted dip
 =   - hold bend; also acts as connecting device for hammers/pulls
 <> - volume swell (louder/softer)
 x   - on rhythm slash represents muted slash
 o   - on rhythm slash represents single note slash

Misc Legend
-----------
 |  - bar
||  - double bar
||o - repeat start
o|| - repeat end
*|  - double bar (ending)
 :  - bar (freetime)
 $  - Segno
 &  - Coda
Tempo markers -  = BPM(8/16=s8/s16), where s8 = swing 8ths, s16 = swing 16ths

comments
We did not receive enough feedback on this tab! Please rate:
print report bad tab
1 2 3 4 5
I want to post or [tab]
guest
You may want to rate the tab now too:
select rating
Please do not post tabs as comments. Select "correction" instead!