Oops, an error
Loading. Please wait.

Fantasmic Bass Tab

ver1
ver1

Whole song

Interactive

More versions @911Tabs.com
437 views 3 this week
no commentswrite comment
1 2 3 4 5
please rate
add to favorites launch autoscroll
font size
0
reset
Autoscroll
+/-
esc
set tempo
stop
Contributor
WARNING: You are trying to view
                                    content from Ultimate-Guitar.com
                                    in an unauthorized application,
                                    which is prohibited.

                                    Please use an official Ultimate
                                    Guitar Tabs application for iPhone,
                                    iPad or Android to access legitimate
                                    chords, guitar, bass, and drum tabs
                                    from Ultimate-Guitar.com database.

                                    Type "ultimate guitar tabs" in Apple
                                    App Store's or Android Market's
                                    search to find the application.
#----------------------------------PLEASE NOTE---------------------------------#
#This file is the author's own work and represents their interpretation of the #
#song. You may only use this file for private study, scholarship, or research. #
#------------------------------------------------------------------------------#

FANTASMIC (Bassline)
As recorded by Nightwish
(From the 2000 Album WISMASTER)

Transcribed by Ivan - (peekaboo104@hotmail.com)
	

Words and Music by T.Turunen, T. Holopainen, J. Nevalainen, E. Vuorinen, S. Vanska

Gtr I (E A D G B E) - 'Tuomas'
Gtr II (E A D G) - 'Sami'

 Intro
  Moderate Rock Q=134
  N.C.
 4/4
  Gtr I
  W          W          W          W
|----------|----------|----------|------|
|----------|----------|----------|------|
|----------|----------|----------|------|
|----------|----------|----------|------|
|----------|----------|----------|------|
|----------|----------|----------|------|


                                               6/4
  W               W             W               W
|---------------|-------------|--------------||-----------------||
|---------------|-------------|--------------||-----------------||
|---------------|-------------|-9------------||-----------------||
|---------------|-------------|-9------------||-----------------||
|---------------|-------------|--------------||-----------------||
|---------------|-------------|--------------||-----------------||
|
| Gtr II
| E E Q  Q  E E   E E Q  H      H    +Q.   E    E E Q  Q  H.
|---------------|-------------|--------------||-----------------||
|---------------|-------------|--------------||-----------------||
|---------------|-------------|--------------||-----------------||
|-0-----------0-|-0-----------|-0----(0)---0-||-0---------------||


 4/4
  W                     +W
|---------------------|-----------------------|
|---------------------|-----------------------|
|-9-------------------|-(9)-------------------|
|-9-------------------|-(9)-------------------|
|---------------------|-----------------------|
|---------------------|-----------------------|
|
| E S S E E E S S E E    E  S S E E E S S E E
|---------------------|-----------------------|
|---------------------|-----------------------|
|---------------------|-----------------------|
|-0-0-0---0-0-0-0---0-|--0--0-0---0-0-0-0---0-|


  W                     +W
|---------------------|-------------------------|
|---------------------|-------------------------|
|-9-------------------|-(9)---------------------|
|-9-------------------|-(9)---------------------|
|---------------------|-------------------------|
|---------------------|-------------------------|
|
| E S S E E E S S E E    E  S S E E E S S E E
|---------------------|-------------------------|
|---------------------|-------------------------|
|---------------------|-------------------------|
|-0-0-0---0-0-0-0---0-|--0--0-0---0-0-0-0---0---|


  W                     +W
|---------------------|-----------------------|
|---------------------|-----------------------|
|-9-------------------|-(9)-------------------|
|-9-------------------|-(9)-------------------|
|---------------------|-----------------------|
|---------------------|-----------------------|
|
| E S S E E E S S E E    E  S S E E E S S E E
|---------------------|-----------------------|
|---------------------|-----------------------|
|---------------------|-----------------------|
|-0-0-0---0-0-0-0---0-|--0--0-0---0-0-0-0---0-|


                         |-3--|
  W                      Q Q  Q  +H
|---------------------|-----------------|
|---------------------|-10-8-10-(10)----|
|-9-------------------|--9-9-11-(11)----|
|-9-------------------|-----------------|
|---------------------|-----------------|
|---------------------|-----------------|
|
|                        |-3--|
| E S S E E E S S E E    Q Q  Q  +H
|---------------------|-----------------|
|---------------------|-----------------|
|---------------------|----3--5--(5)----|
|-0-0-0---0-0-0-0---0-|--3--------------|


  |-3-|
  Q Q Q +H       W
|--------------|-------------------------|
|-8-8-7-(7)----|-------------------------|
|-9-7-6-(6)----|-9-----------------------|
|--------------|-9-----------------------|
|--------------|-------------------------|
|--------------|-------------------------|
|
| |-3-|
| Q Q Q +H       E S S E S S E S S E S S
|--------------|-------------------------|
|--------------|-------------------------|
|-3------------|-------------------------|
|---3-2-(2)----|-0-0-0-0-0-0-0-0-0-0-0-0-|


  +W                        W
|-------------------------|-----------------------|
|-------------------------|-----------------------|
|-(9)---------------------|-9---------------------|
|-(9)---------------------|-9---------------------|
|-------------------------|-----------------------|
|-------------------------|-----------------------|
|
|  E  S S E S S E S S E E   E S S E E E S S E S S
|-------------------------|-----------------------|
|-------------------------|-----------------------|
|---------------------2-0-|-----------------------|
|--0--0-0-0-0-0-0-0-0-----|-0-0-0---0-0-0-0-0-0-0-|


   |--3--|  |3-|
   Q  Q  Q  Q  H    W
|----------12-----|-------------------------|
|-12-10-15-10-13--|-------------------------|
|--9--7-12----10--|-9-----------------------|
|-----------------|-9-----------------------|
|-----------------|-------------------------|
|-----------------|-------------------------|
|
|  |--3--|  |3-|
|  Q  Q  Q  Q  H    E S S E S S E S S E S S
|-----------------|-------------------------|
|--2--0-----------|-------------------------|
|-----------0-----|-------------------------|
|--------3-----1--|-0-0-0-0-0-0-0-0-0-0-0-0-|


  +W                        W
|-------------------------|------------------------|
|-------------------------|------------------------|
|-(9)---------------------|-9----------------------|
|-(9)---------------------|-9----------------------|
|-------------------------|------------------------|
|-------------------------|------------------------|
|
|  E  S S E S S E S S E E   E S S E E E S S E S S
|-------------------------|------------------------|
|-------------------------|------------------------|
|---------------------2-0-|------------------------|
|--0--0-0-0-0-0-0-0-0-----|-0-0-0---0-0-0-0-0-0-0--|


   |-3--|           |-3-|
   Q Q  Q  +H       Q Q Q +H
|-----------------|--------------|
|-10-8-10-(10)----|-8-8-7-(7)----|
|--9-9-11-(11)----|-9-7-6-(6)----|
|-----------------|--------------|
|-----------------|--------------|
|-----------------|--------------|
|
|  |-3--|           |-3-|
|  Q Q  Q  +H       Q Q Q +H
|-----------------|--------------|
|-----------------|--------------|
|----3--5--(5)----|-3------------|
|--3--------------|---3-2-(2)----|


  H           E  e    e  e      e E   Q     H
|---------------19---20------|-19-----------------|
|---------------20---22-22---|-20-----------------|
|---------------21---21-23---|-21-----------------|
|---------------21---22-24---|-21-----------------|
|-----------------------24---|--------------------|
|----------------------------|--------------------|
|
| E S S E S S E  S S  E  S S    E S S E S S Q  Q
|----------------------------|--------------------|
|----------------------------|--------------------|
|----------------------------|--------------3--5--|
|-0-0-0-0-0-0-0--0-0--0--0-0-|--0-0-0-0-0-0-------|


  H           E  e    e  e      e E   Q     H
|---------------19---20------|-19----------------|
|---------------20---22-22---|-20----------------|
|---------------21---21-23---|-21----------------|
|---------------21---22-24---|-21----------------|
|-----------------------24---|-------------------|
|----------------------------|-------------------|
|
| E S S E S S E  S S  E  S S    E S S E S S H
|----------------------------|-------------------|
|----------------------------|-------------------|
|----------------------------|-------------------|
|-0-0-0-0-0-0-0--0-0--0--0-0-|--0-0-0-0-0-0-0----|


  H           E  e    e  e      e E   Q     H
|---------------19---20------|-19------------------------|
|---------------20---22-22---|-20------------------------|
|---------------21---21-23---|-21------------------------|
|---------------21---22-24---|-21------------------------|
|-----------------------24---|---------------------------|
|----------------------------|---------------------------|
|
| E S S E S S E  S S  E  S S    E S S E S S S S E S S E
|----------------------------|---------------------------|
|----------------------------|---------------------------|
|----------------------------|--------------3-3-3-5-5-5--|
|-0-0-0-0-0-0-0--0-0--0--0-0-|--0-0-0-0-0-0--------------|


  H           E  e    e  e
|---------------19---20------|
|---------------20---22-22---|
|---------------21---21-23---|
|---------------21---22-24---|
|-----------------------24---|
|----------------------------|
|
| E S S E S S E  S S  E  S S
|----------------------------|
|----------------------------|
|----------------------------|
|-0-0-0-0-0-0-0--0-0--0--0-0-|


                             1st Verse
   e E   Q      e  e  e  e    W
|-19--------------17-------||-------------------------|
|-20-----------20-17-21----||-------------------------|
|-21-----------19----20-22-||-------------------------|
|-21-----------17-19-18-22-||-------------------------|
|-----------------------20-||-------------------------|
|--------------------------||-------------------------|
|
|  E S S E S S  E  E  E  E    E S S E S S E S S E S S
|--------------------------||-------------------------|
|--------------------------||-------------------------|
|--------------------------||-------------------------|
|--0-0-0-0-0-0--3--5--4--1-||-0-0-0-0-0-0-0-0-0-0-0-0-|


  Gtr II
  E S S E S S Q  Q    E S S E S S E S S E S S
|-------------------|-------------------------|
|-------------------|-------------------------|
|-------------3--5--|-------------------------|
|-0-0-0-0-0-0-------|-0-0-0-0-0-0-0-0-0-0-0-0-|


  E S S E S S H      E S S E S S E S S E S S
|------------------|-------------------------|
|------------------|-------------------------|
|------------------|-------------------------|
|-0-0-0-0-0-0-0----|-0-0-0-0-0-0-0-0-0-0-0-0-|


  E S S E S S S S E S S E   E S S E S S E S S E S S
|-------------------------|-------------------------|
|-------------------------|-------------------------|
|-------------3-3-3-5-5-5-|-------------------------|
|-0-0-0-0-0-0-------------|-0-0-0-0-0-0-0-0-0-0-0-0-|


  E S S E S S E E E E    S S S S S S S S S S S S S S S S
|---------------------||----------------------------------|
|---------------------||----------------------------------|
|---------------0-----||-4-4-4-4-4-4-4-4-4-4-4-4-4-4-4-4--|
|-0-0-0-0-0-0-3---4-1-||----------------------------------|


  S S S S S S S S S S S S S S S S   S S S S S S S S S S S S S S S S
|---------------------------------|---------------------------------|
|---------------------------------|---------------------------------|
|-4-4-4-4-4-4-4-4-4-4-4-4-4-4-4-4-|-4-4-4-4-4-4-4-4-4-4-4-4-4-4-4-4-|
|---------------------------------|---------------------------------|


  S S S S S S S S S S S S S S S S   S S S S S S S S S S S S S S S S
|---------------------------------|------------------------------------|
|---------------------------------|------------------------------------|
|-4-4-4-4-4-4-4-4-4-4-4-4-4-4-4-4-|-4-4-4-4-4-4-4-4-4-4-4-4-4-4-4-4----|
|---------------------------------|------------------------------------|


  S S S S S S S S S S S S S S S S
|---------------------------------|
|---------------------------------|
|-4-4-4-4-4-4-4-4-4-4-4-4-4-4-4-4-|
|---------------------------------|


                                    |-3-|          |-3-|
  S S S S S S S S S S S S S S S S   Q Q Q +H       Q Q Q +H
|---------------------------------|--------------|--------------||
|---------------------------------|--------------|-----1-(1)----||
|-4-4-4-4-4-4-4-4-4-4-4-4-4-4-4-4-|---0-2-(2)----|-0------------||
|---------------------------------|-2------------|---0----------||


 2nd Verse
  E S S E S S E S S E S S   E S S E S S Q  Q
|-------------------------|-------------------|
|-------------------------|-------------------|
|-------------------------|-------------3--5--|
|-0-0-0-0-0-0-0-0-0-0-0-0-|-0-0-0-0-0-0-------|


  E S S E S S E S S E S S   E S S E S S H
|-------------------------|------------------|
|-------------------------|------------------|
|-------------------------|------------------|
|-0-0-0-0-0-0-0-0-0-0-0-0-|-0-0-0-0-0-0-0----|


  E S S E S S E S S E S S   E S S E S S S S E S S E
|-------------------------|-------------------------|
|-------------------------|-------------------------|
|-------------------------|-------------3-3-3-5-5-5-|
|-0-0-0-0-0-0-0-0-0-0-0-0-|-0-0-0-0-0-0-------------|


  E S S E S S E S S E S S   E S S E S S E E E E
|-------------------------|----------------------||
|-------------------------|----------------------||
|-------------------------|---------------0------||
|-0-0-0-0-0-0-0-0-0-0-0-0-|-0-0-0-0-0-0-3---4-1--||


  Gtr I
  W          +W           +W           +H     Q  Q
|----------|------------|------------|--------------|
|-5--------|-(5)--------|-(5)--------|-(5)----5--3--|
|-5--------|-(5)--------|-(5)--------|-(5)----------|
|-7--------|-(7)--------|-(7)--------|-(7)----------|
|-0--------|-(0)--------|-(0)--------|-(0)----------|
|----------|------------|------------|--------------|
|
| Gtr II
| W          +W           +W           +W
|----------|------------|------------|--------------|
|----------|------------|------------|--------------|
|-0--------|-(0)--------|-(0)--------|-(0)----------|
|----------|------------|------------|--------------|


  W          +W           +W           +W
|-2--------|-(2)--------|-(2)--------|-(2)----|
|-2--------|-(2)--------|-(2)--------|-(2)----|
|-2--------|-(2)--------|-(2)--------|-(2)----|
|-4--------|-(4)--------|-(4)--------|-(4)----|
|----------|------------|------------|--------|
|-2--------|-(2)--------|-(2)--------|-(2)----|
|
| W          +W           +W           +W
|----------|------------|------------|--------|
|----------|------------|------------|--------|
|----------|------------|------------|--------|
|-2--------|-(2)--------|-(2)--------|-(2)----|


   W           +W            +W            E  E  Q   Q   Q
|--8--------|--(8)--------|--(8)--------|-12-12-12--12--10--||
|-10--------|-(10)--------|-(10)--------|-------------------||
|--9--------|--(9)--------|--(9)--------|-------------------||
|--7--------|--(7)--------|--(7)--------|-------------------||
|--0--------|--(0)--------|--(0)--------|-------------------||
|-----------|-------------|-------------|-------------------||
|
|  W            W             W            W
|-----------|-------------|-------------|-------------------||
|-----------|-------------|-------------|-------------------||
|-----------|-------------|-------------|--0----------------||
|-----------|-------------|-------------|-------------------||


   E   E   E  E  E   E   E  E    E   E   E  E  E E  E E
|-21---------22-21------------|-21---------22-21---19---|
|-19---------19-19---------19-|-19---------19-19---19---|
|-18---------19-18---------21-|-18---------19-18---21---|
|-19---------19-19---------19-|-19---------19-19---19---|
|-21---------21-21---------21-|-21---------21-21---21---|
|-----------------------------|-------------------------|
|
|  S S S S E  E  S S S S E  E    S S S S E  E  H
|-----------------------------|-------------------------|
|-----------------------------|-------------------------|
|-----------------------------|-------------------------|
|--2-2-2-2-2--2--2-2-2-2-2--2-|--2-2-2-2-2--2--0--------|


   E   E   E  E  E   E   E  E    E   E   E  E  E E  E E
|-21---------22-21------------|-21---------22-21---19---|
|-19---------19-19---------19-|-19---------19-19---19---|
|-18---------19-18---------21-|-18---------19-18---21---|
|-19---------19-19---------19-|-19---------19-19---19---|
|-21---------21-21---------21-|-21---------21-21---21---|
|-----------------------------|-------------------------|
|
|  S S S S E  E  S S S S E  E    S S S S E  E  H
|-----------------------------|-------------------------|
|-----------------------------|-------------------------|
|-----------------------------|-------------------------|
|--2-2-2-2-2--2--2-2-2-2-2--2-|--2-2-2-2-2--2--0--------|


   E   E   E    E    E   E   E    E      E   E   E    E    E   E    E   E
|--------------19---18-----------21---|--------------19---18-------11-------|
|-23-----------16---16----------------|-23-----------16---16--------9-------|
|-20-----------16---15-----------20---|-20-----------16---15-------11-------|
|-20-----------16---16-----------23---|-20-----------16---16-------13-------|
|-21-----------18---18-----------21---|-21-----------18---18----------------|
|-23-----------------------------23---|-23----------------------------------|
|
|  S S S S S S  S S  S S S S S S  S S    S S S S S S  S S  S S S S  S S S S
|-------------------------------------|-------------------------------------|
|-------------------------------------|-------------------------------------|
|--6-6-6-6-6-6--6-6--6-6-6-6-6-6--6-6-|--6-6-6-6-6-6--6-6--4-4-4-4--4-4-4-4-|
|-------------------------------------|-------------------------------------|


   E   E   E    E    E   E   E    E      E   E   E    E    E   E    E   E
|-18-----------19---18-----------21---|--------------19---18-------------------|
|-16-----------16---16----------------|-23-----------16---16-------16----------|
|-15-----------16---15-----------20---|-20-----------16---15-------13----------|
|-16-----------16---16-----------23---|-20-----------16---16-------16----------|
|-18-----------18---18-----------21---|-21-----------18---18-------18----------|
|--------------------------------23---|-23-------------------------------------|
|
|  S S S S S S  S S  S S S S S S  S S    S S S S S S  S S  S S S S  S S S S
|-------------------------------------|----------------------------------------|
|-------------------------------------|----------------------------------------|
|--6-6-6-6-6-6--6-6--6-6-6-6-6-6--6-6-|--6-6-6-6-6-6--6-6--4-4-4-4--4-4-4-4----|
|-------------------------------------|----------------------------------------|


   E   E   E  E  E   E   E  E    E   E   E  E  E E  E E
|-21---------22-21------------|-21---------22-21---19---|
|-19---------19-19---------19-|-19---------19-19---19---|
|-18---------19-18---------21-|-18---------19-18---21---|
|-19---------19-19---------19-|-19---------19-19---19---|
|-21---------21-21---------21-|-21---------21-21---21---|
|-----------------------------|-------------------------|
|
|  S S S S E  E  S S S S E  E    S S S S E  E  H
|-----------------------------|-------------------------|
|-----------------------------|-------------------------|
|-----------------------------|-------------------------|
|--2-2-2-2-2--2--2-2-2-2-2--2-|--2-2-2-2-2--2--0--------|


   E   E   E  E  E   E   E  E    E   E   E  E  E E  E E
|-21---------22-21------------|-21---------22-21---19---|
|-19---------19-19---------19-|-19---------19-19---19---|
|-18---------19-18---------21-|-18---------19-18---21---|
|-19---------19-19---------19-|-19---------19-19---19---|
|-21---------21-21---------21-|-21---------21-21---21---|
|-----------------------------|-------------------------|
|
|  S S S S E  E  S S S S E  E    S S S S E  E  H
|-----------------------------|-------------------------|
|-----------------------------|-------------------------|
|-----------------------------|-------------------------|
|--2-2-2-2-2--2--2-2-2-2-2--2-|--2-2-2-2-2--2--0--------|


   E   E   E    E    E   E   E    E      E   E   E    E    E   E    E   E
|--------------19---18-----------21---|--------------19---18----------------|
|-23-----------16---16----------------|-23-----------16---16-------16-------|
|-20-----------16---15-----------20---|-20-----------16---15-------13-------|
|-20-----------16---16-----------23---|-20-----------16---16-------16-------|
|-21-----------18---18-----------21---|-21-----------18---18-------18-------|
|-23-----------------------------23---|-23----------------------------------|
|
|  S S S S S S  S S  S S S S S S  S S    S S S S S S  S S  S S S S  S S S S
|-------------------------------------|-------------------------------------|
|-------------------------------------|-------------------------------------|
|--6-6-6-6-6-6--6-6--6-6-6-6-6-6--6-6-|--6-6-6-6-6-6--6-6--4-4-4-4--4-4-4-4-|
|-------------------------------------|-------------------------------------|


   E   E   E    E    E   E   E    E      E   E   E    E    E   E    E   E
|-18-----------19---18-----------21---|--------------19---18-------------------||
|-16-----------16---16----------------|-23-----------16---16-------16----------||
|-15-----------16---15-----------20---|-20-----------16---15-------13----------||
|-16-----------16---16-----------23---|-20-----------16---16-------16----------||
|-18-----------18---18-----------21---|-21-----------18---18-------18----------||
|--------------------------------23---|-23-------------------------------------||
|
|  S S S S S S  S S  S S S S S S  S S    S S S S S S  S S  S S S S  S S S S
|-------------------------------------|----------------------------------------||
|-------------------------------------|----------------------------------------||
|--6-6-6-6-6-6--6-6--6-6-6-6-6-6--6-6-|--6-6-6-6-6-6--6-6--4-4-4-4--4-4-4-4----||
|-------------------------------------|----------------------------------------||


  Gtr II
  S S S S Q  S S S S Q    S S S S S S S S S S S S S S S S
|-----------------------|---------------------------------|
|-----------------------|---------------------------------|
|-----------------------|---------------------------------|
|-5-5-5-5----5-5-5-5----|-3-3-3-3-3-3-3-3-3-3-3-3-3-3-3-3-|


  S S S S Q  S S S S Q    S S S S S S S S S S S S S S S S
|-----------------------|---------------------------------|
|-----------------------|---------------------------------|
|-----------------------|-3-3-3-3-3-3-3-3-3-3-3-3-3-3-3-3-|
|-5-5-5-5----5-5-5-5----|---------------------------------|


  Gtr I
   W                                  W
|----------------------------------|----------------------------------|
|----------------------------------|----------------------------------|
|----------------------------------|----------------------------------|
|-10-------------------------------|-12-------------------------------|
|-12-------------------------------|-12-------------------------------|
|-13-------------------------------|-13-------------------------------|
|
| Gtr II
|  S S S S S S S S S S S S S S S S    S S S S S S S S S S S S S S S S
|----------------------------------|----------------------------------|
|----------------------------------|----------------------------------|
|----------------------------------|--5-5-5-5-5-5-5-5-5-5-5-5-5-5-5-5-|
|--1-1-1-1-1-1-1-1-1-1-1-1-1-1-1-1-|----------------------------------|


   W                                  +W
|----------------------------------|---------------------------------------|
|----------------------------------|---------------------------------------|
|----------------------------------|---------------------------------------|
|-14-------------------------------|-(14)----------------------------------|
|-15-------------------------------|-(15)----------------------------------|
|-17-------------------------------|-(17)----------------------------------|
|
|  S S S S S S S S S S S S S S S S     S  S S S S S S S S S S S S S S S
|----------------------------------|---------------------------------------|
|----------------------------------|---------------------------------------|
|----------------------------------|---------------------------------------|
|--5-5-5-5-5-5-5-5-5-5-5-5-5-5-5-5-|---5--5-5-5-5-5-5-5-5-5-5-5-5-5-5-5----|


  Gtr II
  S S S S Q  S S S S Q    S S S S S S S S S S S S S S S S
|-----------------------|---------------------------------|
|-----------------------|---------------------------------|
|-----------------------|---------------------------------|
|-5-5-5-5----5-5-5-5----|-3-3-3-3-3-3-3-3-3-3-3-3-3-3-3-3-|


  S S S S Q  S S S S Q    S S S S S S S S S S S S S S S S
|-----------------------|---------------------------------|
|-----------------------|---------------------------------|
|-----------------------|-3-3-3-3-3-3-3-3-3-3-3-3-3-3-3-3-|
|-5-5-5-5----5-5-5-5----|---------------------------------|


  Gtr I
  W                                 W
|---------------------------------|---------------------------------|
|-1-------------------------------|-3-------------------------------|
|-2-------------------------------|-2-------------------------------|
|-3-------------------------------|-3-------------------------------|
|---------------------------------|---------------------------------|
|---------------------------------|---------------------------------|
|
| Gtr II
| S S S S S S S S S S S S S S S S   S S S S S S S S S S S S S S S S
|---------------------------------|---------------------------------|
|---------------------------------|---------------------------------|
|---------------------------------|-5-5-5-5-5-5-5-5-5-5-5-5-5-5-5-5-|
|-1-1-1-1-1-1-1-1-1-1-1-1-1-1-1-1-|---------------------------------|


  W                                 +W
|-0-------------------------------|-(0)----------------------------------|
|-1-------------------------------|-(1)----------------------------------|
|-2-------------------------------|-(2)----------------------------------|
|---------------------------------|--------------------------------------|
|---------------------------------|--------------------------------------|
|---------------------------------|--------------------------------------|
|
| S S S S S S S S S S S S S S S S    S  S S S S S S S S S S S S S S S
|---------------------------------|--------------------------------------|
|---------------------------------|--------------------------------------|
|---------------------------------|--------------------------------------|
|-5-5-5-5-5-5-5-5-5-5-5-5-5-5-5-5-|--5--5-5-5-5-5-5-5-5-5-5-5-5-5-5-5----|


  W          W          +W           +W
|----------|-5--------|-(5)--------|-(5)----|
|----------|-5--------|-(5)--------|-(5)----|
|----------|-5--------|-(5)--------|-(5)----|
|----------|----------|------------|--------|
|----------|----------|------------|--------|
|----------|-5--------|-(5)--------|-(5)----|
|
| W          W           W            W
|----------|----------|------------|--------|
|----------|----------|------------|--------|
|-0--------|----------|------------|--------|
|----------|----------|------------|--------|


  W          +W            W          W
|-8--------|-(8)--------|-----------|------|
|----------|------------|-12--------|------|
|----------|------------|-12--------|-7----|
|----------|------------|--9--------|------|
|----------|------------|-----------|------|
|----------|------------|--0--------|------|


  W           W          H    H      H    H
|-3--------|-10--------|-5----3----|-1----0----|
|-3--------|-----------|-5----5----|-3----1----|
|-4--------|-----------|-5----4----|-2----2----|
|----------|-----------|-7----0----|-0----2----|
|----------|-----------|-0---------|-----------|
|-3--------|-----------|------3----|------0----|


   W           +W            W          W
|--8--------|--(8)--------|-----------|------|
|-10--------|-(10)--------|-12--------|------|
|--9--------|--(9)--------|-12--------|-7----|
|-10--------|-(10)--------|--9--------|------|
|--0--------|--(0)--------|-----------|------|
|-----------|-------------|--0--------|------|


  W           W           W           +W
|-3--------|-10--------|-----------|---------|
|-3--------|-----------|-13--------|-(13)----|
|-4--------|-----------|-11--------|-(11)----|
|----------|-----------|-12--------|-(12)----|
|----------|-----------|-12--------|-(12)----|
|-3--------|-----------|-10--------|-(10)----|


   W           +W            W           W
|--8--------|--(8)--------|-----------|--------|
|-10--------|-(10)--------|-12--------|--------|
|--9--------|--(9)--------|-12--------|--7-----|
|-10--------|-(10)--------|--9--------|--------|
|--0--------|--(0)--------|-----------|--------|
|-----------|-------------|--0--------|--------|
|
| Gtr II
|  W           +W            W          +W
|-----------|-------------|-----------|--------|
|-----------|-------------|-----------|--------|
|--0--------|--(0)--------|-----------|--------|
|-----------|-------------|--0--------|-(0)----|


  W           W           H    H      H    H
|-3--------|-10---------|-5----3----|-1----0----|
|-3--------|------------|-5----3----|-3----1----|
|-4--------|------------|-5----4----|-2----2----|
|----------|------------|-7----0----|-0----2----|
|----------|------------|-0---------|-----------|
|-3--------|------------|------3----|------0----|
|
| W          +W           H    H      H    H
|----------|------------|-----------|-----------|
|----------|------------|-----------|-----------|
|----------|------------|-0----3----|-5---------|
|-3--------|-(3)--------|-----------|------0----|


   W           +W            W           W
|--8--------|--(8)--------|-----------|--------|
|-10--------|-(10)--------|-12--------|--------|
|--9--------|--(9)--------|-12--------|--7-----|
|-10--------|-(10)--------|--9--------|--------|
|--0--------|--(0)--------|-----------|--------|
|-----------|-------------|--0--------|--------|
|
|  W           +W            W          +W
|-----------|-------------|-----------|--------|
|-----------|-------------|-----------|--------|
|-----------|-------------|-----------|--------|
|--5--------|--(5)--------|--0--------|-(0)----|


  W           W            W           +W
|-3--------|-10---------|-----------|---------|
|-3--------|------------|-13--------|-(13)----|
|-4--------|------------|-11--------|-(11)----|
|----------|------------|-12--------|-(12)----|
|----------|------------|-12--------|-(12)----|
|-3--------|------------|-10--------|-(10)----|
|
| W          +W            W           +W
|----------|------------|-----------|---------|
|----------|------------|-----------|---------|
|----------|------------|--5--------|--(5)----|
|-3--------|-(3)--------|-----------|---------|


  W          +W           W          +H     H
|-1--------|-(1)--------|-1--------|-(1)----7----|
|-1--------|-(1)--------|-3--------|-(3)---------|
|-2--------|-(2)--------|-2--------|-(2)---------|
|----------|------------|-0--------|-(0)---------|
|----------|------------|----------|-------------|
|-1--------|-(1)--------|----------|-------------|
|
| W          +W           W          +W
|----------|------------|----------|-------------|
|----------|------------|----------|-------------|
|----------|------------|-5--------|-(5)---------|
|-1--------|-(1)--------|----------|-------------|


  W          +H     H      W          +W
|----------|--------8----|-3--------|-(3)----||
|-5--------|-(5)---------|-3--------|-(3)----||
|-5--------|-(5)---------|-0--------|-(0)----||
|-7--------|-(7)---------|----------|--------||
|-0--------|-(0)---------|----------|--------||
|----------|-------------|-3--------|-(3)----||
|
| W          +W            W          +W
|----------|-------------|----------|--------||
|----------|-------------|----------|--------||
|-0--------|-(0)---------|----------|--------||
|----------|-------------|-3--------|-(3)----||


 Guitar Solo - E.Vuorinen
   W           +W            W           W
|-10--------|-(10)--------|-----------|--8-----|
|-10--------|-(10)--------|-10--------|--------|
|-10--------|-(10)--------|--9--------|--------|
|-12--------|-(12)--------|-10--------|--------|
|-----------|-------------|--0--------|--------|
|-10--------|-(10)--------|-----------|--------|
|
|  W           +W            W          +W
|-----------|-------------|-----------|--------|
|-----------|-------------|-----------|--------|
|--5--------|--(5)--------|-----------|--------|
|-----------|-------------|--5--------|-(5)----|


   W           +W            H     H      H    H
|--8--------|--(8)--------|-10-----8----|-3----5----|
|--8--------|--(8)--------|-10-----8----|------5----|
|-----------|-------------|-10-----9----|-3----2----|
|-10--------|-(10)--------|--7----------|-----------|
|-----------|-------------|-------10----|-----------|
|--8--------|--(8)--------|-10-----8----|-3----5----|
|
|  W           +W            H     H      H    H
|-----------|-------------|-------------|-----------|
|-----------|-------------|-------------|-----------|
|-----------|-------------|--5-----3----|-----------|
|--3--------|--(3)--------|-------------|-3----5----|


   W           +W            W           W
|-10--------|-(10)--------|-----------|--8-----|
|-10--------|-(10)--------|-10--------|--------|
|-10--------|-(10)--------|--9--------|--------|
|-12--------|-(12)--------|-10--------|--------|
|-----------|-------------|--0--------|--------|
|-10--------|-(10)--------|-----------|--------|
|
|  W           +W            W          +W
|-----------|-------------|-----------|--------|
|-----------|-------------|-----------|--------|
|--5--------|--(5)--------|-----------|--------|
|-----------|-------------|--5--------|-(5)----|


   W           +W           W          +W
|--8--------|--(8)--------|-7--------|-(7)----|
|--8--------|--(8)--------|-8--------|-(8)----|
|-----------|-------------|-0--------|-(0)----|
|-10--------|-(10)--------|----------|--------|
|-----------|-------------|----------|--------|
|--8--------|--(8)--------|-3--------|-(3)----|
|
|  W           +W           W          +W
|-----------|-------------|----------|--------|
|-----------|-------------|----------|--------|
|--3--------|--(3)--------|----------|--------|
|-----------|-------------|-3--------|-(3)----|


  W          +W           W          +H     H
|-1--------|-(1)--------|-1--------|-(1)----7----|
|-1--------|-(1)--------|-3--------|-(3)---------|
|-2--------|-(2)--------|-2--------|-(2)---------|
|----------|------------|-0--------|-(0)---------|
|----------|------------|----------|-------------|
|-1--------|-(1)--------|----------|-------------|
|
| W          +W           W          +W
|----------|------------|----------|-------------|
|----------|------------|----------|-------------|
|----------|------------|-5--------|-(5)---------|
|-1--------|-(1)--------|----------|-------------|


                                    H
  e e e e e e e e   e e e e e e e e
|-7-7-7-7-7-7-7-7-|-8-8-8-8-8-8-8-8-|
|-5-5-5-5-5-5-5-5-|-5-5-5-5-5-5-5-5-|
|-5-5-5-5-5-5-5-5-|-5-5-5-5-5-5-5-5-|
|-7-7-7-7-7-7-7-7-|-7-7-7-7-7-7-7-7-|
|-0-0-0-0-0-0-0-0-|-0-0-0-0-0-0-0-0-|
|-----------------|-----------------|
|
| E E E E E E E E   E E E E E E E E
|-----------------|-----------------|
|-----------------|-----------------|
|-----------------|-----------------|
|-5-5-5-5-5-5-5-5-|-5-5-5-5-5-5-5-5-|


 =H               Q=144
  e e e e e e e e    e  e  e  e  e E +E  e
|-----------------|-12-12-12-12-12-3-(3)-3-||
|-5-5-5-5-5-5-5-5-|-13-13-13-13-13-3-(3)-3-||
|-5-5-5-5-5-5-5-5-|-14-14-14-14-14-4-(4)-4-||
|-7-7-7-7-7-7-7-7-|-14-14-14-14-14-5-(5)-5-||
|-0-0-0-0-0-0-0-0-|--0--0--0--0--0---------||
|-----------------|-12-12-12-12-12-3-(3)-3-||
|
| E E E E E E E E    E  E  E  E  E E  E  E
|-----------------|------------------------||
|-----------------|------------------------||
|-----------------|------------------------||
|-5-5-5-5-5-5-5-5-|--5--5--5--5--5-3-----3-||


   e E Q  Q  E  e    e E Q  E  e  e E    H     Q   Q     Q    Q   +E   e  e E
|-20-----------15-|-20--------15-20---|-17----22------|-29---20--(20)-19-20---|
|-17-----------15-|-17--------15-17---|-17----22--22--|------20--(20)-15-17---|
|-17-----------16-|-17--------16-17---|-17----22--22--|------21--(21)-16-17---|
|-19--------------|-19-----------19---|-19----24--22--|------22--(22)----19---|
|-19-----------17-|-19--------17-19---|-19----24--20--|------22--(22)-17-19---|
|-17-----------15-|-17--------15-17---|-17----22------|------20--(20)-15-17---|
|
|  E E Q  Q  E  E    E E Q  E  E  E E    H     Q   Q    +Q    Q   +E   E  E E
|-----------------|-------------------|---------------|-----------------------|
|-----------------|-------------------|------------3--|-(3)-------------------|
|-----------------|-------------------|--------5------|-------3---(3)---------|
|--5------------3-|--5---------3--5---|--5------------|----------------3--5---|


   e E Q  Q  E  e    e E Q  E  e  e E    H     Q   Q     +Q    Q   +E   E  Q
|-20-----------15-|-20--------15-20---|-17----22--25--|-(25)--20--(20)-19-17---|
|-17-----------15-|-17--------15-17---|-17----22--25--|-(25)--20--(20)-15-17---|
|-17-----------16-|-17--------16-17---|-17----22--26--|-(26)--21--(21)-16-17---|
|-19--------------|-19-----------19---|-19----24--27--|-(27)--22--(22)----19---|
|-19-----------17-|-19--------17-19---|-19----24--27--|-(27)--22--(22)-17-19---|
|-17-----------15-|-17--------15-17---|-17----22--25--|-(25)--20--(20)-15-17---|
|
|  E E Q  Q  E  E    E E Q  E  E  E E    H     Q   Q     +Q    Q   +E   E  E E
|-----------------|-------------------|---------------|------------------------|
|-----------------|-------------------|------------3--|--(3)-------------------|
|-----------------|-------------------|--------5------|--------3---(3)---------|
|--5------------3-|--5---------3--5---|--5------------|-----------------3--5---|


   H            +Q.        E      H            +E   E  E E
|-17-----------(17)-------16---|-17-----------(17)-16-17---|
|-14-----------(14)-------12---|-14-----------(14)-12-14---|
|-14-----------(14)-------13---|-14-----------(14)-13-14---|
|-16-----------(16)------------|-16-----------(16)----16---|
|-16-----------(16)-------14---|-16-----------(16)-14-16---|
|-17-----------(17)-------12---|-17-----------(17)-12-17---|
|
|  E S S E S S   E  S S E  S S    E S S E S S   E   E  Q
|------------------------------|---------------------------|
|------------------------------|---------------------------|
|------------------------------|---------------------------|
|--2-2-2-2-2-2---2--2-2-2--2-2-|--2-2-2-2-2-2---2---0--2---|


   H            Q   Q     +Q    Q   +E   E  Q
|-14-----------19--22--|-(22)--17--(17)-16-14---|
|-14-----------19--22--|-(22)--17--(17)----14---|
|-14-----------19--23--|-(23)--18--(18)-16-14---|
|-16-----------21--24--|-(24)--18--(18)-18-16---|
|-16-----------21--24--|-(24)--19--(19)-14-16---|
|-14-----------19--22--|-(22)--17--(17)-12-14---|
|
|  E S S E S S  Q   Q     +Q    Q   +E   E  Q
|----------------------|------------------------|
|----------------------|------------------------|
|---------------2---5--|--(5)-------------------|
|--2-2-2-2-2-2---------|--------5---(5)--0--2---|


   H            +Q.        E      H            +E   E  E E
|-17-----------(17)-------16---|-17-----------(17)-16-17---|
|-14-----------(14)-------12---|-14-----------(14)-12-14---|
|-14-----------(14)-------13---|-14-----------(14)-13-14---|
|-16-----------(16)------------|-16-----------(16)----16---|
|-16-----------(16)-------14---|-16-----------(16)-14-16---|
|-17-----------(17)-------12---|-17-----------(17)-12-17---|
|
|  E S S E S S   E  S S E  S S    E S S E S S   E   E  Q
|------------------------------|---------------------------|
|------------------------------|---------------------------|
|------------------------------|---------------------------|
|--2-2-2-2-2-2---2--2-2-2--2-2-|--2-2-2-2-2-2---2---0--2---|


   H            Q   Q     Q    Q   +E   E  Q
|-14-----------19--22--|-22---17--(17)-16-14---||
|-14-----------19--22--|-22---17--(17)----14---||
|-14-----------19--23--|-23---18--(18)-16-14---||
|-16-----------21--24--|-24---18--(18)-18-16---||
|-16-----------21--24--|-24---19--(19)-14-16---||
|-14-----------19--22--|-22---17--(17)-12-14---||
|
|  E S S E S S  Q   Q    +Q    Q   +E   E  Q
|----------------------|-----------------------||
|----------------------|-----------------------||
|---------------2---5--|-(5)-------------------||
|--2-2-2-2-2-2---------|-------5---(5)--0--2---||


 Bridge I
   E    E    +Q         E    E    +Q           E    E    +Q         E    E    +Q
|-24---24---(24)-------24---24---(24)-------|-24---24---(24)-------24---24---(24)-------|
|-25---25---(25)-------25---25---(25)-------|-25---25---(25)-------25---25---(25)-------|
|-26---26---(26)-------26---26---(26)-------|-26---26---(26)-------26---26---(26)-------|
|-26---26---(26)-------26---26---(26)-------|-26---26---(26)-------26---26---(26)-------|
|-------------------------------------------|-------------------------------------------|
|-17---17---(17)-------17---17---(17)-------|-17---17---(17)-------17---17---(17)-------|
|
|  S S  S S   S  S S S  S S  S S   S  S S S    S S  S S   S  S S S  S S  S S   S  S S S
|-------------------------------------------|-------------------------------------------|
|-------------------------------------------|-------------------------------------------|
|-------------------------------------------|-------------------------------------------|
|--5-5--5-5---5--5-5-5--5-5--5-5---5--5-5-5-|--5-5--5-5---5--5-5-5--5-5--5-5---5--5-5-5-|


   E    E    +Q         E    E    +Q           E.  E.      E.      E.  E  E
|-27---27---(27)-------25---25---(25)-------|-17--15------20------22--30-30-|
|-27---27---(27)-------27---27---(27)-------|-17--15------20------22--30-30-|
|-28---28---(28)-------26---26---(26)-------|-17--16------21------23--27-27-|
|-29---29---(29)-------27---27---(27)-------|-19--17------22------24--------|
|-17---17---(17)-------17---17---(17)-------|-19-----------3-------5--------|
|-15---15---(15)----------------------------|--5---3------------------------|
|
|  S S  S S   S  S S S  S S  S S   S  S S S    E.  S  +E   E  +S   E.  E  E
|-------------------------------------------|-------------------------------|
|-------------------------------------------|-------------------------------|
|-----------------------5-5--5-5---5--5-5-5-|--------------3--(3)--5--------|
|--3-3--3-3---3--3-3-3----------------------|--5---3--(3)--------------6--6-|


   E    E    +Q         E    E    +Q           E    E    +Q         E    E    +Q
|-24---24---(24)-------24---24---(24)-------|-24---24---(24)-------24---24---(24)-------|
|-25---25---(25)-------25---25---(25)-------|-25---25---(25)-------25---25---(25)-------|
|-26---26---(26)-------26---26---(26)-------|-26---26---(26)-------26---26---(26)-------|
|-26---26---(26)-------26---26---(26)-------|-26---26---(26)-------26---26---(26)-------|
|-------------------------------------------|-------------------------------------------|
|-17---17---(17)-------17---17---(17)-------|-17---17---(17)-------17---17---(17)-------|
|
|  S S  S S   S  S S S  S S  S S   S  S S S    S S  S S   S  S S S  S S  S S   S  S S S
|-------------------------------------------|-------------------------------------------|
|-------------------------------------------|-------------------------------------------|
|-------------------------------------------|-------------------------------------------|
|--5-5--5-5---5--5-5-5--5-5--5-5---5--5-5-5-|--5-5--5-5---5--5-5-5--5-5--5-5---5--5-5-5-|


   E    E    +Q         E    E    +Q           Q.            E    e  e  e  e
|-27---27---(27)-------25---25---(25)-------|-25------------25---24-22-20-19--||
|-27---27---(27)-------27---27---(27)-------|-25------------25---24-22-20-19--||
|-28---28---(28)-------26---26---(26)-------|-26------------26---21-19-17-16--||
|-29---29---(29)-------27---27---(27)-------|-27------------27---14-12-10--9--||
|-17---17---(17)-------17---17---(17)-------|-15------------15---14-12-10--9--||
|-15---15---(15)----------------------------|-13------------13---12-10--8--7--||
|
|  S S  S S   S  S S S  S S  S S   S  S S S    S  S S S S S  S S  E  E  E  E
|-------------------------------------------|---------------------------------||
|-------------------------------------------|---------------------2--0--------||
|-----------------------5-5--5-5---5--5-5-5-|---------------------------3--2--||
|--3-3--3-3---3--3-3-3----------------------|--1--1-1-1-1-1--1-1--------------||


   H            +Q.        E      H            +E   E  E E
|-17-----------(17)-------16---|-17-----------(17)-16-17---|
|-14-----------(14)-------12---|-14-----------(14)-12-14---|
|-14-----------(14)-------13---|-14-----------(14)-13-14---|
|-16-----------(16)------------|-16-----------(16)----16---|
|-16-----------(16)-------14---|-16-----------(16)-14-16---|
|-17-----------(17)-------12---|-17-----------(17)-12-17---|
|
|  E S S E S S   E  S S E  S S    E S S E S S   E   E  Q
|------------------------------|---------------------------|
|------------------------------|---------------------------|
|------------------------------|---------------------------|
|--2-2-2-2-2-2---2--2-2-2--2-2-|--2-2-2-2-2-2---2---0--2---|


   H            Q   Q     +Q    Q   +E   E  Q
|-14-----------19--22--|-(22)--17--(17)-16-14---|
|-14-----------19--22--|-(22)--17--(17)--0-14---|
|-14-----------19--23--|-(23)--18--(18)-16-14---|
|-16-----------21--24--|-(24)--18--(18)-18-16---|
|-16-----------21--24--|-(24)--19--(19)--7-16---|
|-14-----------19--22--|-(22)--17--(17)----14---|
|
|  E S S E S S  Q   Q     +Q    Q   +E   E  Q
|----------------------|------------------------|
|----------------------|------------------------|
|---------------2---5--|--(5)-------------------|
|--2-2-2-2-2-2---------|--------5---(5)--0--2---|


   H                +Q.            E      H                +E     E  E E
|-17---------------(17)-----------16---|-17---------------(17)---16-17---|
|-14---------------(14)-----------12---|-14---------------(14)---12-14---|
|-14---------------(14)-----------13---|-14---------------(14)---13-14---|
|-16---------------(16)----------------|-16---------------(16)------16---|
|-16---------------(16)-----------14---|-16---------------(16)---14-16---|
|-17---------------(17)-----------12---|-17---------------(17)---12-17---|
|
|  S S S S S S S S   S  S S S S S  S S    S S S S S S S S   S  S  E  Q
|--------------------------------------|---------------------------------|
|--------------------------------------|---------------------------------|
|--------------------------------------|---------------------------------|
|--2-2-2-2-2-2-2-2---2--2-2-2-2-2--2-2-|--2-2-2-2-2-2-2-2---2--2--0--2---|


   H                Q   Q     +Q    Q   +E   E  Q
|-14---------------19--22--|-(22)--17--(17)-16-14----||
|-14---------------19--22--|-(22)--17--(17)--0-14----||
|-14---------------19--23--|-(23)--18--(18)-16-14----||
|-16---------------21--24--|-(24)--18--(18)-18-16----||
|-16---------------21--24--|-(24)--19--(19)--7-16----||
|-14---------------19--22--|-(22)--17--(17)----14----||
|
|  S S S S S S S S  Q   Q     +Q    Q   +E   E  Q
|--------------------------|-------------------------||
|--------------------------|-------------------------||
|-------------------2---5--|--(5)--------------------||
|--2-2-2-2-2-2-2-2---------|--------5---(5)--0--2----||


 Bridge II
   E    E    +Q         E    E    +Q           E    E    +Q         E    E    +Q
|-24---24---(24)-------24---24---(24)-------|-24---24---(24)-------24---24---(24)-------|
|-25---25---(25)-------25---25---(25)-------|-25---25---(25)-------25---25---(25)-------|
|-26---26---(26)-------26---26---(26)-------|-26---26---(26)-------26---26---(26)-------|
|-26---26---(26)-------26---26---(26)-------|-26---26---(26)-------26---26---(26)-------|
|-------------------------------------------|-------------------------------------------|
|-17---17---(17)-------17---17---(17)-------|-17---17---(17)-------17---17---(17)-------|
|
|  S S  S S   S  S S S  S S  S S   S  S S S    S S  S S   S  S S S  S S  S S   S  S S S
|-------------------------------------------|-------------------------------------------|
|-------------------------------------------|-------------------------------------------|
|--0-0--0-0---0--0-0-0--0-0--0-0---0--0-0-0-|--0-0--0-0---0--0-0-0--0-0--0-0---0--0-0-0-|
|-------------------------------------------|-------------------------------------------|


   E    E    +Q         E    E    +Q           E.  E.      E.      E.  E  E
|-27---27---(27)-------25---25---(25)-------|-17--15------20------22--30-30-|
|-27---27---(27)-------27---27---(27)-------|-17--15------20------22--30-30-|
|-28---28---(28)-------26---26---(26)-------|-17--16------21------23--27-27-|
|-29---29---(29)-------27---27---(27)-------|-19--17------22------24--------|
|-17---17---(17)-------17---17---(17)-------|-19-----------3-------5--------|
|-15---15---(15)----------------------------|--5---3------------------------|
|
|  S S  S S   S  S S S  S S  S S   S  S S S    E.  S  +E   E  +S   E.  E  E
|-------------------------------------------|-------------------------------|
|-------------------------------------------|-------------------------------|
|-----------------------5-5--5-5---5--5-5-5-|--------------3--(3)--5--------|
|--3-3--3-3---3--3-3-3----------------------|--5---3--(3)--------------6--6-|


   E    E    +Q         E    E    +Q           E    E    +Q         E    E    +Q
|-24---24---(24)-------24---24---(24)-------|-24---24---(24)-------24---24---(24)-------|
|-25---25---(25)-------25---25---(25)-------|-25---25---(25)-------25---25---(25)-------|
|-26---26---(26)-------26---26---(26)-------|-26---26---(26)-------26---26---(26)-------|
|-26---26---(26)-------26---26---(26)-------|-26---26---(26)-------26---26---(26)-------|
|-------------------------------------------|-------------------------------------------|
|-17---17---(17)-------17---17---(17)-------|-17---17---(17)-------17---17---(17)-------|
|
|  S S  S S   S  S S S  S S  S S   S  S S S    S S  S S   S  S S S  S S  S S   S  S S S
|-------------------------------------------|-------------------------------------------|
|-------------------------------------------|-------------------------------------------|
|-------------------------------------------|-------------------------------------------|
|--5-5--5-5---5--5-5-5--5-5--5-5---5--5-5-5-|--5-5--5-5---5--5-5-5--5-5--5-5---5--5-5-5-|


   E    E    +Q         E    E    +Q           Q.            E    e  e  e  e
|-27---27---(27)-------25---25---(25)-------|-25------------25---24-22-20-19--|
|-27---27---(27)-------27---27---(27)-------|-25------------25---24-22-20-19--|
|-28---28---(28)-------26---26---(26)-------|-26------------26---21-19-17-16--|
|-29---29---(29)-------27---27---(27)-------|-27------------27---14-12-10--9--|
|-17---17---(17)-------17---17---(17)-------|-15------------15---14-12-10--9--|
|-15---15---(15)----------------------------|-13------------13---12-10--8--7--|
|
|  S S  S S   S  S S S  S S  S S   S  S S S    S  S S S S S  S S  E  E  E  E
|-------------------------------------------|---------------------------------|
|-------------------------------------------|---------------------2--0--------|
|-----------------------5-5--5-5---5--5-5-5-|---------------------------3--2--|
|--3-3--3-3---3--3-3-3----------------------|--1--1-1-1-1-1--1-1--------------|


   e  e  e  e  e  e  e  e    W
|-24-22-20-19-24-22-20-19-||---------------------|
|-24-22-20-19-24-22-20-19-||---------------------|
|-21-19-17-16-21-19-17-16-||---------------------|
|-14-12-10--9-14-12-10--9-||---------------------|
|-14-12-10--9-14-12-10--9-||---------------------|
|-12-10--8--7-12-10--8--7-||---------------------|
|
|  E  E  E  E  E  E  E  E    E S S E E E S S E E
|-------------------------||---------------------|
|--2--0--------2--0-------||---------------------|
|--------3--2--------3--2-||---------------------|
|-------------------------||-0-0-0-1-0-0-0-0-1-3-|


  W                       W
|-----------------------|-----------------------|
|-----------------------|-----------------------|
|-----------------------|-----------------------|
|-----------------------|-----------------------|
|-----------------------|-----------------------|
|-----------------------|-----------------------|
|
| E S S E E S S E S S E   E S S E E E S S E E
|-----------------------|-----------------------|
|-----------------------|-----------------------|
|-1---------------------|-----------------------|
|---0-0-1-0-0-0-0-0-0-0-|-0-0-0-1-0-0-0-0-1-3---|


  E E E E S S S S S S S S   E S S E E E S S E E
|-------------------------|---------------------|
|-------------2-3-2-------|---------------------|
|-1-----------------3-2---|---------------------|
|---0-1-0-0-0-----------1-|-0-0-0-1-0-0-0-0-1-3-|


  E S S E E S S E S S E   E S S E E E S S E E
|-----------------------|----------------------|
|-----------------------|----------------------|
|-1---------------------|----------------------|
|---0-0-1-0-0-0-0-0-0-0-|-0-0-0-1-0-0-0-0-1-3--|


  Gtr I
  W                          W          W          W
|-------------------------||----------|----------|------|
|-------------------------||----------|----------|------|
|-------------------------||-5--------|-7--------|-5----|
|-------------------------||-7--------|-8--------|-7----|
|-------------------------||-7--------|-8--------|-7----|
|-------------------------||-5--------|-6--------|-5----|
|
| Gtr II
| E E E E S S S S S S S S    W          W          W
|-------------------------||----------|----------|------|
|-------------2-3-2-------||----------|----------|------|
|-1-----------------3-2---||-0--------|-1--------|-0----|
|---0-1-0-0-0-----------1-||----------|----------|------|


  W          W          W          W
|----------|----------|----------|------|
|----------|----------|----------|-1----|
|-4--------|-5--------|-7--------|-2----|
|-6--------|-7--------|-8--------|-3----|
|-7--------|-7--------|-8--------|------|
|-0--------|-5--------|-6--------|-1----|
|
| W          W          W          W
|----------|----------|----------|------|
|----------|----------|----------|------|
|----------|-0--------|-1--------|------|
|-0--------|----------|----------|-1----|


  W          W          W          W
|----------|----------|----------|------|
|-1--------|-1--------|-3--------|-1----|
|-0--------|-2--------|-3--------|-2----|
|-2--------|-2--------|-3--------|-2----|
|-3--------|-0--------|-1--------|-0----|
|----------|----------|----------|------|
|
| W          W          W          W
|----------|----------|----------|------|
|----------|----------|----------|------|
|-3--------|-0--------|-1--------|-0----|
|----------|----------|----------|------|


  W          W          W          W          W
|----------|----------|----------|----------|------||
|-0--------|-1--------|-3--------|-1--------|-1----||
|-1--------|-2--------|-3--------|-2--------|-0----||
|-2--------|-2--------|-3--------|-3--------|-2----||
|----------|-0--------|-1--------|----------|-3----||
|-0--------|----------|----------|-1--------|------||
|
| W          W          W          W          W
|----------|----------|----------|----------|------||
|----------|----------|----------|----------|------||
|----------|-0--------|-1--------|----------|-3----||
|-0--------|----------|----------|-1--------|------||


  Gtr II
  E S S E E E S S E E   E S S E E S S E S S E
|---------------------|-----------------------|
|---------------------|-----------------------|
|---------------------|-1---------------------|
|-0-0-0-1-0-0-0-0-1-3-|---0-0-1-0-0-0-0-0-0-0-|


  E S S E E E S S E E   E E E E S S S S S S S S
|---------------------|--------------------------|
|---------------------|-------------2-3-2--------|
|---------------------|-1-----------------3-2----|
|-0-0-0-1-0-0-0-0-1-3-|---0-1-0-0-0-----------1--|


  E S S E E E S S E E   E S S E E S S E S S E
|---------------------|-----------------------|
|---------------------|-----------------------|
|---------------------|-1---------------------|
|-0-0-0-1-0-0-0-0-1-3-|---0-0-1-0-0-0-0-0-0-0-|


  E S S E E E S S E E   E E E E S S S S S S S S
|---------------------|--------------------------||
|---------------------|-------------2-3-2--------||
|---------------------|-1-----------------3-2----||
|-0-0-0-1-0-0-0-0-1-3-|---0-1-0-0-0-----------1--||


    S S E Q  S S E Q    S S E Q  H
||--------------------|---------------|
||o-------------------|---------------|
||o-------------------|---------------|
||--5-5-5----5-5-5----|-5-5-5----3----|


                     1.                       2.
  S S E Q  S S E Q    S S E Q  S S E S S E     Wx2
|-------------------|-----------------------||--------||
|-------------------|----------------------o||--------||
|-------------------|----------------------o||--------||
|-5-5-5----5-5-5----|-5-5-5----3-3-3-3-3-3--||--------||


 3rd Verse
  Gtr I
   E   E   E    E    E   E   E    E      E   E   E    E    E   E    E   E
|-18-----------19---18-----------21---|--------------19---18----------------|
|-16-----------16---16----------------|-23-----------16---16-------16-------|
|-15-----------16---15-----------20---|-20-----------16---15-------13-------|
|-16-----------16---16-----------23---|-20-----------16---16-------16-------|
|-18-----------18---18-----------21---|-21-----------18---18-------18-------|
|--------------------------------23---|-23----------------------------------|
|
| Gtr II
|  S S S S S S  S S  S S S S S S  S S    S S S S S S  S S  S S S S  S S S S
|-------------------------------------|-------------------------------------|
|-------------------------------------|-------------------------------------|
|--6-6-6-6-6-6--6-6--6-6-6-6-6-6--6-6-|--6-6-6-6-6-6--6-6--4-4-4-4--4-4-4-4-|
|-------------------------------------|-------------------------------------|


   E   E   E    E    E   E   E    E      E   E   E    E    E   E    E   E
|-18-----------19---18-----------21---|--------------19---18-------------------|
|-16-----------16---16----------------|-23-----------16---16-------16----------|
|-15-----------16---15-----------20---|-20-----------16---15-------13----------|
|-16-----------16---16-----------23---|-20-----------16---16-------16----------|
|-18-----------18---18-----------21---|-21-----------18---18-------18----------|
|--------------------------------23---|-23-------------------------------------|
|
|  S S S S S S  S S  S S S S S S  S S    S S S S S S  S S  S S S S  S S S S
|-------------------------------------|----------------------------------------|
|-------------------------------------|----------------------------------------|
|--6-6-6-6-6-6--6-6--6-6-6-6-6-6--6-6-|--6-6-6-6-6-6--6-6--4-4-4-4--4-4-4-4----|
|-------------------------------------|----------------------------------------|


   E   E   E    E    E   E   E    E      E   E   E    E    E   E    E   E
|-21-----------22---21----------------|-21-----------22---21-------19-------|
|-19-----------19---19-----------19---|-19-----------19---19-------19-------|
|-18-----------19---18-----------21---|-18-----------19---18-------21-------|
|-19-----------19---19-----------19---|-19-----------19---19-------19-------|
|-21-----------21---21-----------21---|-21-----------21---21-------21-------|
|-------------------------------------|-------------------------------------|
|
|  S S S S S S  S S  S S S S S S  S S    S S S S S S  S S  S S S S  S S S S
|-------------------------------------|-------------------------------------|
|-------------------------------------|-------------------------------------|
|-------------------------------------|-------------------------------------|
|--2-2-2-2-2-2--2-2--2-2-2-2-2-2--2-2-|--2-2-2-2-2-2--2-2--0-0-0-0--0-0-0-0-|


   E   E   E    E    E   E   E    E      E   E   E    E    E   E    E   E
|-21-----------22---21----------------|-21-----------22---21-------19----------|
|-19-----------19---19-----------19---|-19-----------19---19-------19----------|
|-18-----------19---18-----------21---|-18-----------19---18-------21----------|
|-19-----------19---19-----------19---|-19-----------19---19-------19----------|
|-21-----------21---21-----------21---|-21-----------21---21-------21----------|
|-------------------------------------|----------------------------------------|
|
|  S S S S S S  S S  S S S S S S  S S    S S S S S S  S S  S S S S  S S S S
|-------------------------------------|----------------------------------------|
|-------------------------------------|----------------------------------------|
|-------------------------------------|----------------------------------------|
|--2-2-2-2-2-2--2-2--2-2-2-2-2-2--2-2-|--2-2-2-2-2-2--2-2--0-0-0-0--0-0-0-0----|


   E   E   E    E    E   E   E    E      E   E   E    E    E   E    E   E
|--------------19---18-----------21---|--------------19---18----------------|
|-23-----------16---16----------------|-23-----------16---16-------16-------|
|-20-----------16---15-----------20---|-20-----------16---15-------13-------|
|-20-----------16---16-----------23---|-20-----------16---16-------16-------|
|-21-----------18---18-----------21---|-21-----------18---18-------18-------|
|-23-----------------------------23---|-23----------------------------------|
|
|  S S S S S S  S S  S S S S S S  S S    S S S S S S  S S  S S S S  S S S S
|-------------------------------------|-------------------------------------|
|-------------------------------------|-------------------------------------|
|--6-6-6-6-6-6--6-6--6-6-6-6-6-6--6-6-|--6-6-6-6-6-6--6-6--4-4-4-4--4-4-4-4-|
|-------------------------------------|-------------------------------------|


   E   E   E    E    E   E   E    E      E   E   E    E    E   E    E   E
|-18-----------19---18-----------21---|--------------19---18-------------------||
|-16-----------16---16----------------|-23-----------16---16-------16----------||
|-15-----------16---15-----------20---|-20-----------16---15-------13----------||
|-16-----------16---16-----------23---|-20-----------16---16-------16----------||
|-18-----------18---18-----------21---|-21-----------18---18-------18----------||
|--------------------------------23---|-23-------------------------------------||
|
|  S S S S S S  S S  S S S S S S  S S    S S S S S S  S S  S S S S  S S S S
|-------------------------------------|----------------------------------------||
|-------------------------------------|----------------------------------------||
|--6-6-6-6-6-6--6-6--6-6-6-6-6-6--6-6-|--6-6-6-6-6-6--6-6--4-4-4-4--4-4-4-4----||
|-------------------------------------|----------------------------------------||


             Outro
              N.C.
  W            E   E   E    E    E   E   E    E
|----------||-24----------------24----------------|
|----------||-22-----------22---22-----------22---|
|----------||-21-----------21---21-----------21---|
|----------||-22-----------22---22-----------22---|
|----------||-24-----------24---24-----------24---|
|----------||-------------------------------------|
|
| W            S S S S S S  S S  S S S S S S  S S
|----------||-------------------------------------|
|----------||-------------------------------------|
|----------||-------------------------------------|
|----------||--5-5-5-5-5-5--5-5--5-5-5-5-5-5--5-5-|


   E   E   E    E    E   E    E   E      E   E   E    E    E   E   E    E
|-24----------------24-------22-------|-24----------------24----------------|
|-22-----------22---22-------24-------|-22-----------22---22-----------22---|
|-21-----------21---21-------24-------|-21-----------21---21-----------21---|
|-22-----------22---22-------24-------|-22-----------22---22-----------22---|
|-24-----------24---24-------22-------|-24-----------24---24-----------24---|
|-------------------------------------|-------------------------------------|
|
|  S S S S S S  S S  S S S S  S S S S    S S S S S S  S S  S S S S S S  S S
|-------------------------------------|-------------------------------------|
|-------------------------------------|-------------------------------------|
|-------------------------------------|-------------------------------------|
|--5-5-5-5-5-5--5-5--3-3-3-3--3-3-3-3-|--5-5-5-5-5-5--5-5--5-5-5-5-5-5--5-5-|


   E   E   E    E    E   E    Q          Q.    E  +Q    Q
|-24----------------24-------22-------|-13----12-(12)--10--|
|-22-----------22---22-------24-------|-13----12-(12)--10--|
|-21-----------21---21-------24-------|-14-----------------|
|-22-----------22---22-------24-------|-15-----------------|
|-24-----------24---24-------22-------|-15-----------------|
|-------------------------------------|-13-----------------|
|
|  S S S S S S  S S  S S S S  S S S S    W
|-------------------------------------|--------------------|
|-------------------------------------|--------------------|
|--0-0-0-0-0-0--0-0-------------------|--------------------|
|--------------------3-3-3-3--3-3-3-3-|--1-----------------|


   Q.    E  +Q    Q     E   E   E    E    E   E   E    E
|-10----17-(17)--17--|-24----------------24-------------------|
|-------13-(13)--15--|-22-----------22---22-----------22------|
|-10-----------------|-21-----------21---21-----------21------|
|-12-----------------|-22-----------22---22-----------22------|
|-12-----------------|-24-----------24---24-----------24------|
|-10-----------------|----------------------------------------|
|
|  W                    S S S S S S  S S  S S S S S S  S S
|--------------------|----------------------------------------|
|--0-----------------|----------------------------------------|
|--------------------|--0-0-0-0-0-0--0-0--0-0-0-0-0-0--0-0----|
|--------------------|----------------------------------------|


   E   E   E    E    E   E    E   E      E   E   E    E    E   E   E    E
|-24----------------24-------22-------|-24----------------24----------------|
|-22-----------22---22-------24-------|-22-----------22---22-----------22---|
|-21-----------21---21-------24-------|-21-----------21---21-----------21---|
|-22-----------22---22-------24-------|-22-----------22---22-----------22---|
|-24-----------24---24-------22-------|-24-----------24---24-----------24---|
|-------------------------------------|-------------------------------------|
|
|  S S S S S S  S S  S S S S  S S S S    S S S S S S  S S  S S S S S S  S S
|-------------------------------------|-------------------------------------|
|-------------------------------------|-------------------------------------|
|-------------------------------------|-------------------------------------|
|--5-5-5-5-5-5--5-5--3-3-3-3--3-3-3-3-|--5-5-5-5-5-5--5-5--5-5-5-5-5-5--5-5-|


   E   E   E    E    E   E    Q          Q.    E  +Q    Q
|-24----------------24-------22-------|-13-----------------|
|-22-----------22---22-------24-------|-13----17-(17)--15--|
|-21-----------21---21-------24-------|-14----16-(16)--14--|
|-22-----------22---22-------24-------|-15-----------------|
|-24-----------24---24-------22-------|-15-----------------|
|-------------------------------------|-13-----------------|
|
|  S S S S S S  S S  S S S S  S S S S    W
|-------------------------------------|--------------------|
|-------------------------------------|--------------------|
|-------------------------------------|--------------------|
|--5-5-5-5-5-5--5-5--3-3-3-3--3-3-3-3-|--1-----------------|


   Q.    E  +Q    Q     e    e q   e    e q
|-10----13-(13)--12--|-12---12----12---12----|
|-------13-(13)--12--|-13---13----13---13----|
|-10-----------------|-14---14----14---14----|
|-12-----------------|-14---14----14---14----|
|-12-----------------|-12---12----12---12----|
|-10-----------------|-----------------------|
|
|  W                    S S  E Q   S S  E Q
|--------------------|-----------------------|
|--------------------|-----------------------|
|--5-----------------|-----------------------|
|--------------------|--5-5--5-----5-5--5----|


   e    e Q  E  S  S  E  E    E E Q  H
|-12---12------15-15-15-15-|-17-----------*|
|-13---13------15-15-15-15-|-17-----------*|
|-14---14------16-16-16-16-|-17-----------*|
|-14---14------17-17-17-17-|-19-----------*|
|-12---12------------------|--------------*|
|--------------------------|-17-----------*|
|
|  S S  E Q  E  S  S  E  E    E E Q  H
|--------------------------|--------------*|
|--------------------------|--------------*|
|--------------------------|--------------*|
|--5-5--5-------3--3--3--3-|--5-----------*|



Duration Legend
---------------
W - whole; H - half; Q - quarter; E - 8th; S - 16th; T - 32nd; X - 64th; a - acciaccatura
+ - note tied to previous; . - note dotted; .. - note double dotted
Uncapitalized letters represent notes that are staccato (1/2 duration)
Irregular groupings are notated above the duration line
Duration letters will always appear directly above the note/fret number it represents the
duration for.  Duration letters with no fret number below them represent rests.  Multi-
bar rests are notated in the form Wxn, where n is the number of bars to rest for.  Low
melody durations appear below the staff

Tablature Legend
----------------
 h   - hammer-on
 p   - pull-off
 b   - bend
 pb  - pre-bend
 r   - bend release (if no number after the r, then release immediately)
 /\  - slide into or out of (from/to "nowhere")
 s   - legato slide
 S   - shift slide
<n> - natural harmonic
[n]  - artificial harmonic
n(n) - tapped harmonic
 ~   - vibrato
 tr  - trill
 T   - tap
 TP  - trem. picking
 PM  - palm muting
\n/  - tremolo bar dip; n = amount to dip
 \n  - tremolo bar down
 n/  - tremolo bar up
/n\  - tremolo bar inverted dip
 =   - hold bend; also acts as connecting device for hammers/pulls
 <> - volume swell (louder/softer)
 x   - on rhythm slash represents muted slash
 o   - on rhythm slash represents single note slash

Misc Legend
-----------
 |  - bar
||  - double bar
||o - repeat start
o|| - repeat end
*|  - double bar (ending)
 :  - bar (freetime)
 $  - Segno
 &  - Coda
Tempo markers - <E/E./Q/Q./H/H.> = BPM(8/16=s8/s16), where s8 = swing 8ths, s16 = swing 16ths

comments
We did not receive enough feedback on this tab! Please rate:
print report bad tab
1 2 3 4 5
I want to post or [tab]
guest
You may want to rate the tab now too:
select rating
Please do not post tabs as comments. Select "correction" instead!