Oops, an error
Loading. Please wait.

Fantasmic Tab

ver1
ver1

Whole song

Interactive

More versions @911Tabs.com
3,003 views 1 this week
no commentswrite comment
1 2 3 4 5
worth learning
x 2
Autoscroll
+/-
esc
set tempo
stop
Contributor
Hey! There's an official Ultimate Guitar app which is ideal
for learning songs when you're away from computer. Get the app
WARNING: You are trying to view
                                    content from Ultimate-Guitar.com
                                    in an unauthorized application,
                                    which is prohibited.

                                    Please use an official Ultimate
                                    Guitar Tabs application for iPhone,
                                    iPad or Android to access legitimate
                                    chords, guitar, bass, and drum tabs
                                    from Ultimate-Guitar.com database.

                                    Type "ultimate guitar tabs" in Apple
                                    App Store's or Android Market's
                                    search to find the application.
#----------------------------------PLEASE NOTE---------------------------------#
#This file is the author's own work and represents their interpretation of the #
#song. You may only use this file for private study, scholarship, or research. #
#------------------------------------------------------------------------------#

FANTASMIC
As recorded by Nightwish
(From the 2000 Album WISMASTER)

Transcribed by Ivan - (peekaboo104@hotmail.com)
	

Words and Music by T.Turunen, T. Holopainen, J. Nevalainen, E. Vuorinen, S. Vanska

G5
3 5 x x x x
	
C5
x 3 5 x x x
	
D5
x 5 7 x x x
	
F#5
2 4 x x x x

E5
x 7 9 x x x
	
A5
5 7 x x x x
	
F5
1 3 x x x x
	
E5(type 2)
0 2 x x x x

F#5(type 2)
2 4 4 x x x
	
A5(type 2)
x 0 2 2 x x
	
B5
x 2 4 4 x x
	
E5(type 3)
0 2 2 x x x

Eb5
x 6 8 8 x x

Gtr I (E A D G B E) - 'Emppu Vuorinen'
Gtr II (E A D G B E) - 'Emppu Vuorinen'
Gtr III (E A D G B E) - 'Tuomas Holopainen (Harpsichord)'
Gtr IV (E A D G B E) - 'Tuomas Holopainen (Flute)'
Gtr V (E A D G B E) - 'Tuomas Holopainen (Pad 1)'

 Intro
  Moderate Rock Q=134
  (E)
 4/4
  Gtrs III, V
  S S S  S S S S S S S S S  S S S S   S S S S S  S S S S S  S S S S S S
|-----------------------------------|-----------------------------------|
|-----------------------------------|-----------------------------------|
|------------7---9------------------|-----------------------------------|
|-9---9-10-----------9---9-10---7---|-9---9-7---------------------7-----|
|---7------7---7---7---7------7---7-|---7-----7-10-7-9-7-9-10-7-7---7-9-|
|-----------------------------------|-----------------------------------|


  S S S  S S S S S S S S S  S S S S
|-------------------------------------|
|-------------------------------------|
|------------7---9--------------------|
|-9---9-10-----------9---9-10---7-----|
|---7------7---7---7---7------7---7---|
|-------------------------------------|


                                     E5(type 2)
                                     Gtr I
  W                                  E   E    Q       Q        E   E
                                     |                             |
                                     /                             /

  S S  S S S S S S S S S S S S S S   S S S  S S S S S S S S S  S S S S
|----------------------------------|-----------------------------------|
|----------------------------------|-----------------------------------|
|-9--------5-----------5-----------|------------7---9------------------|
|-9----9---7---7-------8---9-------|-9---9-10-----------9---9-10---7---|
|---7-10-7---7-9-7-9-6---6---6-9-6-|---7------7---7---7---7------7---7-|
|----------------------------------|-----------------------------------|


  E   E   Q        H
  |
  /

  S S S S S  S S S S S  S S S S S S
|-----------------------------------|
|-----------------------------------|
|-----------------------------------|
|-9---9-7---------------------------|
|---7-----7-10-7-9-7-9-10-7-9-7-6-7-|
|-----------------------------------|


  E5(type 2)
  H                +Q.            E
  |                 |             |
  /                 /             /

  S S S  S S S S S  S  S S S  S S S S
|-------------------------------------||
|-------------------------------------||
|------------7---9--------------------||
|-9---9-10-------------9---9-10---7---||
|---7------7---7----7----7------7---7-||
|-------------------------------------||


                                                        (E)
 6/4                                                   4/4
  E   E   Q       Q        H.                           W
  |
  /

                                                     Gtrs II, III, V
  S S S S S S S S S S  S S S  S S S S S  S S S S S S    S S S  S S S S S S S S S  S S S S
|----------------------------------------------------||-------------------------------------|
|----------------------------------------------------||-------------------------------------|
|----------------------------------------------------||------------7---9--------------------|
|-9---9-7---5----------------------------------------||-9---9-10-----------9---9-10---7-----|
|---7-----7---7-9-7-9-10-7-9--7-6-7-7-9-10-7-9-7-6-7-||---7------7---7---7---7------7---7---|
|----------------------------------------------------||-------------------------------------|


 4/4
  S S S S S  S S S S S  S S S S S S   S S S  S S S S S S S S S  S S S S
|-----------------------------------|-----------------------------------|
|-----------------------------------|-----------------------------------|
|-----------------------------------|------------7---9------------------|
|-9---9-7---------------------------|-9---9-10-----------9---9-10---7---|
|---7-----7-10-7-9-7-9-10-7-9-7-6-7-|---7------7---7---7---7------7---7-|
|-----------------------------------|-----------------------------------|


  S S S S S  S S S S S  S S S S S S
|-------------------------------------|
|-------------------------------------|
|-------------------------------------|
|-9---9-7-----------------------------|
|---7-----7-10-7-9-7-9-10-7-9-7-6-7---|
|-------------------------------------|


  S S S  S S S S S S S S S  S S S S
|-----------------------------------|
|-----------------------------------|
|------------7---9------------------|
|-9---9-10-----------9---9-10---7---|
|---7------7---7---7---7------7---7-|
|-----------------------------------|


  S S S S S  S S S S S  S S S S S S   S S S  S S S S S S S S S  S S S S
|-----------------------------------|-----------------------------------|
|-----------------------------------|-----------------------------------|
|-----------------------------------|------------7---9------------------|
|-9---9-7---------------------------|-9---9-10-----------9---9-10---7---|
|---7-----7-10-7-9-7-9-10-7-9-7-6-7-|---7------7---7---7---7------7---7-|
|-----------------------------------|-----------------------------------|


  G5 C5 D5           C5 G5    F#5
  Gtr I
   |--3--|            |--3--|
   Q  Q  Q  +H        Q  Q  Q   H
   |  |  |   |        |  |  |   |
   /  /  /   /        /  /  /   /

  Gtr II
      ~~ ~~  ~~~~        ~~ ~~  ~~~~
   |--3--|            |--3--|
   Q  Q  Q  +H        Q  Q  Q  +H
|-----8-10-(10)----|----15-14-(14)----|
|-10---------------|-13---------------|
|-14-12-14-(14)----|-12-12-11-(11)----|
|-14-14-16-(16)----|-14-12-11-(11)----|
|------------------|------------------|
|------------------|------------------|
   Q  Q  Q  +H        Q  Q  Q  +H
   |--3--|            |--3--|


  W                                   W
  Gtrs I, III, V
  S S S  S S S S S S S S S  S S S S   S S S S S  S S S S S  S S S S S S
|-----------------------------------|------------------------------------|
|-----------------------------------|------------------------------------|
|------------7---9------------------|------------------------------------|
|-9---9-10-----------9---9-10---7---|-9---9-7----------------------------|
|---7------7---7---7---7------7---7-|---7-----7-10-7-9-7-9-10-7-9-7-6-7--|
|-----------------------------------|------------------------------------|


                                      E5 D5 G5 A5 F5
                                      Gtr I
                                       |--3--|  |3-|
  W                                    Q  Q  Q  Q  H
                                       |  |  |  |  |
                                       /  /  /  /  /

                                      Gtr II
                                       |--3--|  |3-|
  S S S  S S S S S S S S S  S S S S    Q  Q  Q  Q  H
|-----------------------------------|-------10-12-----|
|-----------------------------------|-12-10-------13--|
|------------7---9------------------|--9--7-12-14-10--|
|-9---9-10-----------9---9-10---7---|-----------------|
|---7------7---7---7---7------7---7-|--7--5-10-12--8--|
|-----------------------------------|-----------------|
                                       Q  Q  Q  Q  H
                                       |--3--|  |3-|


  W                                   W
  Gtrs I, III, V
  S S S  S S S S S S S S S  S S S S   S S S S S  S S S S S  S S S S S S
|-----------------------------------|-------------------------------------|
|-----------------------------------|-------------------------------------|
|------------7---9------------------|-------------------------------------|
|-9---9-10-----------9---9-10---7---|-9---9-7-----------------------------|
|---7------7---7---7---7------7---7-|---7-----7-10-7-9-7-9-10-7-9-7-6-7---|
|-----------------------------------|-------------------------------------|


                                      G5 C5 D5
                                      Gtr I
                                       |--3--|
  W                                    Q  Q  Q  +H
                                       |  |  |   |
                                       /  /  /   /

                                      Gtr II
                                          ~~ ~~  ~~~~
                                       |--3--|
  S S S  S S S S S S S S S  S S S S    Q  Q  Q  +H
|-----------------------------------|-----8-10-(10)----|
|-----------------------------------|-10---------------|
|------------7---9------------------|-14-12-14-(14)----|
|-9---9-10-----------9---9-10---7---|-14-14-16-(16)----|
|---7------7---7---7---7------7---7-|------------------|
|-----------------------------------|------------------|
                                       Q  Q  Q  +H
                                       |--3--|


  C5 G5 F#5           E5
   |--3--|
   Q  Q  Q  +H        W
   |  |  |   |
   /  /  /   /

                      Gtrs I, II
      ~~ ~~  ~~~~       PM|   PM|   PM|   PM|
   |--3--|
   Q  Q  Q  +H        E S S E S S E S S E S S
|----15-14-(14)----||---------------------------|
|-13---------------||---------------------------|
|-12-12-11-(11)----||---------------------------|
|-14-12-11-(11)----||---------------------------|
|------------------||-2-----2-----2-----2-------|
|------------------||-0-0-0-0-0-0-0-0-0-0-0-0---|
   Q  Q  Q  +H
   |--3--|


              C5 D5   E5
    PM|   PM|           PM|   PM|   PM|   PM|
  E S S E S S Q  Q    E S S E S S E S S E S S
|-------------------|-------------------------|
|-------------------|-------------------------|
|-------------------|-------------------------|
|-------------5--7--|-------------------------|
|-2-----2-----3--5--|-2-----2-----2-----2-----|
|-0-0-0-0-0-0-------|-0-0-0-0-0-0-0-0-0-0-0-0-|


    PM|   PM|                 ~    PM|   PM|   PM|
  E S S E S S E S S S S S S   Q  E S S E S S E S S
|---------------------------|-----------------------|
|---------------------------|-----------------------|
|---------------------------|-----------------------|
|---------------1-2-4-2-1-4-|-2---------------------|
|-2-----2-----2-------------|----2-----2-----2------|
|-0-0-0-0-0-0-0-------------|----0-0-0-0-0-0-0-0-0--|


                  C5    D5  E5
    PM|   PM----|   PM|       PM|   PM|   PM|   PM|
  E S S E S S S S E S S E   E S S E S S E S S E S S
|-------------------------|-------------------------|
|-------------------------|-------------------------|
|-------------------------|-------------------------|
|-----------------5-----7-|-------------------------|
|-2-----2-----3-3-3-5-5-5-|-2-----2-----2-----2-----|
|-0-0-0-0-0-0-------------|-0-0-0-0-0-0-0-0-0-0-0-0-|


                        1st Verse
              G5A5G#F5   E5
    PM|   PM|              PM|   PM|   PM|   PM|
  E S S E S S E E E E    E S S E S S E S S E S S
|---------------------||--------------------------|
|---------------------||--------------------------|
|---------------------||--------------------------|
|-------------5-7-6-3-||--------------------------|
|-2-----2-----5-7-6-3-||-2-----2-----2-----2------|
|-0-0-0-0-0-0-3-5-4-1-||-0-0-0-0-0-0-0-0-0-0-0-0--|


              C5 D5   E5
    PM|   PM|           PM|   PM|   PM|   PM|
  E S S E S S Q  Q    E S S E S S E S S E S S
|-------------------|-------------------------|
|-------------------|-------------------------|
|-------------------|-------------------------|
|-------------5--7--|-------------------------|
|-2-----2-----3--5--|-2-----2-----2-----2-----|
|-0-0-0-0-0-0-------|-0-0-0-0-0-0-0-0-0-0-0-0-|


    PM|   PM|                 ~    PM|   PM|   PM|
  E S S E S S E S S S S S S   Q  E S S E S S E S S
|---------------------------|-----------------------|
|---------------------------|-----------------------|
|---------------------------|-----------------------|
|---------------1-2-4-2-1-4-|-2---------------------|
|-2-----2-----2-------------|----2-----2-----2------|
|-0-0-0-0-0-0-0-------------|----0-0-0-0-0-0-0-0-0--|


                  C5    D5  E5
    PM|   PM----|   PM|       PM|   PM|   PM|   PM|
  E S S E S S S S E S S E   E S S E S S E S S E S S
|-------------------------|-------------------------|
|-------------------------|-------------------------|
|-------------------------|-------------------------|
|-----------------5-----7-|-------------------------|
|-2-----2-----3-3-3-5-5-5-|-2-----2-----2-----2-----|
|-0-0-0-0-0-0-------------|-0-0-0-0-0-0-0-0-0-0-0-0-|
|
| W                         W
|-------------------------|-------------------------|
|-------------------------|-------------------------|
|-------------------------|-------------------------|
|-------------------------|-------------------------|
|-------------------------|-------------------------|
|-------------------------|-------------------------|


              G5A5G#F5   (C#)
    PM|   PM|              PM    PM  PM~              PM  PM
  E S S E S S E E E E    S S S S S S S S +E.      S S S S S
|---------------------||-------------------------------------|
|---------------------||-------------------------------------|
|---------------------||-----------4---6-(6)\----------------|
|-------------5-7-6-3-||-6---6-7------------------6-7---4----|
|-2-----2-----5-7-6-3-||---4-----4---4----------------4---4--|
|-0-0-0-0-0-0-3-5-4-1-||-------------------------------------|
|
|                     Gtr I
| W                      S S S S S S S S  S   S S S S S S S
|---------------------||-------------------------------------|
|---------------------||-------------------------------------|
|---------------------||-----------4---6---------------------|
|---------------------||-6---6-7--------------6---6-7---4----|
|---------------------||---4-----4---4----4-----4-----4---4--|
|---------------------||-------------------------------------|


    PM    PM--------------------|
  S S S S S S S S S S S S S S S S
|---------------------------------|
|---------------------------------|
|---------------------------------|
|-6---6-4-------------------------|
|---4-----4-7-4-6-4-6-7-4-6-4-3-4-|
|---------------------------------|
|
| S S S S S S S S S S S S S S S S
|---------------------------------|
|---------------------------------|
|---------------------------------|
|-6---6-4-------------------------|
|---4-----4-7-4-6-4-6-7-4-6-4-3-4-|
|---------------------------------|


    PM    PM  PM~              PM  PM    PM    PM--------------------|
  S S S S S S S S +E.      S S S S S   S S S S S S S S S S S S S S S S
|------------------------------------|---------------------------------|
|------------------------------------|---------------------------------|
|-----------4---6-(6)\---------------|---------------------------------|
|-6---6-7------------------6-7---4---|-6---6-4-------------------------|
|---4-----4---4----------------4---4-|---4-----4-7-4-6-4-6-7-4-6-4-3-4-|
|------------------------------------|---------------------------------|
|
| S S S S S S S S  S   S S S S S S S   S S S S S S S S S S S S S S S S
|------------------------------------|---------------------------------|
|------------------------------------|---------------------------------|
|-----------4---6--------------------|---------------------------------|
|-6---6-7--------------6---6-7---4---|-6---6-4-------------------------|
|---4-----4---4----4-----4-----4---4-|---4-----4-7-4-6-4-6-7-4-6-4-3-4-|
|------------------------------------|---------------------------------|


    PM    PM  PM~              PM  PM
  S S S S S S S S +E.      S S S S S
|------------------------------------|
|------------------------------------|
|-----------4---6-(6)\---------------|
|-6---6-7------------------6-7---4---|
|---4-----4---4----------------4---4-|
|------------------------------------|
|
| S S S S S S S S  S   S S S S S S S
|------------------------------------|
|------------------------------------|
|-----------4---6--------------------|
|-6---6-7--------------6---6-7---4---|
|---4-----4---4----4-----4-----4---4-|
|------------------------------------|


    PM    PM--------------------|     PM    PM  PM~              PM  PM
  S S S S S S S S S S S S S S S S   S S S S S S S S +E.      S S S S S
|---------------------------------|------------------------------------|
|---------------------------------|------------------------------------|
|---------------------------------|-----------4---6-(6)\---------------|
|-6---6-4-------------------------|-6---6-7------------------6-7---4---|
|---4-----4-7-4-6-4-6-7-4-6-4-3-4-|---4-----4---4----------------4---4-|
|---------------------------------|------------------------------------|
|
| S S S S S S S S S S S S S S S S   S S S S S S S S  S   S S S S S S S
|---------------------------------|------------------------------------|
|---------------------------------|------------------------------------|
|---------------------------------|-----------4---6--------------------|
|-6---6-4-------------------------|-6---6-7--------------6---6-7---4---|
|---4-----4-7-4-6-4-6-7-4-6-4-3-4-|---4-----4---4----4-----4-----4---4-|
|---------------------------------|------------------------------------|


  F#5(A5(type B5           A5(tE5(type Eb5
  Gtr I
   E.  S  +E   E  +H        E.  S  +E   E  +H
   |   |   |   |   |        |   |   |   |   |
   /   /   /   /   /        /   /   /   /   /

  Gtr II
   E.  S  +E   E  +H        E.  S  +E   E  +H
|------------------------|-----12-(12)-11-(11)----||
|-----10-(10)-12-(12)----|-10---------------------||
|--9--14-(14)-16-(16)----|-14---9--(9)--8--(8)----||
|-16--16-(16)-14-(14)----|-14---9--(9)-10-(10)----||
|-16---------------------|------------------------||
|------------------------|------------------------||


 2nd Verse
  E5                                    C5 D5
  W                         W
    PM|   PM|   PM|   PM|     PM|   PM|
  E S S E S S E S S E S S   E S S E S S Q  Q
|-------------------------|-------------------|
|-------------------------|-------------------|
|-------------------------|-------------------|
|-------------------------|-------------5--7--|
|-2-----2-----2-----2-----|-2-----2-----3--5--|
|-0-0-0-0-0-0-0-0-0-0-0-0-|-0-0-0-0-0-0-------|


  E5
    PM|   PM|   PM|   PM|     PM|   PM|   PM
  E S S E S S E S S E S S   E S S E S S E S S S S S S
|-------------------------|---------------------------|
|-------------------------|---------------------------|
|-------------------------|---------------------------|
|-------------------------|-----------------1-2-4-2-1-|
|-2-----2-----2-----2-----|-2-----2-----2-2-----------|
|-0-0-0-0-0-0-0-0-0-0-0-0-|-0-0-0-0-0-0-0-0-----------|


                                         C5    D5
  ~    PM|   PM|   PM|     PM|   PM----|   PM|
  Q  E S S E S S E S S   E S S E S S S S E S S E
|----------------------|----------------------------|
|----------------------|----------------------------|
|----------------------|----------------------------|
|-2--------------------|-----------------5-----7----|
|----2-----2-----2-----|-2-----2-----3-3-3-5-5-5----|
|----0-0-0-0-0-0-0-0-0-|-0-0-0-0-0-0----------------|


  E5                                    G5A5G#F5   N.C.
    PM|   PM|   PM|   PM|     PM|   PM|
  E S S E S S E S S E S S   E S S E S S E E E E    Wx4          Wx4
|-------------------------|---------------------||------------|--------||
|-------------------------|---------------------||------------|--------||
|-------------------------|---------------------||------------|--------||
|-------------------------|-------------5-7-6-3-||------------|--------||
|-2-----2-----2-----2-----|-2-----2-----5-7-6-3-||------------|--------||
|-0-0-0-0-0-0-0-0-0-0-0-0-|-0-0-0-0-0-0-3-5-4-1-||------------|--------||


  A5
  PM------------------------------------------------|
  E E E E E E E E   E E E E E E E E   E E E E E E E E   W
|-----------------|-----------------|-----------------|------||
|-----------------|-----------------|-----------------|------||
|-----------------|-----------------|-----------------|------||
|-----------------|-----------------|-----------------|-7----||
|-7-7-7-7-7-7-7-7-|-7-7-7-7-7-7-7-7-|-7-7-7-7-7-7-7-7-|-7----||
|-5-5-5-5-5-5-5-5-|-5-5-5-5-5-5-5-5-|-5-5-5-5-5-5-5-5-|-5----||


    F#                                    E5
    PM----|     PM----|       PM----|
    S S S S E E S S S S E E   S S S S E E H
||--------------------------|------------------|
||o-------------------------|------------------|
||--------------------------|------------------|
||--------------------------|-------------2----|
||o---------4-4---------4-4-|---------4-4-2----|
||--2-2-2-2-2-2-2-2-2-2-2-2-|-2-2-2-2-2-2-0----|


  F#                                    E5
  PM----|     PM----|       PM----|
  S S S S E E S S S S E E   S S S S E E H
|-------------------------|------------------|
|-------------------------|------------------|
|-------------------------|------------------|
|-------------------------|-------------2----|
|---------4-4---------4-4-|---------4-4-2----|
|-2-2-2-2-2-2-2-2-2-2-2-2-|-2-2-2-2-2-2-0----|


  D#5                                   C#5
    PM|   PM|   PM|   PM|     PM|   PM|
  E S S E S S E S S E S S   E S S E S S H
|-------------------------|------------------|
|-------------------------|------------------|
|-------------------------|------------------|
|-8-----8-----8-----8-----|-8-----8-----6----|
|-6-6-6-6-6-6-6-6-6-6-6-6-|-6-6-6-6-6-6-4----|
|-------------------------|------------------|


  D#5                                   C#5
    PM|   PM|   PM|   PM|     PM|   PM|
  E S S E S S E S S E S S   E S S E S S H
|-------------------------|-------------------||
|-------------------------|------------------o||
|-------------------------|-------------------||
|-8-----8-----8-----8-----|-8-----8-----6-----||
|-6-6-6-6-6-6-6-6-6-6-6-6-|-6-6-6-6-6-6-4----o||
|-------------------------|-------------------||


    (A)
    PM----|     PM----|       ~       PM  PM  PM  PM  PM  PM-
    S S S S E E S S S S E E   Q     S S S S S S S S S S S S
||--------------------------|-------------------------------|
||o-------------------------|-----------5---6---5-------5---|
||--------------------------|-------7---------------7-------|
||----------2-3---------5-3-|-5-------5---5---5---5---5---5-|
||o-0-0-0-0-----0-0-0-0-----|-------------------------------|
||--------------------------|-------------------------------|
|
|   Gtr III
|   W                         S S E S S S S S S S S S S S S
||--------------------------|-------------------------------|
||o-------------------------|-----------5---6---5-------5---|
||--------------------------|-------7---------------7-------|
||--------------------------|-5-5-5---5---5---5---5---5---5-|
||o-------------------------|-------------------------------|
||--------------------------|-------------------------------|


 -------|     PM----|       ~
  S S S S E E S S S S E E   Q     E E E E Q
|-------------------------|--------------------|
|-------------------------|-------3-5-3--------|
|-------------------------|-5-----------4------|
|---------2-3---------5-3-|---------------5----|
|-0-0-0-0-----0-0-0-0-----|--------------------|
|-------------------------|--------------------|
|
| W                         S S E E E E E Q
|-------------------------|--------------------|
|-------------------------|---------5----------|
|-------------------------|-5-5-5-7---7-4------|
|-------------------------|---------------5----|
|-------------------------|--------------------|
|-------------------------|--------------------|


                                  1.
  F5         D5         A5
  W          W          W          +W
|----------|----------|----------|---------||
|----------|----------|----------|--------o||
|----------|-7--------|----------|---------||
|-3--------|-7--------|-7--------|-(7)-----||
|-3--------|-5--------|-7--------|-(7)----o||
|-1--------|----------|-5--------|-(5)-----||


  2.
  (A5)
  +W           +W           +W           +W
|------------|------------|------------|--------|
|------------|------------|------------|--------|
|------------|------------|------------|--------|
|-(7)--------|-(7)--------|-(7)--------|-(7)----|
|-(7)--------|-(7)--------|-(7)--------|-(7)----|
|-(5)--------|-(5)--------|-(5)--------|-(5)----|


                                            Guitar Solo - E.Vuorinen
                N.C.                             N.C.
                                                 ~~~~~~~~~~~~~~~
  +W            Wx39           H    Q  Q      a  W            W
|------------||-------------||------------||--------------|--------|
|------------||-------------||------------||--------------|-/10----|
|------------||-------------||---------5--||-(5)s7--------|--------|
|-(7)--------||-------------||------------||--------------|--------|
|-(7)--------||-------------||------------||--------------|--------|
|-(5)--------||-------------||------------||--------------|--------|


    ~~~~                                                       ~~~
   +W             a  H.      E E   W          +H     Q  Q      W
|-------------|------------------|----------|--------------|--------|
|-(10)--------|-(10)s5-------5-6-|-8--------|-(8)----6--8--|-/10----|
|-------------|------------------|----------|--------------|--------|
|-------------|------------------|----------|--------------|--------|
|-------------|------------------|----------|--------------|--------|
|-------------|------------------|----------|--------------|--------|


    ~~~~             ~~~~~~~~~~~~~~~~~~~~~~~~~~~~~
   +H.      Q     a  W            W           +W           H.      E  E
|--------------|--------------|------------|-------------|----------------|
|-(10)---------|--------------|-/10--------|-(10)--------|----------------|
|-----------5--|-(5)s7--------|------------|-------------|-9-------9-10---|
|--------------|--------------|------------|-------------|----------------|
|--------------|--------------|------------|-------------|----------------|
|--------------|--------------|------------|-------------|----------------|


                            ~~~~~~~~~~~~~~~             ~~~~~~~
  W          +H     Q  Q    W          +W           E E Q  +H
|----------|--------------|----------|------------|---------------|
|-8--------|-(8)----6--5--|----------|------------|---------------|
|----------|--------------|-7--------|-(7)--------|-5-4-----------|
|----------|--------------|----------|------------|-----7--(7)----|
|----------|--------------|----------|------------|---------------|
|----------|--------------|----------|------------|---------------|


   ~~~             ~~~~~~~~~~~~~~~~
  +W           E E Q  +H       +H     Q  Q
|------------|---------------|--------------||
|------------|---------------|--------------||
|------------|-5-4-----------|--------------||
|-(7)--------|-----7--(7)----|-(7)----5--7--||
|------------|---------------|--------------||
|------------|---------------|--------------||


                                      H=H               Q=144
  A5                                                              G5
  PM--------------------------------------------------------------|   PM
  E E E E E E E E   E E E E E E E E   E E E E E E E E   E E E E E E E E
|-----------------|-----------------|-----------------|-----------------||
|-----------------|-----------------|-----------------|-----------------||
|-----------------|-----------------|-----------------|-----------------||
|-----------------|-----------------|-----------------|-----------------||
|-7-7-7-7-7-7-7-7-|-7-7-7-7-7-7-7-7-|-7-7-7-7-7-7-7-7-|-7-7-7-7-7-5---5-||
|-5-5-5-5-5-5-5-5-|-5-5-5-5-5-5-5-5-|-5-5-5-5-5-5-5-5-|-5-5-5-5-5-3---3-||


  A5                               G5   A5                   G5 A5
  Gtr I
   PM                         PM-----------------------------------|
   E  E     Q        Q        E     E    E  E     Q        E  E  E E
|-------------------------------------|------------------------------|
|-------------------------------------|------------------------------|
|-------------------------------------|------------------------------|
|-------------------------------------|------------------------------|
|--7--------------------------------5-|--7--------------------5--7---|
|--5--------------------------------3-|--5--------------------3--5---|
|
| Gtr IV
|  e  S  S  E  S  S  E  S  S  S  S  e    e  S  S  E  S  S  e  e  e E
|-17-17-19-20-19-17-22-22-24-20-19----|-17-17-19-20-19-17-19----17---|
|----------------------------------20-|----------------------20------|
|-------------------------------------|------------------------------|
|-------------------------------------|------------------------------|
|-------------------------------------|------------------------------|
|-------------------------------------|------------------------------|


                    D5       F5                    C5           G5 A5
                                                                 PM|
   H                 Q        Q          +Q         Q       +E   E  E E
|-------------------------------------|---------------------------------||
|-------------------------------------|---------------------------------||
|-------------------------------------|---------------------------------||
|--------------------7-------10-------|-(10)--------5-------(5)---------||
|--7-----------------5--------8-------|--(8)--------3-------(3)--5--7---||
|--5----------------------------------|--------------------------3--5---||
|
|  e  S  S  E  S  S  E  S  S  S  S  e     e   S  S  E  S  S  e   e  e E
|-17-17-19-20-19-17-22-22-24-20-19----|--17--17-19-20-19-17-19-----17---||
|----------------------------------20-|-------------------------20------||
|-------------------------------------|---------------------------------||
|-------------------------------------|---------------------------------||
|-------------------------------------|---------------------------------||
|-------------------------------------|---------------------------------||


    A5                               G5   A5                      G5 A5
    Gtr III
     E  S  S  E  S  S  E  S  S  S  S  E    E  S  S  S  S  S  S  E  E  Q
||--------------------17-17-19----------|----------------------------------||
||o-17-17-19-20-19-17----------20-19----|-17-17-19-20-20-19-17-19----17---o||
||-----------------------------------19-|-------------------------19-------||
||--------------------------------------|----------------------------------||
||o-------------------------------------|---------------------------------o||
||--------------------------------------|----------------------------------||
|
|   Gtr IV
|    e  S  S  E  S  S  E  S  S  S  S  e    e  S  S  E     S  S  e  e  e E
||--17-17-19-20-19-17-22-22-24-20-19----|-17-17-19-20----19-17-19----17----||
||o----------------------------------20-|-------------------------20------o||
||--------------------------------------|----------------------------------||
||--------------------------------------|----------------------------------||
||o-------------------------------------|---------------------------------o||
||--------------------------------------|----------------------------------||
|
|   Gtr I
|    E  E     Q        Q        E     E    E  E     Q           E  E  E E
||--------------------------------------|----------------------------------||
||o-------------------------------------|---------------------------------o||
||--------------------------------------|----------------------------------||
||--------------------------------------|----------------------------------||
||o--7--------------------------------5-|--7-----------------------5--7---o||
||---5--------------------------------3-|--5-----------------------3--5----||


    F#5                                                             E5 F#5
     E  S  S  E  S  S  E  S  S  S  S  E      E  S  S  S  S  S  S  E  E  Q
||---------------------------9------------|---------------------------------||
||o--------9-10--9----12-12----10--9------|--------9-10-10--9-----9--------o||
||--11-11----------11-----------------9---|-11-11-------------11-----9-11---||
||----------------------------------------|---------------------------------||
||o---------------------------------------|--------------------------------o||
||----------------------------------------|---------------------------------||
|
|    E  S  S  E  S  S  E  S  S  S  S  E      E  S  S  S  S  S  S  E  E  Q
||--------16-17-16----19-19-21-17-16------|-------16-17-17-16----16---------||
||o-19-19----------19----------------17---|-19-19-------------19----17-19--o||
||----------------------------------------|---------------------------------||
||----------------------------------------|---------------------------------||
||o---------------------------------------|--------------------------------o||
||----------------------------------------|---------------------------------||
|
|       PM-------------------------------------------------------|
|    E  S  S  E  S  S  E  S  S  E     S S    E  S  S  E     S  S  E  E  Q
||----------------------------------------|---------------------------------||
||o---------------------------------------|--------------------------------o||
||----------------------------------------|---------------------------------||
||----------------------------------------|---------------------------------||
||o--4------------------------------------|--------------------------2--4--o||
||---2--2--2--2--2--2--2--2--2--2-----2-2-|--2--2--2--2-----2--2--2--0--2---||


  F#5                                                             E5 F#5
   E  S  S  E  S  S  E  S  S  S  S  E      E  S  S  S  S  S  S  E  E  Q
|---------------------------------------|--------------------------------|
|-------------------12-12-14------------|--------------------------------|
|-11-11-13-14-13-11----------14-13------|-11-11-13-14-14-13-11-13----11--|
|----------------------------------14---|-------------------------14-----|
|---------------------------------------|--------------------------------|
|---------------------------------------|--------------------------------|
|
|  E  S  S  E  S  S  E  S  S  S  S  E      E  S  S  S  S  S  S  E  E  Q
|-------16-17-16----19-19-21-17-16------|-------16-17-17-16----16--------|
|-19-19----------19----------------17---|-19-19-------------19----17-19--|
|---------------------------------------|--------------------------------|
|---------------------------------------|--------------------------------|
|---------------------------------------|--------------------------------|
|---------------------------------------|--------------------------------|
|
|     PM-------------------------------------------------------|
|  E  S  S  E  S  S  E  S  S  E     S S    E  S  S  E     S  S  E  E  Q
|---------------------------------------|--------------------------------|
|---------------------------------------|--------------------------------|
|---------------------------------------|--------------------------------|
|---------------------------------------|--------------------------------|
|--4------------------------------------|--------------------------2--4--|
|--2--2--2--2--2--2--2--2--2--2-----2-2-|--2--2--2--2-----2--2--2--0--2--|


  F#5               B5       D5                   A5              E5 F#5
   E  S  S  E  S  S  E  S  S  S  S  E    E   S  S  S  S  S  S  E   E  Q
|-------------------------------------|----------------------------------||
|-------------------12-12-14----------|----------------------------------||
|-11-11-13-14-13-11----------14-13----|-11--11-13-14-14-13-11-13-----11--||
|----------------------------------14-|---------------------------14-----||
|-------------------------------------|----------------------------------||
|-------------------------------------|----------------------------------||
|
|  E  S  S  E  S  S  E  S  S  S  S  E    E   S  S  S  S  S  S  E   E  Q
|-------16-17-16----19-19-21-17-16----|--------16-17-17-16----16---------||
|-19-19----------19----------------17-|-19--19-------------19-----17-19--||
|-------------------------------------|----------------------------------||
|-------------------------------------|----------------------------------||
|-------------------------------------|----------------------------------||
|-------------------------------------|----------------------------------||
|
|     PM---------|
|  E  S  S  E  S  S  Q        Q         +Q         Q          +E   E  Q
|-------------------------------------|----------------------------------||
|-------------------------------------|----------------------------------||
|-----------------------------2-------|-(2)------------------------------||
|--------------------4--------0-------|-(0)--------2----------(2)--------||
|--4-----------------2----------------|------------0----------(0)--2--4--||
|--2--2--2--2--2--2-------------------|----------------------------0--2--||


   Bridge I
    (A5)
    Gtrs I, II
      PM      PM--|   PM      PM--|     PM      PM--|   PM      PM--|
    E S S +S  S S S E S S +S  S S S   E S S +S  S S S E S S +S  S S S
||----------------------------------|---------------------------------|
||o---------------------------------|---------------------------------|
||----------------------------------|---------------------------------|
||----------------------------------|---------------------------------|
||o-7---7-(7)-------8---8-(8)-------|-5---5-(5)-------7---7-(7)-------|
||----5-------5-5-5---5-------5-5-5-|---5-------5-5-5---5-------5-5-5-|


             1.
  G5   D5     A5 G5    C5    D5 Bb5
  H    H      E. S +E  E +S  E. E E
|-----------|--------------------------||
|-----------|-------------------------o||
|------7----|----------5-(5)-7--3-3----||
|-5----7----|-7--5-(5)-5-(5)-7--3-3----||
|-5----5----|-7--5-(5)-3-(3)-5--1-1---o||
|-3---------|-5--3-(3)-----------------||


  2.
  F5              F#5
  Gtr III
  W                E  S  S  E  S  S  E  S  S  S  S  E
|--------------||---------------------------------------|
|--------------||-------------------12-12-14------------|
|--------------||-11-11-13-14-13-11----------14-13------|
|--------------||----------------------------------14---|
|--------------||---------------------------------------|
|--------------||---------------------------------------|
|
| Gtr I
| H    E E E E     E  S  S  E  S  S  E  S  S  S  S  E
|--------------||---------------------------------------|
|--------------||---------------------------------------|
|--------------||--------------------4--4--6------------|
|-3----2-0-----||--4--4--6--7--6--4-----------7--6------|
|-3--------3-2-||-----------------------------------7---|
|-1------------||---------------------------------------|
|
|                 Gtr II
|                     PM---------------------------------
| W                E  S  S  E  S  S  E  S  S  E     S S
|--------------||---------------------------------------|
|--------------||---------------------------------------|
|--------------||---------------------------------------|
|--------------||---------------------------------------|
|--------------||--4------------------------------------|
|--------------||--2--2--2--2--2--2--2--2--2--2-----2-2-|


                          E5 F#5
   E  S  S  S  S  S  S  E  E  Q
|---------------------------------|
|---------------------------------|
|-11-11-13-14-14-13-11-13----11---|
|-------------------------14------|
|---------------------------------|
|---------------------------------|
|
|  E  S  S  S  S  S  S  E  E  Q
|---------------------------------|
|---------------------------------|
|---------------------------------|
|--4--4--6--7--7--6--4--6-----4---|
|--------------------------7------|
|---------------------------------|
|
|----------------------|
|  E  S  S  E     S  S  E  E  Q
|---------------------------------|
|---------------------------------|
|---------------------------------|
|---------------------------------|
|--------------------------2--4---|
|--2--2--2--2-----2--2--2--0--2---|


  F#5               B5       D5                   A5              E5 F#5
   E  S  S  E  S  S  E  S  S  S  S  E    E   S  S  S  S  S  S  E   E  Q
|-------------------------------------|----------------------------------|
|-------------------12-12-14----------|----------------------------------|
|-11-11-13-14-13-11----------14-13----|-11--11-13-14-14-13-11-13-----11--|
|----------------------------------14-|---------------------------14-----|
|-------------------------------------|----------------------------------|
|-------------------------------------|----------------------------------|
|
|  E  S  S  E  S  S  E  S  S  S  S  E    E   S  S  S  S  S  S  E   E  Q
|-------------------------------------|----------------------------------|
|-------------------------------------|----------------------------------|
|--------------------4--4--6----------|----------------------------------|
|--4--4--6--7--6--4-----------7--6----|--4---4--6--7--7--6--4--6------4--|
|-----------------------------------7-|----------------------------7-----|
|-------------------------------------|----------------------------------|
|
|     PM---------|
|  E  S  S  E  S  S  Q        Q         +Q         Q          +E   E  Q
|-------------------------------------|----------------------------------|
|-------------------------------------|----------------------------------|
|-----------------------------2-------|-(2)------------------------------|
|--------------------4--------0-------|-(0)--------2----------(2)--------|
|--4-----------------2----------------|------------0----------(0)--2--4--|
|--2--2--2--2--2--2-------------------|----------------------------0--2--|


   E  S  S  E  S  S  E  S  S  S  S  E
|----------------------------------------|
|-------------------12-12-14-------------|
|-11-11-13-14-13-11----------14-13-------|
|----------------------------------14----|
|----------------------------------------|
|----------------------------------------|
|
|  E  S  S  E  S  S  E  S  S  S  S  E
|----------------------------------------|
|----------------------------------------|
|--------------------4--4--6-------------|
|--4--4--6--7--6--4-----------7--6--2----|
|----------------------------------------|
|----------------------------------------|
|
|     PM------------------------------|
|  E  S  S  E  S  S  E  S  S  E     S S
|----------------------------------------|
|----------------------------------------|
|----------------------------------------|
|----------------------------------------|
|--4-------------------------------------|
|--2--2--2--2--2--2--2--2--2--2-----2-2--|


                          E5 F#5                     B5       D5
   E  S  S  S  S  S  S  E  E  Q     E  S  S  E  S  S  E  S  S  S  S  E
|--------------------------------|-------------------------------------|
|--------------------------------|-------------------12-12-14----------|
|-11-11-13-14-14-13-11-13----11--|-11-11-13-14-13-11----------14-13----|
|-------------------------14-----|----------------------------------14-|
|--------------------------------|-------------------------------------|
|--------------------------------|-------------------------------------|
|
|  E  S  S  S  S  S  S  E  E  Q     E  S  S  E  S  S  E  S  S  S  S  E
|--------------------------------|-------------------------------------|
|--------------------------------|-------------------------------------|
|--------------------------------|--------------------4--4--6----------|
|--4--4--6--7--7--6--4--6--2--4--|--4--4--6--7--6--4-----------7--6--2-|
|--------------------------------|-------------------------------------|
|--------------------------------|-------------------------------------|
|
|  PM------------------|               PM---------|
|  E  S  S  E     S  S  E  E  Q     E  S  S  E  S  S  Q        Q
|--------------------------------|-------------------------------------|
|--------------------------------|-------------------------------------|
|--------------------------------|-----------------------------2-------|
|--------------------------------|--------------------4--------0-------|
|--------------------------2--4--|--4-----------------2----------------|
|--2--2--2--2-----2--2--2--0--2--|--2--2--2--2--2--2-------------------|


            A5              E5 F#5
   E   S  S  S  S  S  S  E   E  Q
|----------------------------------|
|----------------------------------|
|-11--11-13-14-14-13-11-13-----11--|
|---------------------------14-----|
|----------------------------------|
|----------------------------------|
|
|  E   S  S  S  S  S  S  E   E  Q
|----------------------------------|
|----------------------------------|
|----------------------------------|
|--4---4--6--7--7--6--4--6---2--4--|
|----------------------------------|
|----------------------------------|
|
| +Q         Q          +E   E  Q
|----------------------------------|
|----------------------------------|
|-(2)------------------------------|
|-(0)--------2----------(2)--------|
|------------0----------(0)--2--4--|
|----------------------------0--2--|


   Bridge II
    (A5)
    Gtrs I, II
      PM      PM--|   PM      PM--|     PM      PM--|   PM      PM--|
    E S S +S  S S S E S S +S  S S S   E S S +S  S S S E S S +S  S S S
||----------------------------------|---------------------------------|
||o---------------------------------|---------------------------------|
||----------------------------------|---------------------------------|
||----------------------------------|---------------------------------|
||o-7---7-(7)-------8---8-(8)-------|-5---5-(5)-------7---7-(7)-------|
||----5-------5-5-5---5-------5-5-5-|---5-------5-5-5---5-------5-5-5-|


             1.
  G5   D5     A5 G5    C5    D5 Bb5
  H    H      E. S +E  E +S  E. E E
|-----------|--------------------------||
|-----------|-------------------------o||
|------7----|----------5-(5)-7--3-3----||
|-5----7----|-7--5-(5)-5-(5)-7--3-3----||
|-5----5----|-7--5-(5)-3-(3)-5--1-1---o||
|-3---------|-5--3-(3)-----------------||


  2.
  F5
  H    E E E E   E E E E E E E E
|--------------|-----------------||
|--------------|-----------------||
|--------------|-----------------||
|-3----2-0-----|-2-0-----2-0-----||
|-3--------3-2-|-----3-2-----3-2-||
|-1------------|-----------------||


  (F)
  PM------------------------------------------|
  E S S E E E S S E E   E S S E S S S S E S S E
|---------------------|-------------------------|
|---------------------|-------------------------|
|---------------------|-------------------------|
|---------------------|-------------------------|
|---------------------|-1-----------------------|
|-0-0-0-1-0-0-0-0-1-3-|---0-0-1-0---0-0-0-0-0-0-|


  PM----------------|     PM--------|           PM-
  E S S E E E S S E E   E S S E E S S S S S S S S
|---------------------|---------------------------|
|---------------------|---------------------------|
|---------------------|---------------------------|
|---------------------|---------------2-3-2-------|
|---------------------|-1-------------------3-2---|
|-0-0-0-1-0-0-0-0-1-3-|---0-0-1-0-0-0-----------1-|


 -------------------|     PM------------------|
  E S S E E E S S E E   E S S E S S S S E S S E
|---------------------|---------------------------|
|---------------------|---------------------------|
|---------------------|---------------------------|
|---------------------|---------------------------|
|---------------------|-1-------------------------|
|-0-0-0-1-0-0-0-0-1-3-|---0-0-1-0---0-0-0-0-0-0---|


                                                    A5         Bb5        A5
  PM----------------|     PM------|           PM
  E S S E E E S S E E   E E E E S S S S S S S S     W          W          W
|---------------------|-------------------------||-----------|----------|------|
|---------------------|-------------------------||o----------|----------|------|
|---------------------|-------------------------||--2--------|-3--------|-2----|
|---------------------|-------------2-3-2-------||--2--------|-3--------|-2----|
|---------------------|-1-----------------3-2---||o-0--------|-1--------|-0----|
|-0-0-0-1-0-0-0-0-1-3-|---0-1-0-0-0-----------1-||-----------|----------|------|


  E5         A5         Bb5        F5         C5
  W          W          W          W          W
|----------|----------|----------|----------|-------||
|----------|----------|----------|----------|------o||
|----------|-2--------|-3--------|----------|-5-----||
|-2--------|-2--------|-3--------|-3--------|-5-----||
|-2--------|-0--------|-1--------|-3--------|-3----o||
|-0--------|----------|----------|-1--------|-------||


  N.C.
  PM----------------|     PM---------------------
  E S S E E E S S E E   E S S E S S S S E S S E
|---------------------|-------------------------|
|---------------------|-------------------------|
|---------------------|-------------------------|
|---------------------|-------------------------|
|---------------------|-1-----------------------|
|-0-0-0-1-0-0-0-0-1-3-|---0-0-1-0---0-0-0-0-0-0-|


 -------------------|     PM--------|           PM
  E S S E E E S S E E   E S S E E S S S S S S S S
|---------------------|-----------------------------|
|---------------------|-----------------------------|
|---------------------|-----------------------------|
|---------------------|---------------2-3-2---------|
|---------------------|-1-------------------3-2-----|
|-0-0-0-1-0-0-0-0-1-3-|---0-0-1-0-0-0-----------1---|


  PM----------------|     PM-------------------
  E S S E E E S S E E   E E E S S E S S E S S
|---------------------|-----------------------|
|---------------------|-----------------------|
|---------------------|-----------------------|
|---------------------|-----------------------|
|---------------------|-1---------------------|
|-0-0-0-1-0-0-0-0-1-0-|---0-1-0-0-0-0-0-0-0-0-|


 -------------------|     PM------|           PM
  E S S E E E S S E E   E E E E S S S S S S S S
|---------------------|--------------------------|
|---------------------|--------------------------|
|---------------------|--------------------------|
|---------------------|-------------2-3-2--------|
|---------------------|-1-----------------3-2----|
|-0-0-0-1-0-0-0-0-1-0-|---0-1-0-0-0-----------1--|


    (A5)                            G5
    PM--|     PM--|       PM--|
    S S E E E S S E E E   S S E E E H
||----------------------|----------------|
||o---------------------|----------------|
||----------------------|----------------|
||--------2-3-------5-3-|-------2-3-5----|
||o-0-0-0-----0-0-0-----|-0-0-0-----5----|
||----------------------|-----------3----|


  (A5)
  PM--|     PM--|       PM--|     PM--------|
  S S E E E S S E E E   S S E E E S S e S S e
|---------------------|------------------------||
|---------------------|-----------------------o||
|---------------------|------------------------||
|-------2-3-------5-3-|-------2-3--------------||
|-0-0-0-----0-0-0-----|-0-0-0-----------------o||
|---------------------|-----------3-3-3-3-3-3--||


             3rd Verse
              D#5
                PM|   PM|   PM|   PM|
  W           E S S E S S E S S E S S
|----------||-------------------------|
|----------||-------------------------|
|----------||-------------------------|
|----------||-8-----8-----8-----8-----|
|----------||-6-6-6-6-6-6-6-6-6-6-6-6-|
|----------||-------------------------|


              C#5    D#5
    PM|   PM|          PM|   PM|   PM|   PM|
  E S S E S S H      E S S E S S E S S E S S
|------------------|---------------------------|
|------------------|---------------------------|
|-------------6----|---------------------------|
|-8-----8-----6----|-8-----8-----8-----8-------|
|-6-6-6-6-6-6-4----|-6-6-6-6-6-6-6-6-6-6-6-6---|
|------------------|---------------------------|


              C#5    F#5
    PM|   PM|          PM|   PM|   PM|   PM|
  E S S E S S H      E S S E S S E S S E S S
|------------------|-------------------------|
|------------------|-------------------------|
|-------------6----|-------------------------|
|-8-----8-----6----|-------------------------|
|-6-6-6-6-6-6-4----|-4-----4-----4-----4-----|
|------------------|-2-2-2-2-2-2-2-2-2-2-2-2-|


              E5     F#5
    PM|   PM|          PM|   PM|   PM|   PM|
  E S S E S S H      E S S E S S E S S E S S
|------------------|-------------------------|
|------------------|-------------------------|
|------------------|-------------------------|
|-------------2----|-------------------------|
|-4-----4-----2----|-4-----4-----4-----4-----|
|-2-2-2-2-2-2-0----|-2-2-2-2-2-2-2-2-2-2-2-2-|


              E5     D#5
    PM|   PM|          PM|   PM|   PM|   PM|
  E S S E S S H      E S S E S S E S S E S S
|------------------|-------------------------|
|------------------|-------------------------|
|------------------|-------------------------|
|-------------2----|-8-----8-----8-----8-----|
|-4-----4-----2----|-6-6-6-6-6-6-6-6-6-6-6-6-|
|-2-2-2-2-2-2-0----|-------------------------|


              C#5    D#5
    PM|   PM|          PM|   PM|   PM|   PM|
  E S S E S S H      E S S E S S E S S E S S
|------------------|-------------------------|
|------------------|-------------------------|
|------------------|-------------------------|
|-8-----8-----6----|-8-----8-----8-----8-----|
|-6-6-6-6-6-6-4----|-6-6-6-6-6-6-6-6-6-6-6-6-|
|------------------|-------------------------|


                                Outro
              C#5                A5
    PM|   PM|                      PM|   PM|   PM|   PM|
  E S S E S S H      W           E S S E S S E S S E S S
|------------------|----------||-------------------------|
|------------------|----------||-------------------------|
|------------------|----------||-------------------------|
|-8-----8-----6----|----------||-2-----2-----2-----2-----|
|-6-6-6-6-6-6-4----|----------||-0-0-0-0-0-0-0-0-0-0-0-0-|
|------------------|----------||-------------------------|


              G5     A5
    PM|   PM|          PM|   PM|   PM|   PM|
  E S S E S S H      E S S E S S E S S E S S
|------------------|----------------------------|
|------------------|----------------------------|
|------------------|----------------------------|
|-2-----2----------|-2-----2-----2-----2--------|
|-0-0-0-0-0-0-5----|-0-0-0-0-0-0-0-0-0-0-0-0----|
|-------------3----|----------------------------|


              G5     F5         D5         A5
    PM|   PM|                                PM|   PM|   PM|   PM|
  E S S E S S H      W          W          E S S E S S E S S E S S
|------------------|----------|----------|-------------------------|
|------------------|----------|----------|-------------------------|
|------------------|----------|----------|-------------------------|
|-2-----2----------|----------|-7--------|-2-----2-----2-----2-----|
|-0-0-0-0-0-0-5----|-3--------|-5--------|-0-0-0-0-0-0-0-0-0-0-0-0-|
|-------------3----|-1--------|----------|-------------------------|


              G5     A5                                    G5     F5
    PM|   PM|          PM|   PM|   PM|   PM|     PM|   PM|
  E S S E S S H      E S S E S S E S S E S S   E S S E S S H      W
|------------------|-------------------------|------------------|------|
|------------------|-------------------------|------------------|------|
|------------------|-------------------------|------------------|------|
|-2-----2----------|-2-----2-----2-----2-----|-2-----2----------|------|
|-0-0-0-0-0-0-5----|-0-0-0-0-0-0-0-0-0-0-0-0-|-0-0-0-0-0-0-5----|-3----|
|-------------3----|-------------------------|-------------3----|-1----|


  D5                                           G5        A5
             PM--|     PM--|       PM--|       PM|
  W          S S E E E S S E E E   S S E E E E S S E E   E E Q  H
|----------|---------------------|---------------------|-------------*|
|----------|---------------------|---------------------|-------------*|
|----------|---------------------|---------------------|-------------*|
|-7--------|-------2-3-------5-3-|-------2-3-----------|-------------*|
|-5--------|-0-0-0-----0-0-0-----|-0-0-0-------5-5-5-5-|-7-----------*|
|----------|---------------------|-------------3-3-3-3-|-5-----------*|



Duration Legend
---------------
W - whole; H - half; Q - quarter; E - 8th; S - 16th; T - 32nd; X - 64th; a - acciaccatura
+ - note tied to previous; . - note dotted; .. - note double dotted
Uncapitalized letters represent notes that are staccato (1/2 duration)
Irregular groupings are notated above the duration line
Duration letters will always appear directly above the note/fret number it represents the
duration for.  Duration letters with no fret number below them represent rests.  Multi-
bar rests are notated in the form Wxn, where n is the number of bars to rest for.  Low
melody durations appear below the staff

Tablature Legend
----------------
 h   - hammer-on
 p   - pull-off
 b   - bend
 pb  - pre-bend
 r   - bend release (if no number after the r, then release immediately)
 /\  - slide into or out of (from/to "nowhere")
 s   - legato slide
 S   - shift slide
 - natural harmonic
[n]  - artificial harmonic
n(n) - tapped harmonic
 ~   - vibrato
 tr  - trill
 T   - tap
 TP  - trem. picking
 PM  - palm muting
\n/  - tremolo bar dip; n = amount to dip
 \n  - tremolo bar down
 n/  - tremolo bar up
/n\  - tremolo bar inverted dip
 =   - hold bend; also acts as connecting device for hammers/pulls
 <> - volume swell (louder/softer)
 x   - on rhythm slash represents muted slash
 o   - on rhythm slash represents single note slash

Misc Legend
-----------
 |  - bar
||  - double bar
||o - repeat start
o|| - repeat end
*|  - double bar (ending)
 :  - bar (freetime)
 $  - Segno
 &  - Coda
Tempo markers -  = BPM(8/16=s8/s16), where s8 = swing 8ths, s16 = swing 16ths

comments
We did not receive enough feedback on this tab! Please rate:
print report bad tab
1 2 3 4 5
I want to post or [tab]
guest
You may want to rate the tab now too:
select rating
Please do not post tabs as comments. Select "correction" instead!