Oops, an error
Loading. Please wait.

Gethsemane Tab

ver2
ver2

Whole song

Interactive

More versions @911Tabs.com
2,348 views 1 this week
no commentswrite comment
1 2 3 4 5
please rate
Autoscroll
+/-
esc
set tempo
stop
Contributor
Hey! There's an official Ultimate Guitar app which is ideal
for learning songs when you're away from computer. Get the app
WARNING: You are trying to view
                                    content from Ultimate-Guitar.com
                                    in an unauthorized application,
                                    which is prohibited.

                                    Please use an official Ultimate
                                    Guitar Tabs application for iPhone,
                                    iPad or Android to access legitimate
                                    chords, guitar, bass, and drum tabs
                                    from Ultimate-Guitar.com database.

                                    Type "ultimate guitar tabs" in Apple
                                    App Store's or Android Market's
                                    search to find the application.
#----------------------------------PLEASE NOTE---------------------------------#
#This file is the author's own work and represents their interpretation of the #
#song. You may only use this file for private study, scholarship, or research. #
#------------------------------------------------------------------------------#

GETHSEMANE
As recorded by Nightwish
(From the 1998 Album OCEANBORN)

Transcribed by Erik Dietrich
	

Words and Music by Tuomas Holopainen

F5
1 3 3 x x x
	
G5
3 5 5 x x x

Gtr I (E A D G B E) - 'Distortion Left'
Gtr II (E A D G B E) - 'Piano'
Gtr III (E A D G B E) - 'Distortion Center'
Gtr IV (E A D G B E) - 'Strings'
Gtr V (E A D G B E) - 'Flute'
Gtr VI (B E A D G B E) - 'Strings (7 String)'

 Intro
  $
  (Em)
 4/4
  Gtr I
   S  S  S  S  S E.    S  S  S  S  S E.
|---------------------------------12------|
|-------------------------8-12--8---------|
|--------------9-------9------------------|
|-----5--9--5-----------------------------|
|--7--------------------------------------|
|-----------------------------------------|
|
| Gtr II
|  S  S  S  S  Q       S  S  S  S  Q
|---------------------------------24------|
|------------------------20-24-20---------|
|-------------21------21------------------|
|----17-21-17-----------------------------|
|-19--------------------------------------|
|-----------------------------------------|
|
| Gtr III
|  PM---------|        PM---------|
|  S  S  S  S  e    E  S  S  S  S  e    E
|-----------------------------------------|
|-----------------------------------------|
|-----------------------------------------|
|-----------------------------------------|
|--2--2--2--2--2-------2--2--2--2--2------|
|--0--0--0--0--0-------0--0--0--0--0------|


   S  S  S  S  S  S  S  S  S  S  S  S  S  S  S  S
|--------------------------------------------------|
|----12-10-12--8-12--7-12----12-10-12--8-12--7-12--|
|--9-----------------------9-----------------------|
|--------------------------------------------------|
|--------------------------------------------------|
|--------------------------------------------------|
|
|  S  S  S  S  S  S  S  S  S  S  S  S  S  S  S  S
|--------------------------------------------------|
|----24-22-24-20-24-19-24----24-22-24-20-24-19-24--|
|-21----------------------21-----------------------|
|--------------------------------------------------|
|--------------------------------------------------|
|--------------------------------------------------|
|
|  PM------------------------------------------|
|  S  S  S  S  S  S  S  S  S  S  S  S  S  S  S  S
|--------------------------------------------------|
|--------------------------------------------------|
|--------------------------------------------------|
|--------------------------------------------------|
|--2--2--2--2--2--2--2--2--2--2--2--2--2--2--2--2--|
|--0--0--0--0--0--0--0--0--0--0--0--0--0--0--0--0--|


  (C)
   E  S  S  S  S  E  S  S  S  S  E  S  S
|--------------------------------8-------|
|--------------------------8-------------|
|-----------------5-----9-----9----------|
|-----------5-------10-------------------|
|--------7-----7-----------------------7-|
|--8--8-----------------------------8----|
|
|  E  S  S  S  S  E  S  S  S  S  E  S  S
|-------------------------------20-------|
|-------------------------20-------------|
|----------------17----21----21----------|
|----------17-------22-------------------|
|-------19----19----------------------19-|
|-20-20----------------------------20----|
|
|  W
|----------------------------------------|
|----------------------------------------|
|----------------------------------------|
|--5-------------------------------------|
|--3-------------------------------------|
|--3-------------------------------------|


                           (D5)
   S   S  S  S  S  S  S  S  S  S  S  S  S  S  S  S
|--------------------------------------------------|
|--------------------------------------------------|
|--------------------------------------------------|
|-----10--9--7-----7--------------7-----9--7-------|
|-10-----------10----10--7--9-10-----9-------10--9-|
|--------------------------------------------------|
|
|  S   S  S  S  S  S  S  S  S  S  S  S  S  S  S  S
|--------------------------------------------------|
|--------------------------------------------------|
|--------------------------------------------------|
|-----22-21-19-17-19-17----------19----21-19-------|
|-22--------------------19-21-22----21-------22-21-|
|--------------------------------------------------|
|
| +Q.                 E     H
|--------------------------------------------------|
|--------------------------------------------------|
|--------------------------------------------------|
|-(5)-----------------5s====7----------------------|
|-(3)-----------------3s====5----------------------|
|-(3)----------------------------------------------|


  (B)
      PM---------------------------------------|
   S  S  S  S  S  S  S  S  S  S  S  S  S  S  S  S
|-------------------------------------------------|
|-------------------------------------------------|
|-------------------------------------------------|
|-------------------------------------------------|
|--9--9--9--9--9--9--9--9--9--9--9--9--9--9--9--9-|
|--7--7--7--7--7--7--7--7--7--7--7--7--7--7--7--7-|
|
|  S  S  S  S  S  S  S  S  S  S  S  S  S  S  S  S
|-------------19----------------------19----------|
|-------19-------19----19-------19-------19----19-|
|----20----20-------20-------20----20-------20----|
|-21----------------------21----------------------|
|-------------------------------------------------|
|-------------------------------------------------|
|
|     PM---------------------------------------|
|  S  S  S  S  S  S  S  S  S  S  S  S  S  S  S  S
|-------------------------------------------------|
|-------------------------------------------------|
|-------------------------------------------------|
|--4--4--4--4--4--4--4--4--4--4--4--4--4--4--4--4-|
|--2--2--2--2--2--2--2--2--2--2--2--2--2--2--2--2-|
|-------------------------------------------------|


   Q          +E       E     H
|-------------------------------------------------|
|-------------------------------------------------|
|-------------------------------------------------|
|-------------------------------------------------|
|--9----------(9)\--------------------------------|
|--7----------(7)\--------------------------------|
|
|  S  S  S  S  S    S  S  S  S  S  S  S  S  S S S
|-17-19-17-15-14---15-14-12-11-12-11--------------|
|------------------------------------13-12-10-8-7-|
|-------------------------------------------------|
|-------------------------------------------------|
|-------------------------------------------------|
|-------------------------------------------------|
|
|  Q          +E       E     H
|-------------------------------------------------|
|-------------------------------------------------|
|-------------------------------------------------|
|--4----------(4)\--------------------------------|
|--2----------(2)\--------------------------------|
|-------------------------------------------------|


  (Em)
   S  S  S  S  S E.    S  S  S  S  S E.
|---------------------------------12------|
|-------------------------8-12--8---------|
|--------------9-------9------------------|
|-----5--9--5-----------------------------|
|--7--------------------------------------|
|-----------------------------------------|
|
|  S  S  S  S  Q       S  S  S  S  Q
|---------------------------------24------|
|------------------------20-24-20---------|
|-------------21------21------------------|
|----17-21-17-----------------------------|
|-19--------------------------------------|
|-----------------------------------------|
|
|  PM---------|        PM---------|
|  S  S  S  S  e    E  S  S  S  S  e    E
|-----------------------------------------|
|-----------------------------------------|
|-----------------------------------------|
|-----------------------------------------|
|--2--2--2--2--2-------2--2--2--2--2------|
|--0--0--0--0--0-------0--0--0--0--0------|


                             (D5(E5)
      T     T     T     T        ~~~~~~~~~
   S  S  S  S  S  S  S  S  e  e  E.. +T
|-----------------------------------------|
|----12p10h12p=8h12p=7h12-----------------|
|--9-----------------------9--8-[9]--(9)\-|
|-----------------------------------------|
|-----------------------------------------|
|-----------------------------------------|
|
|  S  S  S  S  S  S  S  S  e  e  Q
|-----------------------------------------|
|----24-22-24-20-24-19-24-17-16-17--------|
|-21--------------------------------------|
|-----------------------------------------|
|-----------------------------------------|
|-----------------------------------------|
|
|  PM---------------------|
|  S  S  S  S  S  S  S  S  e  e  Q
|-----------------------------------------|
|-----------------------------------------|
|-----------------------------------------|
|-----------------------------7--9\-------|
|--2--2--2--2--2--2--2--2--2--5--7\-------|
|--0--0--0--0--0--0--0--0--0--------------|


  (C)
   E  S  S  S  S  E  S  S  S  S  E  S  S
|--------------------------------8-------|
|--------------------------8-------------|
|-----------------5-----9-----9----------|
|-----------5-------10-------------------|
|--------7-----7-----------------------7-|
|--8--8-----------------------------8----|
|
|  E  S  S  S  S  E  S  S  S  S  E  S  S
|-------------------------------20-------|
|-------------------------20-------------|
|----------------17----21----21----------|
|----------17-------22-------------------|
|-------19----19----------------------19-|
|-20-20----------------------------20----|
|
|  W
|----------------------------------------|
|----------------------------------------|
|----------------------------------------|
|--5-------------------------------------|
|--3-------------------------------------|
|--3-------------------------------------|


                           (D5)
   S   S  S  S  S  S  S  S  S  S  S  S  S  S  S  S
|--------------------------------------------------|
|--------------------------------------------------|
|--------------------------------------------------|
|-----10--9--7-----7--------------7-----9--7-------|
|-10-----------10----10--7--9-10-----9-------10--9-|
|--------------------------------------------------|
|
|  S   S  S  S  S  S  S  S  S  S  S  S  S  S  S  S
|--------------------------------------------------|
|--------------------------------------------------|
|--------------------------------------------------|
|-----22-21-19-17-19-17----------19----21-19-------|
|-22--------------------19-21-22----21-------22-21-|
|--------------------------------------------------|
|
| +Q.                 E     H
|--------------------------------------------------|
|--------------------------------------------------|
|--------------------------------------------------|
|-(5)-----------------5s====7----------------------|
|-(3)-----------------3s====5----------------------|
|-(3)----------------------------------------------|


                                           To Coda
  (B)
      PM---------------------------------------|
   S  S  S  S  S  S  S  S  S  S  S  S  S  S  S  S
|-------------------------------------------------|
|-------------------------------------------------|
|-------------------------------------------------|
|-------------------------------------------------|
|--9--9--9--9--9--9--9--9--9--9--9--9--9--9--9--9-|
|--7--7--7--7--7--7--7--7--7--7--7--7--7--7--7--7-|
|
|  S  S  S  S  S  S  S  S  S  S  S  S  S  S  S  S
|-------------19----------------------19----------|
|-------19-------19----19-------19-------19----19-|
|----20----20-------20-------20----20-------20----|
|-21----------------------21----------------------|
|-------------------------------------------------|
|-------------------------------------------------|
|
|     PM---------------------------------------|
|  S  S  S  S  S  S  S  S  S  S  S  S  S  S  S  S
|-------------------------------------------------|
|-------------------------------------------------|
|-------------------------------------------------|
|--4--4--4--4--4--4--4--4--4--4--4--4--4--4--4--4-|
|--2--2--2--2--2--2--2--2--2--2--2--2--2--2--2--2-|
|-------------------------------------------------|


                                (A5)  (G5)  (F#5)
   Q           Q           E     E     E    E
|-----------------------------------------------|
|-----------------------------------------------|
|-----------------------------------------------|
|-----------------------------------------------|
|--9-----------------------9-----7-----5----4---|
|--7-----------------------7-----5-----3----2---|
|
|  S  S  S  S  S  S  S  S  S  S  S  S  S  S S S
|-17-19-17-15-14-15-14-12-11-12-11--------------|
|----------------------------------13-12-10-8-7-|
|-----------------------------------------------|
|-----------------------------------------------|
|-----------------------------------------------|
|-----------------------------------------------|
|
|  Q           Q           E     E     E    E
|-----------------------------------------------|
|-----------------------------------------------|
|-----------------------------------------------|
|--4-----------------------4-----2--------------|
|--2-----------------------2-----0-----5----4---|
|--------------------------------------3----2---|


 Verse
  $$
  (Em)                  (Esus2)           (B5)(Am7)
  Gtr III
        PM------------------------------|
  Q     E E S S E E E   E S S E E S S E E E
|---------------------|---------------------|
|---------------------|---------------------|
|---------------------|---------------------|
|---------------------|-------------------4-|
|-2-----2-2-2-2-2-2-2-|---2-2-2-2-2-2-2-2-2-|
|-0-----0-0-0-0-0-0-0-|---0-0-0-0-0-0-0-0---|
|
| Gtr IV
| E S S E E S S E E E   E S S E E S S E E E
|---3-3-3-3-3-3-3-3-3-|---2-2-2-2-2-2-2-2-2-|
|---5-5-5-5-5-5-5-5-5-|---5-5-5-5-5-5-5-5-5-|
|---4-4-4-4-4-4-4-4-4-|---4-4-4-4-4-4-4-4-4-|
|---5-5-5-5-5-5-5-5-5-|---4-4-4-4-4-4-4-4-4-|
|---7-7-7-7-7-7-7-7-7-|---7-7-7-7-7-7-7-7-7-|
|---------------------|---------------------|


                      (B5)(C5)       (D)
        PM------------|
                  |-3-|
  Q     E E S S E E E E   Q  +E  S S Q  E E
|-----------------------|--------------------|
|-----------------------|--------------------|
|-----------------------|--------------------|
|-2-----2-2-2-2-2-2-2-4-|--------------------|
|-0-----0-0-0-0-0-0-0-2-|-3--(3)-2-3-5--3-5--|
|-----------------------|--------------------|
|
|                 |-3-|
| E S S E E E   E E E E   Q   Q      Q  Q
|---5-5-5-5-5---5-5-5-5-|--------------------|
|-----------------------|-8---8------7--7----|
|---5-5-5-5-5---5-5-5-2-|--------------------|
|---5-5-5-5-5---5-5-5---|-5---5------4--4----|
|---3-3-3-3-3---3-3-3---|--------------------|
|-----------------------|--------------------|


    (Em)                  (Esus2)
    ~         PM--------------------------|
    Q     Q   S S E E E   E S S E E S S E E E
||----------------------|---------------------|
||o---------------------|---------------------|
||----------------------|---------------------|
||--2-------------------|-------------------4-|
||o-----------2-2-2-2-2-|---2-2-2-2-2-2-2-2-2-|
||--------0---0-0-0-0-0-|---0-0-0-0-0-0-0-0---|
|
|   E S S E E S S E E E   E S S E E S S E E E
||----3-3-3-3-3-3-3-3-3-|---2-2-2-2-2-2-2-2-2-|
||o---5-5-5-5-5-5-5-5-5-|---5-5-5-5-5-5-5-5-5-|
||----4-4-4-4-4-4-4-4-4-|---4-4-4-4-4-4-4-4-4-|
||----5-5-5-5-5-5-5-5-5-|---4-4-4-4-4-4-4-4-4-|
||o---7-7-7-7-7-7-7-7-7-|---7-7-7-7-7-7-7-7-7-|
||----------------------|---------------------|


  (Am7)                 (C5)       (D)
        PM----------|
  Q     E E S S E E E   Q  +E  S S Q  E E
|---------------------|---------------------||
|---------------------|--------------------o||
|---------------------|---------------------||
|-2-----2-2-2-2-2-2-4-|---------------------||
|-0-----0-0-0-0-0-0-2-|-3--(3)-2-3-5--3-5--o||
|---------------------|---------------------||
|
| E S S E E E   E E E   Q   Q      Q  Q
|---5-5-5-5-5---5-5-5-|---------------------||
|---------------------|-8---8------7--7----o||
|---5-5-5-5-5---5-5-5-|---------------------||
|---5-5-5-5-5---5-5-5-|-5---5------4--4-----||
|---3-3-3-3-3---3-3-3-|--------------------o||
|---------------------|---------------------||


  (Em)                  (Esus2)           (B5)(Am7)
  ~         PM------|     PM------------|
  Q     Q   S S E E E   E S S E E S S E E E
|---------------------|---------------------|
|---------------------|---------------------|
|---------------------|---------------------|
|-2-------------------|-------------------4-|
|-----------2-2-2-2-2-|---2-2-2-2-2-2-2-2-2-|
|-------0---0-0-0-0-0-|---0-0-0-0-0-0-0-0---|
|
| E S S E E S S E E E   E S S E E S S E E E
|---3-3-3-3-3-3-3-3-3-|---2-2-2-2-2-2-2-2-2-|
|---5-5-5-5-5-5-5-5-5-|---5-5-5-5-5-5-5-5-5-|
|---4-4-4-4-4-4-4-4-4-|---4-4-4-4-4-4-4-4-4-|
|---5-5-5-5-5-5-5-5-5-|---4-4-4-4-4-4-4-4-4-|
|---7-7-7-7-7-7-7-7-7-|---7-7-7-7-7-7-7-7-7-|
|---------------------|---------------------|


                        (C5)       (D)
        PM----------|
  Q     E E S S E E E   Q  +E  S S Q  E E
|---------------------|---------------------|
|---------------------|---------------------|
|---------------------|---------------------|
|-2-----2-2-2-2-2-2-4-|---------------------|
|-0-----0-0-0-0-0-0-2-|-3--(3)-2-3-5--5-3---|
|---------------------|---------------------|
|
| E S S E E E   E E E   Q   Q      Q  Q
|---5-5-5-5-5---5-5-5-|---------------------|
|---------------------|-8---8------7--7-----|
|---5-5-5-5-5---5-5-5-|---------------------|
|---5-5-5-5-5---5-5-5-|-5---5------4--4-----|
|---3-3-3-3-3---3-3-3-|---------------------|
|---------------------|---------------------|


 Chorus
  (C)                                                           (G5)
  Gtr III
   W                                    +H.                      Q
|-------------------------------------|-------------------------------|
|-------------------------------------|-------------------------------|
|-------------------------------------|-------------------------------|
|--5----------------------------------|-(5)---------------------------|
|--3----------------------------------|-(3)----------------------5----|
|-------------------------------------|--------------------------3----|
|
| Gtr II
|  e  S  S  e  S  S  e  S  S  e  S  S    e   S  S  e  S  S E  E  E  E
|----12-------------------------------|-------------------------------|
|-13----13----13----------------------|-------------------------------|
|----------12----12----12-------------|-------------------------------|
|-------------------14----14----14----|----------------------------10-|
|----------------------------15----15-|-----15------------------10----|
|-------------------------------------|-15-----15-12-15-12-8-12-------|


  (Em)
   W                                    +W
|-------------------------------------|--------------------------------|
|-------------------------------------|--------------------------------|
|-------------------------------------|--------------------------------|
|--2----------------------------------|-(2)----------------------------|
|--2----------------------------------|-(2)----------------------------|
|--0----------------------------------|-(0)----------------------------|
|
|  e  S  S  e  S  S  e  S  S  e  S  S    e   S  S  e  S  S  E  E  E  E
|----15-------------------------------|--------------------------------|
|-17----17----17----------------------|--------------------------------|
|----------16----16----16-------------|--------------------------------|
|-------------------17----17----17----|-----------------------------14-|
|----------------------------19----19-|-----19-------------------14----|
|-------------------------------------|-19-----19-15-19-15-12-15-------|


  (D)                                   (Am)
   W                                     Q.           E     S S  S  S  E  E
|-------------------------------------|----------------------------------------|
|-------------------------------------|----------------------------------------|
|-------------------------------------|----------------------------------------|
|--7----------------------------------|----------------------------------------|
|--5----------------------------------|--7------------7-----7-7--7--7--7--7----|
|-------------------------------------|--5------------5-----5-5--5--5--5--5----|
|
|  e  S  S  e  S  S  e  S  S  e  S  S    e   S  S  e  S  S  e    S  S  e  S  S
|----17-------------------------------|-----15---------------------------------|
|-19----19----19----------------------|-17-----17----17------------------------|
|----------19----19----19-------------|-----------17----17------17-------------|
|-------------------19----19----19----|--------------------17------17----17----|
|----------------------------21----21-|-------------------------------19----19-|
|-------------------------------------|----------------------------------------|


                                  To Dbl. Coda
  (Em)
        PM-------------------------------------
   S S  S  S  S S  S  S  S S  S  S  S S  S  S
|---------------------------------------------|
|---------------------------------------------|
|---------------------------------------------|
|--7S9--9--9--9-9--9--9--9-9--9--9--9-9--9--9-|
|--5S7--7--7--7-7--7--7--7-7--7--7--7-7--7--7-|
|---------------------------------------------|
|
|  e    S  S  e    S  S  e    S  S  e    S  S
|------15-------------------------------------|
|-17------17------17--------------------------|
|------------16------16------16---------------|
|-----------------------17------17------17----|
|----------------------------------19------19-|
|---------------------------------------------|


                             D.S. al Coda
                                      (D5)
 -----------------------------------|
                         |----6-----|
   S S  S  S  S S  S  S  S S S  S S S  Q
|-----------------------------------------|
|-----------------------------------------|
|-----------------------------------------|
|--9-9--9--9--9-9--9--9--9-9-9--9-9-9--7--|
|--7-7--7--7--7-7--7--7--7-7-7--7-7-7--5--|
|-----------------------------------------|
|
|  e    S  S  e    S  S  E      E      Q
|-----------------------------------------|
|-----------------------------------------|
|-----------------------------------------|
|-----------------------------------------|
|------19-----------------------------14--|
|-19------19-15---19-15-12-----15---------|


  &                          D.S.S. al Dbl. Coda
                                                &&
  B5                            A5    G5    F#5
  Gtr I
                     PM-----------------------|
   Q           E     S  S  S  S  S  S  S  S S S
|-----------------------------------------------||
|-----------------------------------------------||
|-----------------------------------------------||
|-----------------------------------------------||
|--9-----------------9--9--9--9--7--7--5--5-4-4-||
|--7-----------------7--7--7--7--5--5--3--3-2-2-||
|
| Gtr II
|  S  S  S  S  S  S  S  S  S  S  S  S  S  S S S
|-17-19-17-15-14-15-14-12-11-12-11--------------||
|----------------------------------13-12-10-8-7-||
|-----------------------------------------------||
|-----------------------------------------------||
|-----------------------------------------------||
|-----------------------------------------------||
|
| Gtr III
|                    PM---------------------------
|  Q           E     S  S  S  S  S  S  S  S S S
|-----------------------------------------------||
|-----------------------------------------------||
|-----------------------------------------------||
|--4--------------------------------------------||
|--2-----------------9--9--9--9--7--7--5--5-4-4-||
|--------------------7--7--7--7--5--5--3--3-2-2-||


  E5                                  D5
   W
|----------------------------------------|
|----------------------------------------|
|----------------------------------------|
|----------------------------------------|
|----------------------------------------|
|----------------------------------------|
|
|  e    S  S  e    S  S  E      E     Q
|----------------------------------------|
|----------------------------------------|
|----------------------------------------|
|----------------------------------------|
|------19--------------------------------|
|-19------19-15---19-15-12-----15--------|
|
|-----------------------------------|
|                        |----6-----|
|  S S  S  S  S S  S  S  S S S  S S S Q
|----------------------------------------|
|----------------------------------------|
|----------------------------------------|
|--9-9--9--9--9-9--9--9--9-9-9--9-9-9-7--|
|--7-7--7--7--7-7--7--7--7-7-7--7-7-7-5--|
|----------------------------------------|


   Bridge I
    N.C.
    Gtr III
      PM|   PM|   PM----|         PM|   PM|
    E S S E S S E S S S S S S   E S S E S S S S S S S S S S
||----------------------------|-----------------------------|
||o---------------------------|-----------------------------|
||----------------------------|-----------------------------|
||------------------------4p3-|-----------------------------|
||o-4-4-4-4-4-4-4-4-4-4-5-----|-4-4-4-4-4-4-4h5p4---4-------|
||----------------------------|-------------------7---7-5-4-|


                             1.                           2.
                                G#5    A5       C5 B5       G#5    G5    D5/A
  Gtr III
    PM|   PM|   PM----|                 PM---|                     PM--|
  E S S E S S E S S S S S S   E e S e.  S  E  S  E  E     E e S e. S E S Q
|---------------------------|--------------------------||--------------------|
|---------------------------|-------------------------o||--------------------|
|---------------------------|--------------------------||--------------------|
|-----------------------4p3-|--------------------5--4--||--------------------|
|-4-4-4-4-4-4-4-4-4-4-5-----|---6---6---7--7--7--3--2-o||---6---6--5-5-5-5---|
|---------------------------|---4---4---5--5--5--------||---4---4--3-3-3-5---|
|
| Gtr IV
| W                           E e S e.  S  E  S  E  E     E e S e. S E S Q
|---------------------------|--------------------------||--------------------|
|---------------------------|---9---9--10-10-10-13-12-o||---9---9--8-8-8-----|
|---------------------------|--------------------------||----------------7---|
|---------------------------|---6---6---7--7--7-10--9--||---6---6--5-5-5-----|
|---------------------------|-------------------------o||----------------5---|
|---------------------------|--------------------------||--------------------|


   Flute Solo
    C#5                                                B5
    Gtr III
      PM|   PM|   PM|   PM|      PM|     PM|   PM------| ~~
    E S S E S S E S S E S S   E  S S  E  S S E S   S   S E.
||--------------------------|-------------------------------|
||o-------------------------|-------------------------------|
||--------------------------|-------------------------------|
||--6-----6-----6-----6-----|-6-------6------6-----------4--|
||o-4-4-4-4-4-4-4-4-4-4-4-4-|-4--4-4--4--4-4-4-4---4---2-2--|
||--------------------------|-------------------------------|
|
|   Gtr V
|                             ~~
|                                              |--3--|
|   E S S E E   E S S e E     E.   S  e  e   e S S   S S E.
||--------------------------|-------------------------------|
||o---------------------7---|-9----9-10-10---7--------------|
||----6-8-9-------6-8-9-----|------------------8h9p==8---8--|
||--------------------------|--------------------------9----|
||o-------------------------|-------------------------------|
||--------------------------|-------------------------------|


  C#5                         E5             B5
          PM|    PM|    PM|                     PM|
  Q     E S S E  S S E  S S   Q.         S S E  S S  E  E
|---------------------------|------------------------------||
|---------------------------|-----------------------------o||
|---------------------------|------------------------------||
|-6-----6-----6------6------|-2--------------4-------4-----||
|-4-----4-4-4-4--4-4-4--4-4-|-2--------------2--2-2--2--3-o||
|---------------------------|-0----------0-0---------------||
|
| E S S e E   e  E   E  E     Q.         E   E  E    E  E
|---------------------------|-7----------------------------||
|---------7---9-10---9-10---|------------9---7------------o||
|-6-6-8-9-------------------|-------------------9----8-----||
|---------------------------|---------------------------9--||
|---------------------------|-----------------------------o||
|---------------------------|------------------------------||
|
| Gtr IV
| W                           E.  S  +E  E   E.   S +E  E
|---------------------------|------------------------------||
|---------------------------|-9--10-(10)-9----------------o||
|---------------------------|----------------8----9-(9)----||
|---------------------------|-6---7--(7)-6--------------9--||
|---------------------------|----------------6----7-(7)---o||
|---------------------------|---------------------------7--||


   Bridge II
    N.C.
    Gtr III
      PM|   PM|   PM----|         PM|   PM|
    E S S E S S E S S S S S S   E S S E S S S S S S S S S S
||----------------------------|-----------------------------|
||o---------------------------|-----------------------------|
||----------------------------|-----------------------------|
||------------------------4p3-|-----------------------------|
||o-4-4-4-4-4-4-4-4-4-4-5-----|-4-4-4-4-4-4-4h5p4---4-------|
||----------------------------|-------------------7---7-5-4-|


                             1.                           2.
                                G#5    A5       C5 B5       G#5    G5    D5/A
  Gtr III
    PM|   PM|   PM----|                 PM---|                     PM--|
  E S S E S S E S S S S S S   E e S e.  S  E  S  E  E     E e S e. S E S Q
|---------------------------|--------------------------||---------------------|
|---------------------------|-------------------------o||---------------------|
|---------------------------|--------------------------||---------------------|
|-----------------------4p3-|--------------------5--4--||---------------------|
|-4-4-4-4-4-4-4-4-4-4-5-----|---6---6---7--7--7--3--2-o||---6---6--5-5-5-5\---|
|---------------------------|---4---4---5--5--5--------||---4---4--3-3-3-5\---|
|
| Gtr IV
| W                           E e S e.  S  E  S  E  E     E e S e. S E S Q
|---------------------------|--------------------------||---------------------|
|---------------------------|---9---9--10-10-10-13-12-o||---9---9--8-8-8------|
|---------------------------|--------------------------||----------------7----|
|---------------------------|---6---6---7--7--7-10--9--||---6---6--5-5-5------|
|---------------------------|-------------------------o||----------------5----|
|---------------------------|--------------------------||---------------------|


 String Break
  (C)
  Gtr IV
   e  S  S e  S S e S S e S S
|-----------------------8---8-|
|-----------------8---8---8---|
|----------9----9---9---------|
|-10----10---10---------------|
|----10-----------------------|
|-----------------------------|
|
| Gtr VI
|  W
|-----------------------------|
|-----------------------------|
|-----------------------------|
|-----------------------------|
|-----------------------------|
|-----------------------------|
|--1--------------------------|
   W


   S   S  S  S  S  S  S  S  S  S  S  S  S  S  S  S
|-20--19-17----------------------------------------|
|-----------20-19-17-------12h13----13----13----13-|
|--------------------19-17-------14----12----11----|
|--------------------------------------------------|
|--------------------------------------------------|
|--------------------------------------------------|
|
|  S   S  S  S  S  S  S  S  E     E     E     E
|--------------------------------------------------|
|-----13-12-10-------------------------------------|
|--------------12-11--9----------------------------|
|-10--------------------12-12----10-----9----------|
|--------------------------------------------12----|
|--------------------------------------------------|
|-(1)----------------------------------------------|
  +W


  (Em)
   |--3--|      |--3--|                  |--3---|      |--3--|
   S  S  S e e  S  S  S e  s  s  e  e    S   S  S e e  S  S  S e e  Q
|-------------------------------------|--------------------------------|
|-------------------------12-12-12-10-|--------------------------------|
|-11h12p11p9---11h12p11p9--7--7--7--7-|-11h=12p11p9---11h12p11p9---11--|
|------------9------------------------|-------------9------------9-12--|
|-------------------------------------|----------------------------12--|
|-------------------------------------|--------------------------------|
|
|  W                                    +W
|-------------------------------------|--------------------------------|
|-------------------------------------|--------------------------------|
|-------------------------------------|--------------------------------|
|-------------------------------------|--------------------------------|
|-------------------------------------|--------------------------------|
|--0----------------------------------|-(0)----------------------------|
|-------------------------------------|--------------------------------|


  (C)
   e  S  S e  S S e S S e S S
|-----------------------8---8-|
|-----------------8---8---8---|
|----------9----9---9---------|
|-10----10---10---------------|
|----10-----------------------|
|-----------------------------|
|
|  W
|-----------------------------|
|-----------------------------|
|-----------------------------|
|-----------------------------|
|-----------------------------|
|-----------------------------|
|--1--------------------------|


   S   S  S  S  S  S  S  S  S  S  S  S  S  S  S  S
|-20--19-17----------------------------------------|
|-----------20-19-17-------12h13----13----13----13-|
|--------------------19-17-------14----12----11----|
|--------------------------------------------------|
|--------------------------------------------------|
|--------------------------------------------------|
|
| +W
|--------------------------------------------------|
|--------------------------------------------------|
|--------------------------------------------------|
|--------------------------------------------------|
|--------------------------------------------------|
|--------------------------------------------------|
|-(1)----------------------------------------------|


  (Em)
   |--3--|      |--3--|                  |--3---|      |--3--|
   S  S  S e e  S  S  S e  s  s  e  e    S   S  S e e  S  S  S e e  Q
|-------------------------------------|--------------------------------|
|-------------------------12-12-12-10-|--------------------------------|
|-11h12p11p9---11h12p11p9--7--7--7--7-|-11h=12p11p9---11h12p11p9---11--|
|------------9------------------------|-------------9------------9-12--|
|-------------------------------------|----------------------------12--|
|-------------------------------------|--------------------------------|
|
|  W                                    +W
|-------------------------------------|--------------------------------|
|-------------------------------------|--------------------------------|
|-------------------------------------|--------------------------------|
|-------------------------------------|--------------------------------|
|-------------------------------------|--------------------------------|
|--0----------------------------------|-(0)----------------------------|
|-------------------------------------|--------------------------------|


  (Em)
  Gtr III
   W                                    +W
|-------------------------------------|-------------------------------|
|-------------------------------------|-------------------------------|
|-------------------------------------|-------------------------------|
|--2----------------------------------|-(2)---------------------------|
|--2----------------------------------|-(2)---------------------------|
|--0----------------------------------|-(0)---------------------------|
|
| Gtr IV
|  |--3--|      |--3--|                  |--3--|      |--3--|
|  S  S  S e e  S  S  S e  s  s  e  e    S  S  S e e  S  S  S e e  Q
|-------------------------------------|-------------------------------|
|-------------------------12-12-12-10-|-------------------------------|
|-11h12p11p9---11h12p11p9--7--7--7--7-|-11h12p11p9---11h12p11p9---11--|
|------------9------------------------|------------9------------9-12--|
|-------------------------------------|---------------------------12--|
|-------------------------------------|-------------------------------|


  (Em)
             PM-------------------------|              PM--------------------|
   Q         E  E       S S  E     E  S S    Q         E  E       S S E  E S S
|-----------------------------------------|------------------------------------|
|-----------------------------------------|------------------------------------|
|-----------------------------------------|------------------------------------|
|--2--------------------------------------|--2---------------------------------|
|--2--------------------------------------|--2---------------------------------|
|--0---------0--0-------0-0--0-----0--0-0-|--0---------0--0-------0-0-0--0-0-0-|
|
|  |--3--|      |--3--|                      |--3--|      |--3--|
|  S  S  S e e  S  S  S e    s  s  e  e      S  S  S e e  S  S  S e   e  Q
|-----------------------------------------|------------------------------------|
|---------------------------12-12-12-10---|------------------------------------|
|-11h12p11p9---11h12p11p9----7--7--7--7---|-11h12p11p9---11h12p11p9-----11-----|
|------------9----------------------------|------------9--------------9-12-----|
|-----------------------------------------|-----------------------------12-----|
|-----------------------------------------|------------------------------------|


  (Em)                                                              (D)
             PM-------------------------|              PM---------|
                                                          |--3--|
   Q         E  E       S S  E     E  S S    Q         E  S  S  S e  E E  E
|-----------------------------------------|----------------------------------|
|-----------------------------------------|----------------------------------|
|-----------------------------------------|----------------------------------|
|--2--------------------------------------|--2-------------------------------|
|--2--------------------------------------|--2-----------------------5----5--|
|--0---------0--0-------0-0--0-----0--0-0-|--0---------0--0--0--0-0----------|
|
|  |--3--|      |--3--|                      |--3--|      |--3--|
|  S  S  S e e  S  S  S e    s  s  e  e      S  S  S e e  S  S  S e  q    E
|-----------------------------------------|----------------------------------|
|---------------------------12-12-12-10---|----------------------------------|
|-11h12p11p9---11h12p11p9----7--7--7--7---|-11h12p11p9---11h12p11p9-11---11--|
|------------9----------------------------|------------9------------12---12--|
|-----------------------------------------|-------------------------12---12--|
|-----------------------------------------|----------------------------------|


 Chorus
  (C)
      PM|     PM|   PM|   PM|
   E  S  S E  S S E S S E S S
|-----------------------------|
|-----------------------------|
|-----------------------------|
|--5-------5------5-----5-----|
|--3--3--3-3--3-3-3-3-3-3-3-3-|
|-----------------------------|
|
|  e  S  S e  S S e S S e S S
|-----------------------8---8-|
|-----------------8---8---8---|
|----------9----9---9---------|
|-10----10---10---------------|
|----10-----------------------|
|-----------------------------|


                                         (D)
         PM|         PM------------|
   E     S  S  E     S  S  S  S  S  S  S  E.
|--------------------------------------------------|
|--------------------------------------------------|
|--------------------------------------------------|
|--5-----------5-----------------------5--7--------|
|--3-----3--3--3-----3--3--3--3--3--3--3--5--------|
|--------------------------------------------------|
|
|  S  S  S  S  S  S  S  S  S  S  S  S  S  S   S  S
|-20-19-17-----------------------------------------|
|----------20-19-17-------12h13----13----13-----13-|
|-------------------19-17-------14----12-----11----|
|--------------------------------------------------|
|--------------------------------------------------|
|--------------------------------------------------|


  Em
   H                    S S  S  S  Q
|---------------------------------------|
|---------------------------------------|
|---------------------------------------|
|--9--------------------7s9--9--7s=9----|
|--7--------------------5s7--7--5s=7----|
|---------------------------------------|
|
|  |--3--|      |--3--|
|  S  S  S e e  S  S  S e    s  s  e  e
|---------------------------------------|
|---------------------------12-12-12-10-|
|-11h12p11p9---11h12p11p9----7--7--7--7-|
|------------9--------------------------|
|---------------------------------------|
|---------------------------------------|


                PM---|
                          |-3-| |-3-|  |-3-|
   Q.           S    S    S S S S S S  S S S E
|-----------------------------------------------|
|-----------------------------------------------|
|-------------------------5p4p2-----------------|
|--9----------------------------5p4p2--5p4p2h4--|
|--7------------7----7--------------------------|
|-----------------------------------------------|
|
|  |--3--|      |---3---|
|  S  S  S e e  S  S    S e     e      Q
|-----------------------------------------------|
|-----------------------------------------------|
|-11h12p11p9---11h12p==11p9-----------11--------|
|------------9------------------9-----12--------|
|-------------------------------------12--------|
|-----------------------------------------------|


  (C)             (F#m)
                  ~
   H              H
|-----------------------------|
|-----------------------------|
|-----------------------------|
|-----------------4-----------|
|--3--------------------------|
|-----------------------------|
|
|  e  S  S e  S S e S S e S S
|-----------------------8---8-|
|-----------------8---8---8---|
|----------9----9---9---------|
|-10----10---10---------------|
|----10-----------------------|
|-----------------------------|


  (G)
   H                      +Q.                E
|-------------------------------------------------|
|-------------------------------------------------|
|-------------------------------------------------|
|--5----------------------(5)---------------10----|
|-------------------------------------------------|
|-------------------------------------------------|
|
|  S  S  S  S  S  S  S  S  S  S  S  S  S  S  S  S
|-20-19-17----------------------------------------|
|----------20-19-17-------12h13----13----13----13-|
|-------------------19-17-------14----12----11----|
|-------------------------------------------------|
|-------------------------------------------------|
|-------------------------------------------------|


  (Em)
                                              PM|
   H     S  E     S  Q     Q.                 S  S  S    S     S  S  S  S  S S
|-----------------------|------------------------------------------------------|
|-----------------------|------------------------------------------------------|
|-----------------------|---------------------------5----4-----2---------------|
|--9-----7s=9-----7s=9--|--9--------------------------------------5--4--2--0-4-|
|--7-----5s=7-----5s=7--|--7------------------7--7-----------------------------|
|-----------------------|------------------------------------------------------|
|
|                    ~~
|                                                   |---3---|
|  H     S  S  S  S  Q     S   S  S  S  S  S  S  S  S  S    S  S  S  S  S  E
|-----------------------|-19--20-19-17-19-------17-19-20---17----17------------|
|-------------------12--|-----------------19-20---------------20----19-20-17---|
|-12-------12----12-----|------------------------------------------------------|
|-14----14----14--------|------------------------------------------------------|
|-----------------------|------------------------------------------------------|
|-----------------------|------------------------------------------------------|


  (D)                                   (Am)
   W                                     W
|-------------------------------------|-------------------------------------|
|-------------------------------------|-------------------------------------|
|-------------------------------------|-------------------------------------|
|--7----------------------------------|-------------------------------------|
|--5----------------------------------|--7----------------------------------|
|-------------------------------------|--5----------------------------------|
|
|  e  S  S  e  S  S  e  S  S  e  S  S    e  S  S  e  S  S  e  S  S  e  S  S
|----17-------------------------------|----15-------------------------------|
|-19----19----19----------------------|-17----17----17----------------------|
|----------19----19----19-------------|----------17----17----17-------------|
|-------------------19----19----19----|-------------------17----17----17----|
|----------------------------21----21-|----------------------------19----19-|
|-------------------------------------|-------------------------------------|


        PM-------------------------------------
   S S  S  S  S S  S  S  S S  S  S  S S  S  S
|---------------------------------------------|
|---------------------------------------------|
|---------------------------------------------|
|--7S9--9--9--9-9--9--9--9-9--9--9--9-9--9--9-|
|--5S7--7--7--7-7--7--7--7-7--7--7--7-7--7--7-|
|---------------------------------------------|
|
|  e    S  S  e    S  S  e    S  S  e    S  S
|------15-------------------------------------|
|-17------17------17--------------------------|
|------------16------16------16---------------|
|-----------------------17------17------17----|
|----------------------------------19------19-|
|---------------------------------------------|


 -----------------------------------|
                         |----6-----|
   S S  S  S  S S  S  S  S S S  S S S  Q
|-----------------------------------------|
|-----------------------------------------|
|-----------------------------------------|
|--9-9--9--9--9-9--9--9--9-9-9--9-9-9--7--|
|--7-7--7--7--7-7--7--7--7-7-7--7-7-7--5--|
|-----------------------------------------|
|
|  e    S  S  e    S  S  E      E      Q
|-----------------------------------------|
|-----------------------------------------|
|-----------------------------------------|
|-----------------------------------------|
|------19-----------------------------14--|
|-19------19-15---19-15-12-----15---------|


 String Break
  N.C.(Em)
  Q     +Q       H             W
|----------------------------|-----------------------|
|----------------------------|-----------------------|
|----------------------------|-----------------------|
|-9-----(9)\-----------------|-----------------------|
|-7-----(7)\-----------------|-----------------------|
|-7-----(7)\-----------------|-----------------------|
|
| e S S  e   S S e S S e S S   e S S e S S e S S e e
|----------------------------|-----------------------|
|----------------------------|-----------------------|
|----------------------------|-----------------------|
|-2-2-2--2---2-2-2-2-2-2-2-2-|-2-2-2-2-2-2-2-2-2-5-4-|
|----------------------------|-------------------3-5-|
|----------------------------|-----------------------|


  Gtr VI
   E  S  S  E  S  S  E  S  S  E  S  S    E  S  S  E  S  S  E  S  S  E  S  S
|-------------------------------------|-------------------------------------|
|-------------------------------------|-------------------------------------|
|-16p12----16p12----16p12----16p12----|-16p12----16p12----16p12----16p12----|
|-------14-------14-------14-------14-|-------14-------14-------14-------14-|
|-------------------------------------|-------------------------------------|
|-------------------------------------|-------------------------------------|
|-------------------------------------|-------------------------------------|
|
|  e  S  S  e  S  S  e  S  S  e  S  S    e  S  S  e  S  S  e  S  S  e  e
|-------------------------------------|-------------------------------------|
|-------------------------------------|-------------------------------------|
|-------------------------------------|-------------------------------------|
|--2--2--2--2--2--2--2--2--2--2--2--2-|--2--2--2--2--2--2--2--2--2--2--5----|
|-------------------------------------|-------------------------------------|
|-------------------------------------|-------------------------------------|


  N.C.(C)
   E  S  S  E  S  S  E  S  S  E  S  S    E  S  S  E  S  S  E  S  S  E  S  S
|-------------------------------------|-------------------------------------|
|-13-------13-------13-------13-------|-13-------13-------13-------13-------|
|----12-------12-------12-------12----|----12-------12-------12-------12----|
|-------14-------14-------14-------14-|-------14-------14-------14-------14-|
|-------------------------------------|-------------------------------------|
|-------------------------------------|-------------------------------------|
|-------------------------------------|-------------------------------------|
|
|  e  S  S  e  S  S  e  S  S  e  S  S    e  S  S  e  S  S  e  e     e  e
|-------------------------------------|-------------------------------------|
|-------------------------------------|-------------------------------------|
|--5--5--5--5--5--5--5--5--5--5--5--5-|--5--5--5--5--5--5--5--7-----9--5----|
|-------------------------------------|-------------------------------------|
|--3--3--3--3--3--3--3--3--3--3--3--3-|--3--3--3--3--3--3--3--5-----7--3----|
|-------------------------------------|-------------------------------------|


  N.C.(D)
   E  S  S  E  S  S  E  S  S  E  S  S    E  S  S  E  S  S  E  S  S  e  e
|-------------------------------------|----------------------------------|
|-------------------------------------|----------------------------------|
|-14p11----14p11----14p11----14p11----|-14p11----14p11----14p11----14-14-|
|-------12-------12-------12-------12-|-------12-------12-------12-------|
|-------------------------------------|----------------------------------|
|-------------------------------------|----------------------------------|
|-------------------------------------|----------------------------------|
|
|  e  S  S  e  S  S  e  S  S  e  S  S    e  S  S  e  S  S  e  S  S  e  e
|-------------------------------------|----------------------------------|
|-------------------------------------|----------------------------------|
|--7--7--7--7--7--7--7--7--7--7--7--7-|--7--7--7--7--7--7--7--7--7--7--7-|
|-------------------------------------|----------------------------------|
|--5--5--5--5--5--5--5--5--5--5--5--5-|--5--5--5--5--5--5--5--5--5--5--5-|
|-------------------------------------|----------------------------------|


  N.C.(Em)                               D
  Gtr III
  W                         H.           Q
|-------------------------|-----------------|
|-------------------------|-----------------|
|-------------------------|-----------------|
|-------------------------|--------------7--|
|-------------------------|--------------5--|
|-------------------------|--------------5--|
|
| Gtr IV
| e S S e S S e S S e S S   e  e e e e E Q
|-------------------------|-----------------|
|-------------------------|----------5---7--|
|-------------------------|-4--4-4-4-----7--|
|-------------5-5-5-5-5-5-|--------------7--|
|-------------------------|--------------5--|
|-0-0-0-0-0-0-0-0-0-0-0-0-|-0--0-0-0-0------|


  (Em)                                          (B5)
  PM----------------------------------------------|
  E S S E S S E S S E S S   E S S E S S E S S E S S
|-------------------------|-------------------------|
|-------------------------|-------------------------|
|-------------------------|-------------------------|
|-------------------------|---------------------4-4-|
|-2-2-2-2-2-2-2-2-2-2-2-2-|-2-2-2-2-2-2-2-2-2-2-2-2-|
|-0-0-0-0-0-0-0-0-0-0-0-0-|-0-0-0-0-0-0-0-0-0-0-----|
|
| E S S e e   E S S e e     E S S e e   E S S e e
|---7-7-7-5-----8-8-8-5---|---7-7-7-5-----8-8-8-5---|
|---5-5-5-5-----5-5-5-5---|---5-5-5-5-----5-5-5-5---|
|-------------------------|-------------------------|
|-------------------------|-------------------------|
|-------------------------|-------------------------|
|-------------------------|-------------------------|


 Chorus
  (C)
        PM---------------------------------|
  Q     E S S E  S  S  E S S   E S S E S S E E E E
|----------------------------|---------------------|
|----------------------------|---------------------|
|----------------------------|---------------------|
|-5-----5-5-5-5--5--5--5-5-5-|-5-5-5-5-5-5-5-------|
|-3-----3-3-3-3--3--3--3-3-3-|-3-3-3-3-3-3-3-0-2-3-|
|----------------------------|---------------------|
|
| E S S e e   E  S  S  e e     E S S e e   E E E E
|----------------------------|---------------------|
|---8-8-8-7-----10-10-10-7---|---8-8-8-7-----------|
|---5-5-5-5------5--5--5-5---|---5-5-5-5-----2-4-5-|
|----------------------------|---------------------|
|----------------------------|---------------------|
|----------------------------|---------------------|


  (D)
    PM--------------------------------------------|
  E S S E S S E S S E S S   E S S E S S E S S E S S
|-------------------------|-------------------------|
|-------------------------|-------------------------|
|-------------------------|-------------------------|
|-7-7-7-7-7-7-7-7-7-7-7-7-|-7-7-7-7-7-7-7-7-7-7-7-7-|
|-5-5-5-5-5-5-5-5-5-5-5-5-|-5-5-5-5-5-5-5-5-5-5-5-5-|
|-------------------------|-------------------------|
|
| E S S e e   E S S e e     E S S e e   E S S e e
|-------------------------|-------------------------|
|---8-8-8-7-----5-5-5-7---|---8-8-8-7-----5-5-5-7---|
|---7-7-7-7-----7-7-7-7---|---7-7-7-7-----7-7-7-7---|
|---7-7-7-7-----7-7-7-7---|---7-7-7-7-----7-7-7-7---|
|-------------------------|-------------------------|
|-------------------------|-------------------------|


  (Am)
  E. S +E  E H       E.  S  +E   E  H
|-----------------|----------------------|
|-----------------|----------------------|
|-----------------|----------------------|
|-----------------|----------------------|
|-7--7-(7)-7-7----|--7---7--(7)--7--7----|
|-5--5-(5)-5-5----|--5---5--(5)--5--5----|
|
| E. S +E  E H       E.  S  +E   E  H
|-----------------|-----------------8----|
|-5--5-(5)-5-5----|-10--10-(10)-10-10----|
|-5--5-(5)-5-5----|--9---9--(9)--9--9----|
|-7--7-(7)-7-7----|----------------------|
|-----------------|----------------------|
|-----------------|----------------------|


  (Em)
  PM----------------------------------------------------|
  E S S E S S E  S  S  E S S   E S S E S S E  S  S  E S S
|----------------------------|----------------------------|
|----------------------------|----------------------------|
|----------------------------|----------------------------|
|----------------------------|----------------------------|
|-2-2-2-2-2-2-2--2--2--2-2-2-|-2-2-2-2-2-2-2--2--2--2-2-2-|
|-0-0-0-0-0-0-0--0--0--0-0-0-|-0-0-0-0-0-0-0--0--0--0-----|
|
| E S S e e   E  S  S  e e     E S S e e   E  S  S  e e
|---7-7-7-5------8--8--8-5---|---7-7-7-5------8--8--8-5---|
|---8-8-8-7-----10-10-10-7---|---8-8-8-7-----10-10-10-7---|
|----------------------------|----------------------------|
|----------------------------|----------------------------|
|----------------------------|----------------------------|
|----------------------------|----------------------------|


  (C)
  Gtr I
   H          H               H         +Q     Q
|--------------------------|-----------------------|
|--------------------------|-----------------------|
|--------------------------|-----------------------|
|--------------------------|-----------------------|
|-/3---------/5------------|-/7---------(7)\-------|
|--------------------------|-----------------------|
|
| Gtr III
|  H          H               H         +Q     Q
|--------------------------|-----------------------|
|--------------------------|-----------------------|
|--------------------------|-----------------------|
|-/2---------/4------------|-/5---------(5)\-------|
|--------------------------|-----------------------|
|--------------------------|-----------------------|
|
| Gtr VI
|  E S S e e  E  S  S  e e    E S S e e  E   E E E
|--------------------------|-----------------------|
|----8-8-8-7----10-10-10-7-|----8-8-8-7------------|
|----5-5-5-5-----5--5--5-5-|----5-5-5-5------2-4-5-|
|--------------------------|-----------------------|
|--3----------3------------|--3---------(3)--0-2-3-|
|--------------------------|-----------------------|
|--------------------------|-----------------------|
   H          H               H         +E   E E E


  (G)
  W                         W
|------------------------|---------------------------|
|------------------------|---------------------------|
|------------------------|---------------------------|
|------------------------|---------------------------|
|------------------------|---------------------------|
|------------------------|---------------------------|
|
| q     q   e.   s +e  e    e.   s +E  e H
|------------------------|---------------------------|
|------------------------|---------------------------|
|-2-----4---5----4-(4)-2-|--2----4-(4)-2-------------|
|------------------------|---------------4-----------|
|------------------------|---------------5-----------|
|------------------------|---------------------------|
|
| E S S e e E  S S  e  e    E  S S  e  e E S S e e
|------------------------|---------------------------|
|---8-8-8-7----5-5--5--7-|-----8-8--8--7---5-5-5-7---|
|---7-7-7-7----7-7--7--7-|-----7-7--7--7---7-7-7-7---|
|---7-7-7-7----7-7--7--7-|-----7-7--7--7---7-7-7-7---|
|------------------------|---------------------------|
|------------------------|---------------------------|
|-3----------------------|-(3)-----------------------|
  W                        +W


  G5                    (Am)
  Gtr III
  W                     W
|---------------------|--------------------|
|---------------------|--------------------|
|---------------------|--------------------|
|---------------------|--------------------|
|-5-------------------|-7------------------|
|-3-------------------|-5------------------|
|
| Gtr IV
| E S S e e E S S e e   E S S e e e e e  e
|---7-7-7-7---7-7-7-7-|---8-8-8-8-8-8-7----|
|---------------------|-----------------10-|
|---7-7-7-7---7-7-7-7-|---9-9-9-9-9-9-9--9-|
|---------------------|--------------------|
|---------------------|--------------------|
|---------------------|--------------------|


 Guitar Solo
  (Gm)
  Gtr I
   Q          +H.                    +H             +Q.         S  S
|---------------------------------|----------------------------------|
|---------------------------------|----------------------------------|
|---------------------------------|----------------------------------|
|-10b12======(10)-----------------|-(10)-----------(10)r-------12-13-|
|---------------------------------|----------------------------------|
|---------------------------------|----------------------------------|
|
| Gtr VI
|  e     S S   e  S S e S S e S S     e  S S e S S   e   S S e  S  S
|---------------------------------|----------------------------------|
|--8-----8-8---8--8-8-8-8-8-8-8-8-|---8--8-8-8-8-8---8---8-8-8--8--8-|
|--7-----7-7---7--7-7-7-7-7-7-7-7-|---7--7-7-7-7-7---7---7-7-7--7--7-|
|---------------------------------|----------------------------------|
|---------------------------------|----------------------------------|
|--3------------------------------|--(3)-----------------------------|
|---------------------------------|----------------------------------|
   W                                 +W


  (Eb)
    ~~~~             ~~~~
    Q.        S  S   Q.        S  S    Q.        S  S  S  S  S  S  S  S  S  S
|-----------------------------------|------------------------------------------|
|-----------------------------------|------------------------------------------|
|-----------------------------------|-----------------------------------12-14--|
|-/15--------13-12------------12-13-|-15--------13-12----------12-13-15--------|
|------------------/15--------------|--------------------13-15-----------------|
|-----------------------------------|-----------------15-----------------------|
|
|   e  S S e  S  S   e  S S e  S  S    e  S S e  S  S  e     e     e     e
|-----------------------------------|-----------------------------------10-----|
|---8--8-8-8--8--8---8--8-8-8--8--8-|--8--8-8-8--8--8--8-----8----11----11-----|
|---8--8-8-8--8--8---8--8-8-8--8--8-|--8--8-8-8--8--8--8-----8----12-----------|
|-----------------------------------|------------------8-----------------------|
|-----------------------------------|------------------------------------------|
|-----------------------------------|------------------------------------------|
|---4-------------------------------|-(4)--------------------------------------|
    W                                 +W


  (F)
                                  |---3----|
   H.                          E  S  S     S
|--------------------------------------------|
|--------------------------------------------|
|-15--------------------------14h15p14p===12-|
|--------------------------------------------|
|--------------------------------------------|
|--------------------------------------------|
|
|  e   S  S  e  S  S  e  S  S  e  S     S
|--------------------------------------------|
|-11--11-11-11-11-11-11-10-10-10-10----10----|
|-10--10-10-10-10-10-10-10-10-10-10----10----|
|--------------------------------------------|
|--------------------------------------------|
|--1-----------------------------------------|
|--------------------------------------------|
   W


   H.                          E  E
|--------------------------------------|
|--------------------------------------|
|-----------------------------14h15----|
|-15-----------------------------------|
|--------------------------------------|
|--------------------------------------|
|
|  e   S  S  e  S  S  e  S  S  e  S  S
|--------------------------------------|
|--8---8--8--8--8--8-10-10-10-10-10-10-|
|-10--10-10-10-10-10-10-10-10-10-10-10-|
|--------------------------------------|
|--------------------------------------|
|-(1)----------------------------------|
|--------------------------------------|
  +W


  (Gm)
  Gtr I
    H.                         Q
|------------------------------------|
|------------------------------------|
|------------------------------------|
|-/17------------------------/15-----|
|------------------------------------|
|------------------------------------|
|
| Gtr III
|   H.                         Q
|------------------------------------|
|------------------------------------|
|-/15-------------------------14-----|
|------------------------------------|
|------------------------------------|
|------------------------------------|
|
| Gtr VI
|   e   S  S  e  S  S  e S S   e S S
|--10--10-10-10-10-10-10-8-8---8-8-8-|
|---8---8--8--8--8--8--8-8-8---8-8-8-|
|------------------------------------|
|------------------------------------|
|------------------------------------|
|---3--------------------------------|
|------------------------------------|
    W


    W
|----------------------------------------------------------|
|----------------------------------------------------------|
|----------------------------------------------------------|
|----------------------------------------------------------|
|-/17------------------------------------------------------|
|----------------------------------------------------------|
|
|                      |------6-------|  |------6-------|
|   S   S  Q.          S  S  S  S  S  S  S  S  S  S  S  S
|----------------------------------------------------------|
|---------------------------------------13-13--------------|
|--12h=14p12----------14-12-12-12-12-12-------12-12-12-12--|
|----------------------------------------------------------|
|----------------------------------------------------------|
|----------------------------------------------------------|
|
|   e      S  S e S S  e        e        E        e
|---6------6--6-6-6-6--6-------11-----------------8--------|
|---8------8--8-8-8-8--8-------13----------------10--------|
|----------------------------------------------------------|
|----------------------------------------------------------|
|----------------------------------------------------------|
|--(3)-----------------------------------------------------|
|----------------------------------------------------------|
   +W


  (Gm)
  Gtr III
   |-------6--------|  |-------6--------|  |--3--|        |-----3------|
   S  S  S  S  S    S  S  S  S  S  S    S  S  S  S  S  S  E  E    S    S
|------------------------------------------------------------------------|
|------------------------15--------------------------------------13------|
|-15-12-12-12-11---12-12----12-12-11---12-15-12-14-12-14-15-12--------15-|
|------------------------------------------------------------------------|
|------------------------------------------------------------------------|
|------------------------------------------------------------------------|
|
| Gtr VI
|  e        S    S     e        S    S     e        S  S  e    S    S
|------------------------------------------------------------------------|
|--8--------8----8-----8--------8----8-----8--------8--8--8----8----8----|
|--7--------7----7-----7--------7----7-----7--------7--7--7----7----7----|
|------------------------------------------------------------------------|
|------------------------------------------------------------------------|
|--3---------------------------------------------------------------------|
|------------------------------------------------------------------------|
   W


   |--------6--------|  |-------6--------|  |-------5-------|  |-------6--------|
   S   S  S  S  S    S  S  S  S  S  S    S  S  S  S    S    S  S  S  S  S  S    S
|---------------------------------------------------------------------------------|
|-----13-15-16-15---13-16-15-13---------------16-15---13------16-15-13------------|
|-15----------------------------15-14---12-12--------------15----------15-14---11-|
|---------------------------------------------------------------------------------|
|---------------------------------------------------------------------------------|
|---------------------------------------------------------------------------------|
|
|  e         S    S     e        S    S     e       S    S     e        S    S
|---------------------------------------------------------------------------------|
|--8---------8----8-----8--------8----8-----8-------8----8-----8--------8----8----|
|--7---------7----7-----7--------7----7-----7-------7----7-----7--------7----7----|
|---------------------------------------------------------------------------------|
|---------------------------------------------------------------------------------|
|-(3)-----------------------------------------------------------------------------|
|---------------------------------------------------------------------------------|
  +W


  (Eb)
  Gtr I
    W
|-----------------------------------------------|
|-----------------------------------------------|
|-----------------------------------------------|
|-----------------------------------------------|
|-----------------------------------------------|
|-----------------------------------------------|
|
| Gtr III
|   S  S  S  S  S  S  S S S  S  S  S S  T T S S
|-----------------------------------------------|
|-----------------------------------------------|
|-/12-12-11-10h11-11-10-8-8-10-12-10-8-10p8S7---|
|---------------------------------------------8-|
|-----------------------------------------------|
|-----------------------------------------------|
|
| Gtr VI
|   e     S  S  e     S S e     S  S e      S S
|-----------------------------------------------|
|---8-----8--8--8-----8-8-8-----8--8-8------8-8-|
|---8-----8--8--8-----8-8-8-----8--8-8------8-8-|
|-----------------------------------------------|
|-----------------------------------------------|
|-----------------------------------------------|
|---4-------------------------------------------|
    W


   H                  S   S  S  S   S    S  S  S
|------------------------------------------------|
|---------------------------------------13-15-16-|
|---------------------------12-14--15------------|
|-------------------/13--15----------------------|
|------------------------------------------------|
|------------------------------------------------|
|
|  S  S  Q.          +Q            +Q
|------------------------------------------------|
|------------------------------------------------|
|------------------------------------------------|
|------------------------------------------------|
|-10p=8-10----------(10)----------(10)\----------|
|------------------------------------------------|
|
|  e     S  S e S S   e      S  S   e       S  S
|------------------------------------------------|
|--8-----8--8-8-8-8---8------8--8---8-------8--8-|
|--8-----8--8-8-8-8---8------8--8---8-------8--8-|
|------------------------------------------------|
|------------------------------------------------|
|------------------------------------------------|
|-(4)--------------------------------------------|
  +W


  (F)
  Gtr I
                       ~~~
                                                                |------3-------|
    Q.           S  S  Q.           S  S     Q.           S  S  q     Q        Q
|-/13------------------------------------|-/13-----------------------------------------|
|---------------16p15-13-----------15h16-|---------------16p15-13----------------------|
|----------------------------------------|---------------------------15-------14-------|
|----------------------------------------|---------------------------------------------|
|----------------------------------------|---------------------------------------------|
|----------------------------------------|---------------------------------------------|
|
| Gtr VI
|   e   S  S  e  S  S  e   S  S  e  S  S     e   S  S  e  S  S  e  S     S  e     S  S
|----------------------------------------|---------------------------------------------|
|--11--11-11-11-11-11-11--10-10-10-10-10-|---8---8--8--8--8--8-10-10----10-10----10-10-|
|--10--10-10-10-10-10-10--10-10-10-10-10-|--10--10-10-10-10-10-10-10----10-10----10-10-|
|----------------------------------------|---------------------------------------------|
|----------------------------------------|---------------------------------------------|
|---1------------------------------------|--(1)----------------------------------------|
|----------------------------------------|---------------------------------------------|
    W                                       +W


  (Bb)                                   (F)
   H.                          Q          H                 +Q          Q
|--------------------------------------|---------------------------------------|
|--------------------------------------|---------------------------------------|
|-10--------------------------12-------|---------------------------------------|
|--------------------------------------|-12----------------(12)\---------------|
|--------------------------------------|---------------------------------------|
|--------------------------------------|---------------------------------------|
|
|  e   S  S  e  S  S  e  S  S  e  S  S    e  S  S  e  S  S   e    S  S  e  e
|-10--10-10-10-10-10-10-10-10-10-10-11-|---------------------------------------|
|-11--11-11-11-11-11-11-11-11-11-11-11-|-11-11-11-11-11-11--10---10-10-10-10---|
|--------------------------------------|-10-10-10-10-10-10--10---10-10-10-10---|
|--------------------------------------|---------------------------------------|
|--1-----------------------------------|---------------------------------------|
|--------------------------------------|--1------------------------------------|
|--------------------------------------|---------------------------------------|
   W                                      W


 Outro
  (Dm)                                             F5  G5
  Gtr III
   W                                           Q    q    H
                                                    |    |
                                                    /    /

  Gtr I
                        T     T  PM-----------|          ~~~~~~~~~~~~
   S  S  S  S  e  S  S  S  S  e  S  S  S  S    E E  q    Q     +Q
|-------------------------------------------|-------------------------*|
|--------------8--8-11h15p11h20-------------|------13--[15]--([15])\--*|
|--------7-----------------------------7----|-------------------------*|
|--5--8-----8--------------------5--8-----8-|--5----------------------*|
|-------------------------------------------|-------------------------*|
|-------------------------------------------|-------------------------*|
|
| Gtr II                                           Gtr IV
|  S  S  S  S  e  S  S  S  S  e  S  S  S  S    E E  q    H
|-------------15-------22----27-------10----|------13---15------------*|
|-------15----------23----23-------11----11-|-------------------------*|
|----15----15----24-------------12----------|-12---10---12------------*|
|-17----------------------------------------|-------------------------*|
|-------------------------------------------|-------8---10------------*|
|-------------------------------------------|-------------------------*|



Duration Legend
---------------
W - whole; H - half; Q - quarter; E - 8th; S - 16th; T - 32nd; X - 64th; a - acciaccatura
+ - note tied to previous; . - note dotted; .. - note double dotted
Uncapitalized letters represent notes that are staccato (1/2 duration)
Irregular groupings are notated above the duration line
Duration letters will always appear directly above the note/fret number it represents the
duration for.  Duration letters with no fret number below them represent rests.  Multi-
bar rests are notated in the form Wxn, where n is the number of bars to rest for.  Low
melody durations appear below the staff

Tablature Legend
----------------
 h   - hammer-on
 p   - pull-off
 b   - bend
 pb  - pre-bend
 r   - bend release (if no number after the r, then release immediately)
 /\  - slide into or out of (from/to "nowhere")
 s   - legato slide
 S   - shift slide
 - natural harmonic
[n]  - artificial harmonic
n(n) - tapped harmonic
 ~   - vibrato
 tr  - trill
 T   - tap
 TP  - trem. picking
 PM  - palm muting
\n/  - tremolo bar dip; n = amount to dip
 \n  - tremolo bar down
 n/  - tremolo bar up
/n\  - tremolo bar inverted dip
 =   - hold bend; also acts as connecting device for hammers/pulls
 <> - volume swell (louder/softer)
 x   - on rhythm slash represents muted slash
 o   - on rhythm slash represents single note slash

Misc Legend
-----------
 |  - bar
||  - double bar
||o - repeat start
o|| - repeat end
*|  - double bar (ending)
 :  - bar (freetime)
 $  - Segno
 &  - Coda
Tempo markers -  = BPM(8/16=s8/s16), where s8 = swing 8ths, s16 = swing 16ths

comments
We did not receive enough feedback on this tab! Please rate:
print report bad tab
1 2 3 4 5
I want to post or [tab]
guest
You may want to rate the tab now too:
select rating
Please do not post tabs as comments. Select "correction" instead!