Oops, an error
Loading. Please wait.

Storytime Tab

ver3
ver3

Whole song

Interactive

Video

More versions @911Tabs.com
794 views 3 this week
1 commentread comment
1 2 3 4 5
please rate
Autoscroll
+/-
esc
set tempo
stop
Contributor
Difficulty
Tuning
novice
D A D G B E
Hey! There's an official Ultimate Guitar app which is ideal
for learning songs when you're away from computer. Get the app
WARNING: You are trying to view
                                    content from Ultimate-Guitar.com
                                    in an unauthorized application,
                                    which is prohibited.

                                    Please use an official Ultimate
                                    Guitar Tabs application for iPhone,
                                    iPad or Android to access legitimate
                                    chords, guitar, bass, and drum tabs
                                    from Ultimate-Guitar.com database.

                                    Type "ultimate guitar tabs" in Apple
                                    App Store's or Android Market's
                                    search to find the application.
(Tuning) Drop D
(Rhythm) *
(Accent)^

(0:09)
|-----------------------------------------------------------------|
|-----------------------------------------------------------------|
|-----------------------------------------------------------------|
|-----------------------------------------------------------------|
|-5-5-----------------------------5-5---------------8-8-----7-7---|
|-3-3-----------------------------3-3---------------6-6-----5-5---|
  ^   *   *   *   *   *   *   *   ^   *   *   *   *   *   *   *   


|-----------------------------------------------------------------|
|-----------------------------------------------------------------|
|-----------------------------------------------------------------|
|---------------------------------------------------6-------------|
|-5---5-6-5---5---5-8-5---5-6-2-3-5---5-6-5---5---5-4-5---6---4---|
|-3---3-4-3---3---3-6-3---3-4-0-1-3---3-4-3---3---3---3---4---2---|
  ^   *   *   *   *   *   *   *   ^   *   *   *   *   *   *   *   


|---------------------------------------------------------------------|
|---------------------------------------------------------------------|
|---------------------------------------------------------------------|
|---------------------------------------------------------------------|
|-5---5-6-5---5---5-8-5---5-6-2-3-5---5-6-5---5-----6-6-----4-4---5---|
|-3---3-4-3---3---3-6-3---3-4-0-1-3---3-4-3---3-----4-4-----2-2---3---|
  ^   *   *   *   *   *   *   *   ^   *   *   *   *   *   *   *   ^

(0:38)
|-----------------|
|-----------------|
|-----------------|
|-----------------|
|---8-8-----7-7---|
|---6-6-----5-5---|
  *   *   *   *  


|-----------------------------------------------------------------|
|-----------------------------------------------------------------|
|-----------------------------------------------------------------|
|---------------------------------------------------6-------------|
|-5---5-6-5---5---5-8-5---5-6-2-3-5---5-6-5---5---5-4-5---6---4---|
|-3---3-4-3---3---3-6-3---3-4-0-1-3---3-4-3---3---3---3---4---2---|
  ^   *   *   *   *   *   *   *   ^   *   *   *   *   *   *   *   


|-----------------------------------------------------------------|
|-----------------------------------------------------------------|
|-----------------------------------------------------------------|
|-----------------------------------------------------------------|
|-5---5-6-5---5---5-8-5---5-6-2-3-5---5-6-5---5---8-8-8---7-7-7---|
|-3---3-4-3---3---3-6-3---3-4-0-1-3---3-4-3---3---6-6-6---5-5-5---|
  ^   *   *   *   *   *   *   *   ^   *   *   *   *   *   *   *

(0:52)
|-----------------------------------------------------------------|
|-----------------------------------------------------------------|
|-----------------------------------------------------------------|
|-----------------------------------------------------------------|
|-5-5-5-5-5-5-5-5-5-5-5-5-5-5-5-5-8-8-8-8-8-8-8-8-8-8-8-8-8-8-8-8-|
|-3-3-3-3-3-3-3-3-3-3-3-3-3-3-3-3-6-6-6-6-6-6-6-6-6-6-6-6-6-6-6-6-|
  ^   *   *   *   *   *   *   *   ^   *   *   *   *   *   *   *   



|-----------------------------------------------------------------|
|-----------------------------------------------------------------|
|-----------------------------------------------------------------|
|---------------------------------5-5-5-5-5-5-5-5-5-5-5-5-5-5-5-5-|
|-3-3-3-3-3-3-3-3-3-3-3-3-3-3-3-3-3-3-3-3-3-3-3-3-3-3-3-3-3-3-3-3-|
|-1-1-1-1-1-1-1-1-1-1-1-1-1-1-1-1---------------------------------|
  ^   *   *   *   *   *   *   *   ^   *   *   *   *   *   *   *   



|-----------------------------------------------------------------|
|-----------------------------------------------------------------|
|-----------------------------------------------------------------|
|-----------------------------------------------------------------|
|-5-5-5-5-5-5-5-5-5-5-5-5-5-5-5-5-8-8-8-8-8-8-8-8-8-8-8-8-8-8-8-8-|
|-3-3-3-3-3-3-3-3-3-3-3-3-3-3-3-3-6-6-6-6-6-6-6-6-6-6-6-6-6-6-6-6-|
  ^   *   *   *   *   *   *   *   ^   *   *   *   *   *   *   *   



|-----------------------------------------------------------------|
|-----------------------------------------------------------------|
|-----------------------------------------------------------------|
|---------------------------------5-5-5-5-5-5-5-5-5-5-5-5-5-5-5-5-|
|-3-3-3-3-3-3-3-3-3-3-3-3-3-3-3-3-3-3-3-3-3-3-3-3-3-3-3-3-3-3-3-3-|
|-1-1-1-1-1-1-1-1-1-1-1-1-1-1-1-1---------------------------------|
  ^   *   *   *   *   *   *   *   ^   *   *   *   *   *   *   *   


(1:17)
|-----------------------------------------------------------------|
|-----------------------------------------------------------------|
|-----------------------------------------------------------------|
|-----------------------------------------------------------------|
|-5-5-------------------------------------------------------------|
|-3-3-------------------------------------------------------------|
  ^   *   *   *   *   *   *   *   ^   *   *   *   *   *   *   *   


|-----------------------------------------------------------------|
|-----------------------------------------------------------------|
|-----------------------------------------------------------------|
|---------------------------------------------------6-------------|
|-----5-6-5---5---5-8-5---5-6-2-3-5---5-6-5---5---5-4-5---6---4---|
|-----3-4-3---3---3-6-3---3-4-0-1-3---3-4-3---3---3---3---4---2---|
  ^   *   *   *   *   *   *   *   ^   *   *   *   *   *   *   *   


|-----------------------------------------------------------------|
|-----------------------------------------------------------------|
|-----------------------------------------------------------------|
|-----------------------------------------------------------------|
|-5---5-6-5---5---5-8-5---5-6-2-3-5---5-6-5---5-----6-6-----4-4---|
|-3---3-4-3---3---3-6-3---3-4-0-1-3---3-4-3---3-----4-4-----2-2---|
  ^   *   *   *   *   *   *   *   ^   *   *   *   *   *   *   *   

(1:36)
|-----------------------------------------------------------------|
|-----------------------------------------------------------------|
|-----------------------------------------------------------------|
|---------------------------------------------------6-------------|
|-5---5-6-5---5---5-8-5---5-6-2-3-5---5-6-5---5---5-4-5---6---4---|
|-3---3-4-3---3---3-6-3---3-4-0-1-3---3-4-3---3---3---3---4---2---|
  ^   *   *   *   *   *   *   *   ^   *   *   *   *   *   *   *   


|-----------------------------------------------------------------|
|-----------------------------------------------------------------|
|-----------------------------------------------------------------|
|-----------------------------------------------------------------|
|-5---5-6-5---5---5-8-5---5-6-2-3-5---5-6-5---5-----8-8-----7-7---|
|-3---3-4-3---3---3-6-3---3-4-0-1-3---3-4-3---3-----6-6-----5-5---|
  ^   *   *   *   *   *   *   *   ^   *   *   *   *   *   *   *



|-----------------------------------------------------------------|
|-----------------------------------------------------------------|
|-----------------------------------------------------------------|
|---------------------------------------------------6-------------|
|-5---5-6-5---5---5-8-5---5-6-2-3-5---5-6-5---5---5-4-5---6---4---|
|-3---3-4-3---3---3-6-3---3-4-0-1-3---3-4-3---3---3---3---4---2---|
  ^   *   *   *   *   *   *   *   ^   *   *   *   *   *   *   *   


|-----------------------------------------------------------------|
|-----------------------------------------------------------------|
|-----------------------------------------------------------------|
|-----------------------------------------------------------------|
|-5---5-6-5---5---5-8-5---5-6-2-3-5---5-6-5---5---8-------7-------|
|-3---3-4-3---3---3-6-3---3-4-0-1-3---3-4-3---3---6-------5-------|
  ^   *   *   *   *   *   *   *   ^   *   *   *   *   *   *   *



(2:00)
|-----------------------------------------------------------------|
|-----------------------------------------------------------------|
|-----------------------------------------------------------------|
|-----------------------------------------------------------------|
|-5-5-5-5-5-5-5-5-5-5-5-5-5-5-5-5-8-8-8-8-8-8-8-8-8-8-8-8-8-8-8-8-|
|-3-3-3-3-3-3-3-3-3-3-3-3-3-3-3-3-6-6-6-6-6-6-6-6-6-6-6-6-6-6-6-6-|
  ^   *   *   *   *   *   *   *   ^   *   *   *   *   *   *   *   



|-----------------------------------------------------------------|
|-----------------------------------------------------------------|
|-----------------------------------------------------------------|
|---------------------------------5-5-5-5-5-5-5-5-5-5-5-5-5-5-5-5-|
|-3-3-3-3-3-3-3-3-3-3-3-3-3-3-3-3-3-3-3-3-3-3-3-3-3-3-3-3-3-3-3-3-|
|-1-1-1-1-1-1-1-1-1-1-1-1-1-1-1-1---------------------------------|
  ^   *   *   *   *   *   *   *   ^   *   *   *   *   *   *   *   



|-----------------------------------------------------------------|
|-----------------------------------------------------------------|
|-----------------------------------------------------------------|
|-----------------------------------------------------------------|
|-5-5-5-5-5-5-5-5-5-5-5-5-5-5-5-5-8-8-8-8-8-8-8-8-8-8-8-8-8-8-8-8-|
|-3-3-3-3-3-3-3-3-3-3-3-3-3-3-3-3-6-6-6-6-6-6-6-6-6-6-6-6-6-6-6-6-|
  ^   *   *   *   *   *   *   *   ^   *   *   *   *   *   *   *   



|-----------------------------------------------------------------|
|-----------------------------------------------------------------|
|-----------------------------------------------------------------|
|---------------------------------5-5-5-5-5-5-5-5-5-5-5-5-5-5-5-5-|
|-3-3-3-3-3-3-3-3-3-3-3-3-3-3-3-3-3-3-3-3-3-3-3-3-3-3-3-3-3-3-3-3-|
|-1-1-1-1-1-1-1-1-1-1-1-1-1-1-1-1---------------------------------|
  ^   *   *   *   *   *   *   *   ^   *   *   *   *   *   *   *   


(2:24)
|-----------------------------------------------------------------|
|-----------------------------------------------------------------|
|-----------------------------------------------------------------|
|-----------------------------------------------------------------|
|-5-5-5-5-5-5-5-5-5-5-5-5-7-7-7-7-8-8-8-8-8-8-8-8-8-8-8-8-8-8-8-8-|
|-3-3-3-3-3-3-3-3-3-3-3-3-5-5-5-5-6-6-6-6-6-6-6-6-6-6-6-6-6-6-6-6-|
  ^   *   *   *   *   *   *   *   ^   *   *   *   *   *   *   *   



|-----------------------------------------------------------------|
|-----------------------------------------------------------------|
|-----------------------------------------------------------------|
|---------------------------------5-5-5-5-5-5-5-5-5-5-5-5-5-5-5-5-|
|-3-3-3-3-3-3-3-3-3-3-3-3-3-3-3-3-3-3-3-3-3-3-3-3-3-3-3-3-3-3-3-3-|
|-1-1-1-1-1-1-1-1-1-1-1-1-1-1-1-1---------------------------------|
  ^   *   *   *   *   *   *   *   ^   *   *   *   *   *   *   *   


(2:53)
|-----------------|
|-----------------|
|-----------------|
|-5-5-5---4-4-4---|
|-3-3-3---2-2-2---|
|-----------------|
  *   *   *   *   


|-----------------------------------------------------------------|
|-----------------------------------------------------------------|
|-----------------------------------------------------------------|
|-----------------------------------------------------------------|
|-2---2-2-2---2-2-4-4-4-------4-4-4---5-4-5-------2-------5---7---|
|-0---0-0-0---0-0-2-2-2-------2-2-2---3-2-3-------0-------3---5---|
  ^   *   *   ^   *   *   ^   *   ^   *   *   ^   *   *   ^   *   


|-------------------------------------------------|
|-------------------------------------------------|
|-------------------------------------------------|
|-------------------------------------------------|
|-2---2-2-2---7-7-7-7-4-4-4---4-4-4---4-4-9-9-9---|
|-0---0-0-0---5-5-5-5-2-2-2---2-2-2---2-2-7-7-7---|
  ^   *   *   ^   *   *   ^   *   *   ^   *   * 


(3:06)
|-----------------------------------------------------------------|
|-----------------------------------------------------------------|
|-5---5---5---5---5---5---5---5---7---7---7---7---7---7---7---7---|
|---5---5---5---5---5---5---5---5---7---7---7---7---7---7---7---7-|
|-----------------------------------------------------------------|
|-----------------------------------------------------------------|
  ^   *   *   *   *   *   *   *   ^   *   *   *   *   *   *   *   


|------------------------------------------------------------------------------------------------|
|---------------------------------------------------------------------------------11-10----------|
|-8---8---8---8---8---8---8---8---10----10----10----10----10----10----10----10----------10-12----|
|---8---8---8---8---8---8---8---8----10----10----10----10----10----10----10----10----------------|
|------------------------------------------------------------------------------------------------|
|------------------------------------------------------------------------------------------------|
  ^   *   *   *   *   *   *   *   ^     *     *     *     *     *     *     *     *     *



(3:19)
|-------------------------------------------------------|
|-------------------------------------------------------|
|-------------------------------------------------------|
|-------------------------------------------------------|
|-5-5-5-5-5-5-5-5-5-5-8-8-8-8-8-8-8-8-8-8-8-8-8-8-8-8---|
|-3-3-3-3-3-3-3-3-3-3-6-6-6-6-6-6-6-6-6-6-6-6-6-6-6-6---|
  *   *   *   *   *   ^   *   *   *   *   *   *   *



|-----------------------------------------------------------------|
|-----------------------------------------------------------------|
|-----------------------------------------------------------------|
|---------------------------------5-5-5-5-5-5-5-5-5-5-5-5-5-5-5-5-|
|-3-3-3-3-3-3-3-3-3-3-3-3-3-3-3-3-3-3-3-3-3-3-3-3-3-3-3-3-3-3-3-3-|
|-1-1-1-1-1-1-1-1-1-1-1-1-1-1-1-1---------------------------------|
  ^   *   *   *   *   *   *   *   ^   *   *   *   *   *   *   *   



|-----------------------------------------------------------------|
|-----------------------------------------------------------------|
|-----------------------------------------------------------------|
|-----------------------------------------------------------------|
|-5-5-5-5-5-5-5-5-5-5-5-5-5-5-5-5-8-8-8-8-8-8-8-8-8-8-8-8-8-8-8-8-|
|-3-3-3-3-3-3-3-3-3-3-3-3-3-3-3-3-6-6-6-6-6-6-6-6-6-6-6-6-6-6-6-6-|
  ^   *   *   *   *   *   *   *   ^   *   *   *   *   *   *   *   



|-----------------------------------------------------------------|
|-----------------------------------------------------------------|
|-----------------------------------------------------------------|
|---------------------------------5-5-5-5-5-5-5-5-5-5-5-5-5-5-5-5-|
|-3-3-3-3-3-3-3-3-3-3-3-3-3-3-3-3-3-3-3-3-3-3-3-3-3-3-3-3-3-3-3-3-|
|-1-1-1-1-1-1-1-1-1-1-1-1-1-1-1-1---------------------------------|
  ^   *   *   *   *   *   *   *   ^   *   *   *   *   *   *   *   



(3:43)
|-----------------------------------------------------------------|
|-----------------------------------------------------------------|
|-----------------------------------------------------------------|
|-----------------------------------------------------------------|
|-5-5-5-5-5---5---5-5-5---7-7-7---8-8-8-8-8---8---8-8-8---8-8-8---|
|-3-3-3-3-3---3---3-3-3---5-5-5---6-6-6-6-6---6---6-6-6---6-6-6---|
  ^   *   *   *   *   *   *   *   ^   *   *   *   *   *   *   *   



|---------------------------------------------------------------------------|
|---------------------------------------------------------------------------|
|---------------------------------------------------------------------------|
|---------------------------------5-5-5-5-5---5---5-5-7-7-8-8-10-10-12-10---|
|-3-3-3-3-3---3---3-3-3---3-3-3---3-3-3-3-3---3---3-3-5-5-6-6-8--8--10-10---|
|-1-1-1-1-1---1---1-1-1---1-1-1---------------------------------------------|
  ^   *   *   *   *   *   *   *   ^   *   *   *   *   *   *   *     *


(The End)
comments
We did not receive enough feedback on this tab! Please rate:
print report bad tab
1 2 3 4 5
1 comment total.
0 reply
aleximetalgod wrote on January 7 2013, 07:26 am

This Tab is short version.

I want to post or [tab]
guest
You may want to rate the tab now too:
select rating
Please do not post tabs as comments. Select "correction" instead!