Oops, an error
Loading. Please wait.

Wanderlust Tab

ver2
ver2

Whole song

Interactive

More versions @911Tabs.com
2,674 views 1 this week
no commentswrite comment
1 2 3 4 5
worth learning
x 2
add to favorites launch autoscroll
font size
0
reset
Autoscroll
+/-
esc
set tempo
stop
Contributor
WARNING: You are trying to view
                                    content from Ultimate-Guitar.com
                                    in an unauthorized application,
                                    which is prohibited.

                                    Please use an official Ultimate
                                    Guitar Tabs application for iPhone,
                                    iPad or Android to access legitimate
                                    chords, guitar, bass, and drum tabs
                                    from Ultimate-Guitar.com database.

                                    Type "ultimate guitar tabs" in Apple
                                    App Store's or Android Market's
                                    search to find the application.
#----------------------------------PLEASE NOTE---------------------------------#
#This file is the author's own work and represents their interpretation of the #
#song. You may only use this file for private study, scholarship, or research. #
#------------------------------------------------------------------------------#

WANDERLUST
As recorded by Nightwish

Transcribed by Gulli05
        



Gtr I (E A D G B E) - 'Piano'
Gtr II (E A D G B E) - 'Solo Guit'
Gtr III (C G C G C E) - 'Guitar'

  Q=130
 4/4
  Gtr I
   S  S  S  S  S  S  S  S  S  S  S  S  S  S  S  S
|-17----------------------20-22-24--0--0--0-24-22-|
|----18-17-15-17-18-20-22-------------------------|
|-------------------------------------------------|
|-------------------------------------------------|
|-------------------------------------------------|
|-------------------------------------------------|
|
| Gtr II
|  S  S  S  S  S  S  S  S  S  S  S  S  S  S  S  S
|--5-----------------------8-10-12-13-17----------|
|-----6--5--3--5--6--8-10----------------18-17-15-|
|-------------------------------------------------|
|-------------------------------------------------|
|-------------------------------------------------|
|-------------------------------------------------|
|
| Gtr III
|  S  S  S  S  S  S  S  S  S  S  S  S  S  S  S  S
|-------------------------------------------------|
|-------------------------------------------------|
|-------------------------------------------------|
|--2--2--2--2--2--2--2--2--2--2--2--2--2--2--2--2-|
|-------------------------------------------------|
|-------------------------------------------------|


   E    S  S  S  S  S  S  S  S  S  S  S  S  S  S
|--0----0--0--0--0--0--0--0--0--0--0--0--0--0--0--|
|-------------------------------------------------|
|-------------------------------------------------|
|-------------------------------------------------|
|-------------------------------------------------|
|-------------------------------------------------|
|
|  E    S  S  S  S  S  S  S  S  S  S  S  S  S  S
|-20---18-20----20----20----20-18-20----20----20--|
|------------22----20----18----------22----20-----|
|-------------------------------------------------|
|-------------------------------------------------|
|-------------------------------------------------|
|-------------------------------------------------|
|
|  S S  S  S  S  S  S  S  S  S  S  S  S  S  S  S
|-------------------------------------------------|
|-------------------------------------------------|
|-------------------------------------------------|
|-------------------------------------------------|
|-------------------------------------------------|
|--5-5--5--5--5--5--5--5--5--5--5--5--5--5--5--5--|


   S  S  S  S  S  S  S  S  S  S  S  S  S  S  S  S
|--0--0--0-22-------------------------------------|
|-------------23-22-20----------------------------|
|----------------------19-------------------------|
|-------------------------20-19-17----------17-19-|
|----------------------------------17----17-------|
|-------------------------------------18----------|
|
|  S  S  S  S  S  S  S  S  S  S  S  S  S  S  S  S
|-18-17-15----------------------------------------|
|----------15-------------------------------------|
|-------------15-14-12----------------------------|
|----------------------12--------------------5--7-|
|-------------------------13-12-10--------5-------|
|----------------------------------10--6----------|
|
|  S  S  S  S  S  S  S  S  S  S  S  S  S  S  S  S
|-------------------------------------------------|
|-------------------------------------------------|
|-------------------------------------------------|
|-------------------------------------------------|
|-------------------------------------------------|
|--7--7--7--7--7--7--7--7--7--7--7--7--7--7--7--7-|


   S  S  S  S  S  S  S  S  S  S  S  S  S  S  S  S
|-------------------------------------17-15-13-12-|
|----------------------15-17-------17-------------|
|-------------19----15----------18----------------|
|-20-------20----17----------19-------------------|
|-------22----------------------------------------|
|----22-------------------------------------------|
|
|  S  S  S  S  S  S  S  S  S  S  S  S  S  S  S  S
|--------------------------------------5--3--1--0-|
|-----------------------3--5--------5-------------|
|--------------7-----3-----------6----------------|
|--8--------8-----5-----------7-------------------|
|-------10----------------------------------------|
|----10-------------------------------------------|
|
|  S  S  S  S  S  S  S  S  S  S  S  S  S  S  S  S
|-------------------------------------------------|
|-------------------------------------------------|
|-------------------------------------------------|
|-------------------------------------------------|
|-------------------------------------------------|
|--7--7--7--7--7--7--7--7--9--9--9--9--9--9--9--9-|


   S  S  S  S  S  S  S  S  S  S  S  S  S  S  S  S
|-17----------------------20-22-24--0--0--0-24-22-|
|----18-17-15-17-18-20-22-------------------------|
|-------------------------------------------------|
|-------------------------------------------------|
|-------------------------------------------------|
|-------------------------------------------------|
|
|  S  S  S  S  S  S  S  S  S  S  S  S  S  S  S  S
|--5-----------------------8-10-12-13-17----------|
|-----6--5--3--5--6--8-10----------------18-17-15-|
|-------------------------------------------------|
|-------------------------------------------------|
|-------------------------------------------------|
|-------------------------------------------------|
|
|  S  S  S  S  S  S  S  S  S  S  S  S  S  S  S  S
|-------------------------------------------------|
|-------------------------------------------------|
|-------------------------------------------------|
|-------------------------------------------------|
|--7--7--7--7--7--7--7--7--7--7--7--7--7--7--7--7-|
|-------------------------------------------------|


   E    S  S  S  S  S  S  S  S  S  S  S  S  S  S
|--0----0--0--0--0-24--0-22--0--0--0--0--0-24--0-|
|------------------------------------------------|
|------------------------------------------------|
|------------------------------------------------|
|------------------------------------------------|
|------------------------------------------------|
|
|  E    S  S  S  S  S  S  S  S  S  S  S  S  S  S
|-20---18-20----20----20----20-18-20----20----20-|
|------------22----20----18----------22----20----|
|------------------------------------------------|
|------------------------------------------------|
|------------------------------------------------|
|------------------------------------------------|
|
|  S S  S  S  S  S  S  S  S  S  S  S  S  S  S  S
|------------------------------------------------|
|------------------------------------------------|
|------------------------------------------------|
|------------------------------------------------|
|------------------------------------------------|
|--5-5--5--5--5--5--5--5--5--5--5--5--5--5--5--5-|


   S  S  S  S  S  S  S  S  S  S  S  S  S  S  S  S
|--0--0--0-22-------------------------------------|
|-------------23-22-20----------------------------|
|----------------------19-------------------------|
|-------------------------20-19-17----------17-19-|
|----------------------------------17----17-------|
|-------------------------------------18----------|
|
|  S  S  S  S  S  S  S  S  S  S  S  S  S  S  S  S
|-18-17-15----------------------------------------|
|----------15-------------------------------------|
|-------------15-14-12----------------------------|
|----------------------12--------------------5--7-|
|-------------------------13-12-10--------5-------|
|----------------------------------10--6----------|
|
|  S  S  S  S  S  S  S  S  S  S  S  S  S  S  S  S
|-------------------------------------------------|
|-------------------------------------------------|
|-------------------------------------------------|
|-------------------------------------------------|
|-------------------------------------------------|
|--7--7--7--7--7--7--7--7--7--7--7--7--7--7--7--7-|


   S  S  S  S  S  S  S  S  S  S  S  S  S  S  S  S
|----------------------------13-18----------17----|
|----------------------15----15----18----17----17-|
|-------------19----15----15-------19----18----18-|
|-20-------20----17-------------------19----------|
|-------22----------------------------------------|
|----22-------------------------------------------|
|
|  S  S  S  S  S  S  S  S  S  S  S  S  S  S  S  S
|--------------------------1--------1--0----------|
|-----------------------3--------3-----------2--5-|
|--------------7-----3--------3-----------2-------|
|--8--------8-----5-------------------------------|
|-------10----------------------------------------|
|----10-------------------------------------------|
|
|  S  S  S  S  S  S  S  S  S  S  S  S  S  S  S  S
|-------------------------------------------------|
|-------------------------------------------------|
|-------------------------------------------------|
|-------------------------------------------------|
|-------------------------------------------------|
|--7--7--7--7--7--7--7--7-10-10-10-10--9--9--9--9-|


  Gtr II
   W           H     +H        H     E. S +E  E   Q.   E H
|--6--------|-10----(10)----|--8-----8--6-(6)-5-|-3----1-0----|
|--6--------|-11----(11)----|-10----10--8-(8)-6-|-5-----------|
|-----------|---------------|-------------------|-------------|
|-----------|---------------|-------------------|-------------|
|-----------|---------------|-------------------|-------------|
|-----------|---------------|-------------------|-------------|
|
| Gtr III
|  W           W               W                  H      H
|-----------|---------------|-------------------|-------------|
|-----------|---------------|-------------------|-------------|
|-----------|---------------|-------------------|-5------6----|
|-10--------|--7------------|--5----------------|-7------7----|
|-10--------|--7------------|--5----------------|-5------6----|
|-10--------|--7------------|--5----------------|-------------|


  H    +E  E Q    W          W          W
|---------------|----------|----------|-----------|
|-3----(3)------|----------|----------|-----------|
|---------------|----------|----------|-----------|
|---------------|----------|----------|-----------|
|---------------|----------|----------|-----------|
|---------------|----------|----------|-----------|
|
| W               W          W          H    H
|---------------|----------|----------|-----------|
|---------------|----------|----------|-----------|
|---------------|----------|----------|-----------|
|-2-------------|-5--------|-7--------|-7----9----|
|-2-------------|-5--------|-7--------|-7----9----|
|-2-------------|-5--------|-7--------|-7----9----|


  Gtr III
  W          W          W          H     Q  Q
|----------|----------|----------|-------------|
|----------|----------|----------|-------------|
|----------|----------|----------|-------------|
|-2--------|-5--------|-7--------|-7----10--9--|
|-2--------|-5--------|-7--------|-7----10--9--|
|-2--------|-5--------|-7--------|-7----10--9--|


   W          W          S S S S S S S S S S S S S S S S
|-----------|----------|----------------------------------|
|-----------|----------|----------------------------------|
|-----------|----------|----------------------------------|
|-10--------|-3--------|-2-2-2---2---2-2---2-2---2---2----|
|-10--------|-3--------|-2-2-2---2---2-2---2-2---2---2----|
|-10--------|-3--------|-2-2-2---2---2-2---2-2---2---2----|


  S S S S S S S S S S S S S S S S   W          W
|---------------------------------|----------|------|
|---------------------------------|----------|------|
|---------------------------------|-3--------|------|
|-2-2-2---2---2-2---2-2---2---2---|-5--------|-3----|
|-2-2-2---2---2-2---2-2---2---2---|-3--------|-3----|
|-2-2-2---2---2-2---2-2---2---2---|----------|-3----|


  Gtr II
  W           W                H    E S S +E  E   H    E. S +E  E
|----------|-----------------|------------------|-----------------|
|----------|-----------------|------3-3---------|------3----------|
|----------|-----------------|----------3-(3)-2-|-0-------3-(3)-2-|
|----------|-----------------|------------------|-----------------|
|----------|-----------------|------------------|-----------------|
|----------|-----------------|------------------|-----------------|
|
| Gtr III
| W          +H     S S E Q    W                  W
|----------|-----------------|------------------|-----------------|
|----------|-----------------|------------------|-----------------|
|----------|-----------------|------------------|-5---------------|
|-5--------|-(5)----5--------|-7----------------|-7---------------|
|-5--------|-(5)----5--------|-7----------------|-5---------------|
|-5--------|-(5)----5--------|-7----------------|-----------------|


  E. S +E  E E. S +E  E   Q  Q  Q  Q    H    E. S +E  E   H    E. S +E  E
|-----------------------|-------------|-----------------|-----------------|
|------------1--3-(3)-4-|-6--8--------|------3----------|------3----------|
|-0--2-(2)-3------------|-------7--5--|-3-------3-(3)-2-|-0-------3-(3)-2-|
|-----------------------|-------------|-----------------|-----------------|
|-----------------------|-------------|-----------------|-----------------|
|-----------------------|-------------|-----------------|-----------------|
|
| H          H            H     H       W                 W
|-----------------------|-------------|-----------------|-----------------|
|-----------------------|-------------|-----------------|-----------------|
|-----------------------|-3-----------|-----------------|-----------------|
|-3----------5----------|-5-----5-----|-7---------------|-3---------------|
|-3----------5----------|-3-----5-----|-7---------------|-3---------------|
|-3----------5----------|-------5-----|-7---------------|-3---------------|


  S S E S S E S S E E E   Q  Q  Q  Q
|-----------------------|-------------|
|-------------------1-1-|-3--4--3--1--|
|-0-0-0-2-2-2-3-3-3-----|-------------|
|-----------------------|-------------|
|-----------------------|-------------|
|-----------------------|-------------|
|
| Q     Q     Q     Q     H     H
|-----------------------|-------------|
|-----------------------|-------------|
|-----------------------|-3-----------|
|-0-----2-----3-----5---|-5-----5-----|
|-0-----2-----3-----5---|-3-----5-----|
|-0-----2-----3-----5---|-------5-----|


  E. S +E  E E. S +E  E   E. S +E  E E E E E
|-----------------------|---------------------|
|-3--1-(1)--------------|------------------1--|
|----------3-2--3-(3)-2-|-0--2-(2)-3-2---3----|
|-----------------------|---------------------|
|-----------------------|---------------------|
|-----------------------|---------------------|
|
| H          H            H          H
|-----------------------|---------------------|
|-----------------------|---------------------|
|-----------------------|---------------------|
|-7----------5----------|-3----------2--------|
|-7----------5----------|-3----------2--------|
|-7----------5----------|-3----------2--------|


  Gtr I
  W                       W
|-----------------------|-------------|
|-----------------------|-------------|
|-----------------------|-------------|
|-----------------------|-------------|
|-----------------------|-------------|
|-----------------------|-------------|
|
| Gtr II
| E. S +E  E E. S +E  E   Q  Q  Q  Q
|-----------------------|-------------|
|-3--1-(1)---4--3-(3)-1-|-3--4--3--1--|
|----------3------------|-------------|
|-----------------------|-------------|
|-----------------------|-------------|
|-----------------------|-------------|
|
| Gtr III
| H          H            H     H
|-----------------------|-------------|
|------------0----------|-------------|
|-0----------0----------|-3-----------|
|-2----------0----------|-5-----5-----|
|-0---------------------|-3-----5-----|
|-----------------------|-------5-----|


   S  S  S  S  S  S  S  S  S  S  S  S  S  S  S  S
|-17----------------------20-22-24--0--0--0-24-22--|
|----18-17-15-17-18-20-22--------------------------|
|--------------------------------------------------|
|--------------------------------------------------|
|--------------------------------------------------|
|--------------------------------------------------|
|
|  S  S  S  S  S  S  S  S  S  S  S  S  S  S  S  S
|--5-----------------------8-10-12-13-17-----------|
|-----6--5--3--5--6--8-10----------------18-17-15--|
|--------------------------------------------------|
|--------------------------------------------------|
|--------------------------------------------------|
|--------------------------------------------------|
|
|  S  S  S  S  S  S  S  S  S  S  S  S  S  S  S  S
|--------------------------------------------------|
|--------------------------------------------------|
|--------------------------------------------------|
|--------------------------------------------------|
|--7--7--7--7--7--7--7--7--7--7--7--7--7--7--7--7--|
|--------------------------------------------------|


   E    S  S  S  S  S  S  S  S  S  S  S  S  S  S
|--0----0--0--0--0--0--0--0--0--0--0--0--0--0--0-|
|------------------------------------------------|
|------------------------------------------------|
|------------------------------------------------|
|------------------------------------------------|
|------------------------------------------------|
|
|  E    S  S  S  S  S  S  S  S  S  S  S  S  S  S
|-20---18-20----20----20----20-18-20----20----20-|
|------------22----20----18----------22----20----|
|------------------------------------------------|
|------------------------------------------------|
|------------------------------------------------|
|------------------------------------------------|
|
|  S S  S  S  S  S  S  S  S  S  S  S  S  S  S  S
|------------------------------------------------|
|------------------------------------------------|
|------------------------------------------------|
|------------------------------------------------|
|------------------------------------------------|
|--5-5--5--5--5--5--5--5--5--5--5--5--5--5--5--5-|


   S  S  S  S  S  S  S  S  S  S  S  S  S  S  S  S
|--0--0--0-22-------------------------------------|
|-------------23-22-20----------------------------|
|----------------------19-------------------------|
|-------------------------20-19-17----------17-19-|
|----------------------------------17----17-------|
|-------------------------------------18----------|
|
|  S  S  S  S  S  S  S  S  S  S  S  S  S  S  S  S
|-18-17-15----------------------------------------|
|----------15-------------------------------------|
|-------------15-14-12----------------------------|
|----------------------12--------------------5--7-|
|-------------------------13-12-10--------5-------|
|----------------------------------10--6----------|
|
|  S  S  S  S  S  S  S  S  S  S  S  S  S  S  S  S
|-------------------------------------------------|
|-------------------------------------------------|
|-------------------------------------------------|
|-------------------------------------------------|
|-------------------------------------------------|
|--7--7--7--7--7--7--7--7--7--7--7--7--7--7--7--7-|


   S  S  S  S  S  S  S  S  S  S  S  S  S  S  S  S
|-------------------------------------17-15-13-12-|
|----------------------15-17-------17-------------|
|-------------19----15----------18----------------|
|-20-------20----17----------19-------------------|
|-------22----------------------------------------|
|----22-------------------------------------------|
|
|  S  S  S  S  S  S  S  S  S  S  S  S  S  S  S  S
|--------------------------------------5--3--1--0-|
|-----------------------3--5--------5-------------|
|--------------7-----3-----------6----------------|
|--8--------8-----5-----------7-------------------|
|-------10----------------------------------------|
|----10-------------------------------------------|
|
|  S  S  S  S  S  S  S  S  S  S  S  S  S  S  S  S
|-------------------------------------------------|
|-------------------------------------------------|
|-------------------------------------------------|
|-------------------------------------------------|
|-------------------------------------------------|
|--7--7--7--7--7--7--7--7--9--9--9--9--9--9--9--9-|


   S  S  S  S  S  S  S  S  S  S  S  S  S  S  S  S
|-17----------------------20-22-24--0--0--0-24-22-|
|----18-17-15-17-18-20-22-------------------------|
|-------------------------------------------------|
|-------------------------------------------------|
|-------------------------------------------------|
|-------------------------------------------------|
|
|  S  S  S  S  S  S  S  S  S  S  S  S  S  S  S  S
|--5-----------------------8-10-12-13-17----------|
|-----6--5--3--5--6--8-10----------------18-17-15-|
|-------------------------------------------------|
|-------------------------------------------------|
|-------------------------------------------------|
|-------------------------------------------------|
|
|  S  S  S  S  S  S  S  S  S  S  S  S  S  S  S  S
|-------------------------------------------------|
|-------------------------------------------------|
|-------------------------------------------------|
|-------------------------------------------------|
|--7--7--7--7--7--7--7--7--7--7--7--7--7--7--7--7-|
|-------------------------------------------------|


   E    S  S  S  S  S  S  S  S  S  S  S  S  S  S
|--0----0--0--0--0-24--0-22--0--0--0--0--0-24--0-|
|------------------------------------------------|
|------------------------------------------------|
|------------------------------------------------|
|------------------------------------------------|
|------------------------------------------------|
|
|  E    S  S  S  S  S  S  S  S  S  S  S  S  S  S
|-20---18-20----20----20----20-18-20----20----20-|
|------------22----20----18----------22----20----|
|------------------------------------------------|
|------------------------------------------------|
|------------------------------------------------|
|------------------------------------------------|
|
|  S S  S  S  S  S  S  S  S  S  S  S  S  S  S  S
|------------------------------------------------|
|------------------------------------------------|
|------------------------------------------------|
|------------------------------------------------|
|------------------------------------------------|
|--5-5--5--5--5--5--5--5--5--5--5--5--5--5--5--5-|


   S  S  S  S  S  S  S  S  S  S  S  S  S  S  S  S
|--0--0--0-22-------------------------------------|
|-------------23-22-20----------------------------|
|----------------------19-------------------------|
|-------------------------20-19-17----------17-19-|
|----------------------------------17----17-------|
|-------------------------------------18----------|
|
|  S  S  S  S  S  S  S  S  S  S  S  S  S  S  S  S
|-18-17-15----------------------------------------|
|----------15-------------------------------------|
|-------------15-14-12----------------------------|
|----------------------12--------------------5--7-|
|-------------------------13-12-10--------5-------|
|----------------------------------10--6----------|
|
|  S  S  S  S  S  S  S  S  S  S  S  S  S  S  S  S
|-------------------------------------------------|
|-------------------------------------------------|
|-------------------------------------------------|
|-------------------------------------------------|
|-------------------------------------------------|
|--7--7--7--7--7--7--7--7--7--7--7--7--7--7--7--7-|


   S  S  S  S  S  S  S  S  S  S  S  S  S  S  S  S    W           W
|----------------------------13-18----------17----|-----------|---------------|
|----------------------15----15----18----17----17-|-----------|---------------|
|-------------19----15----15-------19----18----18-|-----------|---------------|
|-20-------20----17-------------------19----------|-----------|---------------|
|-------22----------------------------------------|-----------|---------------|
|----22-------------------------------------------|-----------|---------------|
|
|  S  S  S  S  S  S  S  S  S  S  S  S  S  S  S  S    W           H     +H
|--------------------------1--------1--0----------|--6--------|-10----(10)----|
|-----------------------3--------3-----------2--5-|--6--------|-11----(11)----|
|--------------7-----3--------3-----------2-------|-----------|---------------|
|--8--------8-----5-------------------------------|-----------|---------------|
|-------10----------------------------------------|-----------|---------------|
|----10-------------------------------------------|-----------|---------------|
|
|  S  S  S  S  S  S  S  S  S  S  S  S  S  S  S  S    W           W
|-------------------------------------------------|-----------|---------------|
|-------------------------------------------------|-----------|---------------|
|-------------------------------------------------|-----------|---------------|
|-------------------------------------------------|-10--------|--7------------|
|-------------------------------------------------|-10--------|--7------------|
|--7--7--7--7--7--7--7--7-10-10-10-10--9--9--9--9-|-10--------|--7------------|


  Gtr II
   H     E. S +E  E   Q.   E H      H    +E  E Q    W
|--8-----8--6-(6)-5-|-3----1-0----|---------------|------|
|-10----10--8-(8)-6-|-5-----------|-3----(3)------|------|
|-------------------|-------------|---------------|------|
|-------------------|-------------|---------------|------|
|-------------------|-------------|---------------|------|
|-------------------|-------------|---------------|------|
|
| Gtr III
|  W                  H      H      W               W
|-------------------|-------------|---------------|------|
|-------------------|-------------|---------------|------|
|-------------------|-5------6----|---------------|------|
|--5----------------|-7------7----|-2-------------|-5----|
|--5----------------|-5------6----|-2-------------|-5----|
|--5----------------|-------------|-2-------------|-5----|


  Gtr III
  W          H    H      W          W
|----------|-----------|----------|------|
|----------|-----------|----------|------|
|----------|-----------|----------|------|
|-7--------|-7----9----|-2--------|-5----|
|-7--------|-7----9----|-2--------|-5----|
|-7--------|-7----9----|-2--------|-5----|


  W          H     Q  Q     W          W
|----------|-------------|-----------|------|
|----------|-------------|-----------|------|
|----------|-------------|-----------|------|
|-7--------|-7----10--9--|-10--------|-3----|
|-7--------|-7----10--9--|-10--------|-3----|
|-7--------|-7----10--9--|-10--------|-3----|


  S S S S S S S S S S S S S S S S   S S S S S S S S S S S S S S S S
|---------------------------------|---------------------------------|
|---------------------------------|---------------------------------|
|---------------------------------|---------------------------------|
|-2-2-2---2---2-2---2-2---2---2---|-2-2-2---2---2-2---2-2---2---2---|
|-2-2-2---2---2-2---2-2---2---2---|-2-2-2---2---2-2---2-2---2---2---|
|-2-2-2---2---2-2---2-2---2---2---|-2-2-2---2---2-2---2-2---2---2---|


  W          W          W          +H     S S E Q
|----------|----------|----------|------------------|
|----------|----------|----------|------------------|
|-3--------|----------|----------|------------------|
|-5--------|-3--------|-5--------|-(5)----5---------|
|-3--------|-3--------|-5--------|-(5)----5---------|
|----------|-3--------|-5--------|-(5)----5---------|


  Gtr II
  H    E S S +E  E   H    E. S +E  E   E. S +E  E E. S +E  E   Q  Q  Q  Q
|------------------|-----------------|-----------------------|--------------|
|------3-3---------|------3----------|------------1--3-(3)-4-|-6--8---------|
|----------3-(3)-2-|-0-------3-(3)-2-|-0--2-(2)-3------------|-------7--5---|
|------------------|-----------------|-----------------------|--------------|
|------------------|-----------------|-----------------------|--------------|
|------------------|-----------------|-----------------------|--------------|
|
| Gtr III
| W                  W                 H          H            H     H
|------------------|-----------------|-----------------------|--------------|
|------------------|-----------------|-----------------------|--------------|
|------------------|-5---------------|-----------------------|-3------------|
|-7----------------|-7---------------|-3----------5----------|-5-----5------|
|-7----------------|-5---------------|-3----------5----------|-3-----5------|
|-7----------------|-----------------|-3----------5----------|-------5------|


  H    E. S +E  E   H    E. S +E  E   S S E S S E S S E E E   Q  Q  Q  Q
|-----------------|-----------------|-----------------------|--------------|
|------3----------|------3----------|-------------------1-1-|-3--4--3--1---|
|-3-------3-(3)-2-|-0-------3-(3)-2-|-0-0-0-2-2-2-3-3-3-----|--------------|
|-----------------|-----------------|-----------------------|--------------|
|-----------------|-----------------|-----------------------|--------------|
|-----------------|-----------------|-----------------------|--------------|
|
| W                 W                 Q     Q     Q     Q     H     H
|-----------------|-----------------|-----------------------|--------------|
|-----------------|-----------------|-----------------------|--------------|
|-----------------|-----------------|-----------------------|-3------------|
|-7---------------|-3---------------|-0-----2-----3-----5---|-5-----5------|
|-7---------------|-3---------------|-0-----2-----3-----5---|-3-----5------|
|-7---------------|-3---------------|-0-----2-----3-----5---|-------5------|


  E. S +E  E E. S +E  E   E. S +E  E E E E E
|-----------------------|--------------------|
|-3--1-(1)--------------|------------------1-|
|----------3-2--3-(3)-2-|-0--2-(2)-3-2---3---|
|-----------------------|--------------------|
|-----------------------|--------------------|
|-----------------------|--------------------|
|
| H          H            H          H
|-----------------------|--------------------|
|-----------------------|--------------------|
|-----------------------|--------------------|
|-7----------5----------|-3----------2-------|
|-7----------5----------|-3----------2-------|
|-7----------5----------|-3----------2-------|


  E. S +E  E E. S +E  E   Q  Q  Q  Q
|-----------------------|-------------|
|-3--1-(1)---4--3-(3)-1-|-3--4--3--1--|
|----------3------------|-------------|
|-----------------------|-------------|
|-----------------------|-------------|
|-----------------------|-------------|
|
| H          H            H     H
|-----------------------|-------------|
|------------0----------|-------------|
|-0----------0----------|-3-----------|
|-2----------0----------|-5-----5-----|
|-0---------------------|-3-----5-----|
|-----------------------|-------5-----|


  Gtr III
  S S E Q  Q  E S S   S S E Q  Q  Q    S S E Q  Q  E S S
|-------------------|----------------|--------------------|
|-------------------|----------------|--------------------|
|-------------------|----------------|--------------------|
|-7-------------7---|-7--------8--5--|-7-------------7----|
|-7-------------7---|-7--------8--5--|-7-------------7----|
|-7-------------7---|-7--------8--5--|-7-------------7----|


  S S E Q  Q  Q    Q  +S  S S S S S S S S S S S   Q  +S  S S S Q  Q
|----------------|------------------------------|--------------------|
|----------------|------------------------------|--------------------|
|----------------|------------------------------|--------------------|
|-7--------8--5--|-7--(7)-------7-------7-------|-7--(7)-------8--5--|
|-7--------8--5--|-7--(7)-------7-------7-------|-7--(7)-------8--5--|
|-7--------8--5--|-7--(7)---7-7-7---7-7-7---7-7-|-7--(7)---7-7-8--5--|


  Q  +S  S S S S S S S S S S S   Q  +S  S S S Q  Q
|------------------------------|--------------------|
|------------------------------|--------------------|
|------------------------------|--------------------|
|-7--(7)-------7-------7-------|-7--(7)-------8--5--|
|-7--(7)-------7-------7-------|-7--(7)-------8--5--|
|-7--(7)---7-7-7---7-7-7---7-7-|-7--(7)---7-7-8--5--|


  Q  +S  S S S S S S S S S S S   Q  +S  S S S Q  Q
|------------------------------|--------------------|
|------------------------------|--------------------|
|------------------------------|--------------------|
|-4--(4)-------4-------4-------|-4--(4)-------5--2--|
|-4--(4)-------4-------4-------|-4--(4)-------5--2--|
|-4--(4)---4-4-4---4-4-4---4-4-|-4--(4)---4-4-5--2--|


  Q  +S  S S S S S S S S S S S   Q  +S  S S S Q  Q
|------------------------------|--------------------|
|------------------------------|--------------------|
|------------------------------|--------------------|
|-4--(4)-------4-------4-------|-4--(4)-------5--2--|
|-4--(4)-------4-------4-------|-4--(4)-------5--2--|
|-4--(4)---4-4-4---4-4-4---4-4-|-4--(4)---4-4-5--2--|


  S S S S Q  S S S S S S S S   E S S S S E S S S S S S S S
|----------------------------|-----------------------------|
|----------------------------|-----------------------------|
|----------------------------|-----------------------------|
|-4-4-4-4----4---4---4-5---4-|-5-4---4-----4---4---4-5---4-|
|-4-4-4-4----4---4---4-5---4-|-5-4---4-----4---4---4-5---4-|
|-4-4-4-4----4---4---4-5---4-|-5-4---4-----4---4---4-5---4-|


  S S S S S S E S S S S S S S S   E S S S S E E S S S S E
|-------------------------------|-------------------------|
|-------------------------------|-------------------------|
|-------------------------------|-------------------------|
|-5-5-4---4-----4---4---4-5---4-|-5-4---4-----4-4-4-4-2-1-|
|-5-5-4---4-----4---4---4-5---4-|-5-4---4-----------------|
|-5-5-4---4-----4---4---4-5---4-|-5-4---4-----------------|


  S S S S Q  S S S S S S S S   E S S S S E S S S S S S S S
|----------------------------|-----------------------------|
|----------------------------|-----------------------------|
|----------------------------|-----------------------------|
|-4-4-4-4----4---4---4-5---4-|-5-4---4-----4---4---4-5---4-|
|-4-4-4-4----4---4---4-5---4-|-5-4---4-----4---4---4-5---4-|
|-4-4-4-4----4---4---4-5---4-|-5-4---4-----4---4---4-5---4-|


  S S S S S S E S S S S S S S S   E S S S S E E S S S S E   +W
|-------------------------------|-------------------------|--------|
|-------------------------------|-------------------------|--------|
|-------------------------------|-------------------------|--------|
|-5-5-4---4-----4---4---4-5---4-|-5-4---4-----4-4-4-4-2-1-|-(1)----|
|-5-5-4---4-----4---4---4-5---4-|-5-4---4---------------1-|-(1)----|
|-5-5-4---4-----4---4---4-5---4-|-5-4---4---------------1-|-(1)----|


  Gtr II
   H      Q   E S S    S  S S S S S S S S S S S S S S S
|---------------4-2-|-----2-4-2---2-4-2---2-4-2---2-4-2-|
|-----------------5-|-----5---5---5---5---5---5---5---5-|
|-------------------|--4--------4-------4-------4-------|
|-------------------|-----------------------------------|
|-------------------|-----------------------------------|
|-------------------|-----------------------------------|
|
| Gtr III
| +H     +Q.    E     +W
|-------------------|-----------------------------------|
|-------------------|-----------------------------------|
|-------------------|-----------------------------------|
|-(1)----(1)----4---|-(4)-------------------------------|
|-(1)----(1)----4---|-(4)-------------------------------|
|-(1)----(1)----4---|-(4)-------------------------------|


   S  S S S S S S S  S  S S S S S E    W            H      Q   E S S
|-----2-4-2---2-4-2-----2-4-2---2---|------------|---------------4-2--|
|-----5---5---5---5-----5---5---5---|------------|-----------------5--|
|--4--------4--------4--------4-----|------------|--------------------|
|-----------------------------------|------------|--------------------|
|-----------------------------------|------------|--------------------|
|-----------------------------------|------------|--------------------|
|
| +H                +Q.           E   +W           +H     +Q.    E
|-----------------------------------|------------|--------------------|
|-----------------------------------|------------|--------------------|
|-----------------------------------|------------|--------------------|
|-(4)---------------(4)-----------1-|-(1)--------|-(1)----(1)----4----|
|-(4)---------------(4)-----------1-|-(1)--------|-(1)----(1)----4----|
|-(4)---------------(4)-----------1-|-(1)--------|-(1)----(1)----4----|


   S  S S S S S S S S S S S S S S S    S  S S S S S S S  S  S S S S S E
|-----2-4-2---2-4-2---2-4-2---2-4-2-|-----2-4-2---2-4-2-----2-4-2---2-----|
|-----5---5---5---5---5---5---5-7-5-|-----5---5---5---5-----5---5---5-----|
|--4--------4-------4-------4-------|--4--------4--------4--------4-------|
|-----------------------------------|-------------------------------------|
|-----------------------------------|-------------------------------------|
|-----------------------------------|-------------------------------------|
|
| +W                                  +H                +Q.           S S
|-----------------------------------|-------------------------------------|
|-----------------------------------|-------------------------------------|
|-----------------------------------|-------------------------------------|
|-(4)-------------------------------|-(4)---------------(4)-----------4-4-|
|-(4)-------------------------------|-(4)---------------(4)-----------4-4-|
|-(4)-------------------------------|-(4)---------------(4)-----------4-4-|


  Gtr III
  S S E E S S S S S S S S E   S S S S E S S S S S S S S S S
|---------------------------|-------------------------------|
|---------------------------|-------------------------------|
|---------------------------|-------------------------------|
|-4-4-----4---4---4-5---4-5-|-4---4-----4---4---4-5---4-5-5-|
|-4-4-----4---4---4-5---4-5-|-4---4-----4---4---4-5---4-5-5-|
|-4-4-----4---4---4-5---4-5-|-4---4-----4---4---4-5---4-5-5-|


  S S S S E S S S S S S S S E   S S S S E E S S S S E S S
|-----------------------------|---------------------------|
|-----------------------------|---------------------------|
|-----------------------------|---------------------------|
|-4---4-----4---4---4-5---4-5-|-4---4-----4-4-4-4-2-1-4-4-|
|-4---4-----4---4---4-5---4-5-|-4---4-----------------4-4-|
|-4---4-----4---4---4-5---4-5-|-4---4-----------------4-4-|


  S S E E S S S S S S S S E   S S S S E S S S S S S S S S S
|---------------------------|-------------------------------|
|---------------------------|-------------------------------|
|---------------------------|-------------------------------|
|-4-4-----4---4---4-5---4-5-|-4---4-----4---4---4-5---4-5-5-|
|-4-4-----4---4---4-5---4-5-|-4---4-----4---4---4-5---4-5-5-|
|-4-4-----4---4---4-5---4-5-|-4---4-----4---4---4-5---4-5-5-|


                               3/4                   4/4
  S S S S E S S S S S S S S E   S S S S E E S S S S   W
|-----------------------------|---------------------|------|
|-----------------------------|---------------------|------|
|-----------------------------|---------------------|------|
|-4---4-----4---4---4-5---4-5-|-4---4-----4-4-4-4-2-|-1----|
|-4---4-----4---4---4-5---4-5-|-4---4---------------|-1----|
|-4---4-----4---4---4-5---4-5-|-4---4---------------|-1----|


  Gtr II
   W           S S S S S S S S S S S S S S S S
|------------|-4-2---2-4-2---2-4-2---2-4-2---2-|
|------------|---5---5---5---5---5---5---5---5-|
|------------|-----4-------4-------4-------4---|
|------------|---------------------------------|
|------------|---------------------------------|
|------------|---------------------------------|
|
| Gtr III
| +W           W
|------------|---------------------------------|
|------------|---------------------------------|
|------------|---------------------------------|
|-(1)--------|-4-------------------------------|
|-(1)--------|-4-------------------------------|
|-(1)--------|-4-------------------------------|


   S  S S S S S S S S S S S S S S S   W           W
|--4--2---2-4-2---2-4-2---2-4-2-----|----------|--------|
|--7--5---5---5---5---5---5---5---5-|----------|--------|
|-------4-------4-------4-------4---|----------|--------|
|-----------------------------------|----------|--------|
|-----------------------------------|----------|--------|
|-----------------------------------|----------|--------|
|
| +W                                  W          +W
|-----------------------------------|----------|--------|
|-----------------------------------|----------|--------|
|-----------------------------------|----------|--------|
|-(4)-------------------------------|-1--------|-(1)----|
|-(4)-------------------------------|-1--------|-(1)----|
|-(4)-------------------------------|-1--------|-(1)----|


  S S S S S S S S S S S S S S S S    S  S S S S S S S S S S S S S S S
|-4-2---2-4-2---2-4-2---2-4-2---2-|--4--2---2-4-2---2-4-2---2-4-2-----|
|---5---5---5---5---5---5---5---5-|--7--5---5---5---5---5---5---5---5-|
|-----4-------4-------4-------4---|-------4-------4-------4-------4---|
|---------------------------------|-----------------------------------|
|---------------------------------|-----------------------------------|
|---------------------------------|-----------------------------------|
|
| W                                 +W
|---------------------------------|-----------------------------------|
|---------------------------------|-----------------------------------|
|---------------------------------|-----------------------------------|
|-4-------------------------------|-(4)-------------------------------|
|-4-------------------------------|-(4)-------------------------------|
|-4-------------------------------|-(4)-------------------------------|


  Gtr III
  W          W          W          +W
|----------|----------|----------|--------|
|----------|----------|----------|--------|
|-2--------|----------|----------|--------|
|-4--------|-6--------|-1--------|-(1)----|
|-2--------|-6--------|-1--------|-(1)----|
|----------|-6--------|-1--------|-(1)----|


  W          H.      Q    W          +W
|----------|------------|----------|--------|
|----------|------------|----------|--------|
|----------|-4-------5--|-6--------|-(6)----|
|-4--------|-6-------0--|-8--------|-(8)----|
|-4--------|-4----------|-6--------|-(6)----|
|-4--------|------------|----------|--------|


  W          W          W          +W
|----------|----------|----------|--------|
|----------|----------|----------|--------|
|----------|----------|----------|--------|
|-9--------|-6--------|-1--------|-(1)----|
|-9--------|-6--------|-1--------|-(1)----|
|-9--------|-6--------|-1--------|-(1)----|


  W          W          W          +W
|----------|----------|----------|--------*|
|----------|----------|----------|--------*|
|----------|----------|----------|--------*|
|-2--------|-6--------|-4--------|-(4)----*|
|-2--------|-6--------|-4--------|-(4)----*|
|-2--------|-6--------|-4--------|-(4)----*|



Duration Legend
---------------
W - whole; H - half; Q - quarter; E - 8th; S - 16th; T - 32nd; X - 64th; a - acciaccatura
+ - note tied to previous; . - note dotted; .. - note double dotted
Uncapitalized letters represent notes that are staccato (1/2 duration)
Irregular groupings are notated above the duration line
Duration letters will always appear directly above the note/fret number it represents the
duration for.  Duration letters with no fret number below them represent rests.  Multi-
bar rests are notated in the form Wxn, where n is the number of bars to rest for.  Low
melody durations appear below the staff

Tablature Legend
----------------
 h   - hammer-on
 p   - pull-off
 b   - bend
 pb  - pre-bend
 r   - bend release (if no number after the r, then release immediately)
 /\  - slide into or out of (from/to "nowhere")
 s   - legato slide
 S   - shift slide
<n> - natural harmonic
[n]  - artificial harmonic
n(n) - tapped harmonic
 ~   - vibrato
 tr  - trill
 T   - tap
 TP  - trem. picking
 PM  - palm muting
\n/  - tremolo bar dip; n = amount to dip
 \n  - tremolo bar down
 n/  - tremolo bar up
/n\  - tremolo bar inverted dip
 =   - hold bend; also acts as connecting device for hammers/pulls
 <> - volume swell (louder/softer)
 x   - on rhythm slash represents muted slash
 o   - on rhythm slash represents single note slash

Misc Legend
-----------
 |  - bar
||  - double bar
||o - repeat start
o|| - repeat end
*|  - double bar (ending)
 :  - bar (freetime)
 $  - Segno
 &  - Coda
Tempo markers - <E/E./Q/Q./H/H.> = BPM(8/16=s8/s16), where s8 = swing 8ths, s16 = swing 16ths

comments
We did not receive enough feedback on this tab! Please rate:
print report bad tab
1 2 3 4 5
I want to post or [tab]
guest
You may want to rate the tab now too:
select rating
Please do not post tabs as comments. Select "correction" instead!