Oops, an error
Loading. Please wait.

Wanderlust Tab

ver3
ver3

Whole song

More versions @911Tabs.com
2,319 views 1 this week
no commentswrite comment
1 2 3 4 5
excellent!
x 2
Autoscroll
+/-
esc
set tempo
stop
Contributor
Difficulty
advanced
WARNING: You are trying to view
                                    content from Ultimate-Guitar.com
                                    in an unauthorized application,
                                    which is prohibited.

                                    Please use an official Ultimate
                                    Guitar Tabs application for iPhone,
                                    iPad or Android to access legitimate
                                    chords, guitar, bass, and drum tabs
                                    from Ultimate-Guitar.com database.

                                    Type "ultimate guitar tabs" in Apple
                                    App Store's or Android Market's
                                    search to find the application.
Band: Nightwish
Song: Wanderlust
Album: Wishmaster

Tabbed By: Daniel de Nava
Email: St.jimmy213@hotmail.com

Tuning: Standard (e,a,d,g,b,e)


!!!Don’t send me any correction emails, because I know it’s 100% correct!!!

INTRO – GUITAR 1                                                                Tempo = 130

E|-------------|-------------|----------13-|-17-13-------|-20----18-20-|-17-20-15-20-|
B|-------------|-------------|-13-15-17----|-------17-13-|-------------|-------------|
G|-14----------|-------12-14-|-------------|-------------|-------------|-------------|
D|----15-14-12-|-14-15-------|-------------|-------------|-------------|-------------|
A|-------------|-------------|-------------|-------------|-------------|-------------|
E|-------------|-------------|-------------|-------------|-------------|-------------|

E|----20-18-20-|-17-20-15-20-|-18-17-15----|-------------|-------------|-------------|
B|-18----------|-------------|----------15-|-11----------|-------------|-------------|
G|-------------|-------------|-------------|----14-12----|-------------|-------------|
D|-------------|-------------|-------------|----------12-|-------------|----------10-|
A|-------------|-------------|-------------|-------------|-13-12-10----|-10-12-13----|
E|-------------|-------------|-------------|-------------|----------10-|-------------|

E|-------------|-------------|-------------|-------------|-------------|-------------|
B|-------------|-------------|-------------|-------------|-------------|-------------|
G|-------------|-12-------12-|-9---------9-|-14-12-------|-14----------|-------12-14-|
D|-12-------12-|-------12----|--------11---|-------15-14-|----15-14-12-|-14-15-------|
A|----10-13----|----10-------|-----12------|-------------|-------------|-------------|
E|-------------|-------------|-------------|-------------|-------------|-------------|

E|----------13-|-17-13-------|-20----18-20-|-17-20-15-20-|----20-18-20-|-17-20-15-20-|
B|-13-15-17----|-------17-13-|-------------|-------------|-18----------|-------------|
G|-------------|-------------|-------------|-------------|-------------|-------------|
D|-------------|-------------|-------------|-------------|-------------|-------------|
A|-------------|-------------|-------------|-------------|-------------|-------------|
E|-------------|-------------|-------------|-------------|-------------|-------------|

E|-18-17-15----|-------------|-------------|-------------|-------------|-------------|
B|----------15-|-11----------|-------------|-------------|-------------|-------------|
G|-------------|----14-12----|-------------|-------------|-------------|-12-------12-|
D|-------------|----------12-|-------------|----------10-|-12-------12-|-------12----|
A|-------------|-------------|-13-12-10----|-10-12-13----|----10-13----|----10-------|
E|-------------|-------------|----------10-|-------------|-------------|-------------|

E|-------------|-------------|------------|-------------|--------------|-------------|
B|-------------|-------------|------------|-15>---------|-13>-13-------|-------------|
G|-15-14-12----|-------------|------------|-------------|--------15-14-|-12----------|
D|----------15-|-14-12-11-14-|-12>--------|-------------|--------------|----15-14-12\|
A|-------------|-------------|------------|-------------|--------------|-------------|
E|-------------|-------------|------------|-------------|--------------|-------------|

Yes, I know that the bars in the intro make it look really complicated and confusing. 
I think it helps a little. =P

INTRO – GUITAR 2

E|-------------------------------------------------------------------------------|
B|-------------------------------------------------------------------------------|
G|-------------------------------------------------------------------------------|
D|-------------------------------------------------------------------------------|
A|-5-(X16)--------------------------------7>-----------5-(X16)-------------------|
E|--------------1-(X16)------3-(X24)------5>------------------------1-(X16)------|
PM .            .            .                         .            .

E|-------------------------------------------------------------------------------|
B|-------------------------------------------------------------------------------|
G|-------------------------------------------------------------------------------|
D|------------------------------------------------------------------5>-----------|
A|--------------8-----7------8>-----------5>-----------3>-----------3>-----------|
E|-3-(X24)------6-----5------6>-----------3>-----------1>------------------------|
PM .

VERSE – GUITAR 2 (or both guitars, whichever. But I use guitar 2 as rhythm guitar)


E|-------------------------------------------------------------------------------|
B|-------------------------------------------------------------------------------|
G|-7>--------------------------------------------------7>------------------------|
D|-7>-----------3>-----------5>--5-5-5----7>-----------7>-----------3>-----------|
A|-5>-----------3>-----------5>--5-5-5----7>-----------5>-----------3>-----------|
E|--------------1>-----------3>--3-3-3----5>------------------------1>-----------|
PM                               . . .

E|---------------------------------------------------|---------------------------|
B|---------------------------------------------------|---------------------------|
G|----------------------------------------8>---------|---------------------------|
D|-5>--5-5-5----8----7-------8>-----------8>---------|---------------------------|
A|-5>--5-5-5----8----7-------8>-----------6>---------|-55-5--5-55-5-5--5-5-(X2)--|
E|-3>--3-3-3----6----5-------6>----------------------|---------------------------|
PM     . . .                                           .. . .  .. .. . ..

E|-------------------------------------------------------------------------------|
B|-------------------------------------------------------------------------------|
G|--------------8>-----------10--10--10--10--10--10---10>-----------10>----------|
D|-8>-----------8>-----------10--10--10--10--10--10---10>-----------10>----------|
A|-8>-----------6>-----------8---8---8---8---8---8----8->-----------8->----------|
E|-6>----------------------------------------------------------------------------|

CHORUS - GUITAR 1

(It sounds right when you pinch a few harmonics)
E|---------------------------------------------------------------------|
B|---------------------------------------------------------------------|
G|-------/7~-----------/7~----------------5~-7~-8~-10~-12~-------------|
D|-/5~\------8--7--5~\-----8~-7--5~-7~-8~------------------12~-10~-8~\-|
A|---------------------------------------------------------------------|
E|---------------------------------------------------------------------|

E|---------------------------------------------------------------------|
B|---------------------------------------------------------------------|
G|-/7~------------/7~------------------------55-5-7--7^8~-7-5---7-5----|
D|-----8--7--5~\------8--7--55-5--77-7--88-8------------------------8--|
A|---------------------------------------------------------------------|
E|---------------------------------------------------------------------|
PM                          ..    ..    ..   ..

E|---------------------------------------------------------------|
B|---------------------------------------------------------------|
G|-----------------------------5--7~--5------8~--7--5--7^8~-7--5-|
D|-7~--8--7~--5--7~--8--7~--8------------8~----------------------|
A|---------------------------------------------------------------|
E|---------------------------------------------------------------|

CHORUS - GUITAR 2

E|-------------------------------------------------------------------------|
B|-------------------------------------------------------------------------|
G|--------------5>-----------8>--------10>--------------------10>----------|
D|-5>-----------5>-----------8>--------10>-------8>-----------10>----------|
A|-5>-----------3>-----------6>--------8->-------8>-----------8->----------|
E|-3>--------------------------------------------6>------------------------|

E|-------------------------------------------------------------------------|
B|-------------------------------------------------------------------------|
G|--------------8>-----------5----7----8----10----------------10>----------|
D|-5>-----------8>-----------5----7----8----10---8>-----------10>----------|
A|-5>-----------6>-----------3----5----6----8----8>-----------8->----------|
E|-3>--------------------------------------------6>------------------------|

E|-------------------------------------------------------------------------|
B|-------------------------------------------------------------------------|
G|-------10>----8>----7>---------------5>---------------------10>----------|
D|-5>----10>----8>----7>-----5>--------5>--------8>-----------10>----------|
A|-5>----8->----6>----5>-----5>--------3>--------8>-----------8->----------|
E|-3>------------------------3>------------------6>------------------------|

BRIDGE - GUITAR 1

E|-------------------------|-------------------------------------------------|
B|-------------------------|-------------------------------------------------|
G|-------------------------|-------------------------------------------------|
D|-5----6--5----6--3-------|-5---5--5-5--5--5-5--5--6--5---5--5-5--6--3------|
A|-5----6--5----6--3--(X2)-|-5---5--5-5--5--5-5--5--6--5---5--5-5--6--3-(X2)-|
E|-3----4--3----4--1-------|-3---3--3-3--3--3-3--3--4--3---3--3-3--4--1------|
PM                               .  . .  .  . .  .     .   .  . .

E|-------------------------------------------------|
B|-------------------------------------------------|
G|-------------------------------------------------|
D|-2---2--2-2--2--2-2--2--3--2---2--2-2--3--7------|
A|-2---2--2-2--2--2-2--2--3--2---2--2-2--3--5-(X2)-|
E|-0---0--0-0--0--0-0--0--1--0---0--0-0--1--5------|
PM     .  . .  .  . .  .     .   .  . .

E|---------------------------------------------------------------|
B|---------------------------------------------------------------|
G|---------------------------------------------------------------|
D|-2-2-2-2----2--2---2-3--2---3--2--2----2--2--2-3--2-------2--2-|
A|-2-2-2-2----2--2---2-3--2---3--2--2----2--2--2-3--2-------2--2-|
E|-0-0-0-0----0--0---0-1--0---1--0--0----0--0--0-1--0--1-4--0--0-|
PM . . . .    .  .   . .      .  .  .    .  .  . .  .       .  .

E|------------------------------------------------|
B|------------------------------------------------|
G|------------------------------------------------| (This and riff above X2)
D|-2--2--2-3--2---3--2--2--------------------(X2)-|
A|-2--2--2-3--2---3--2--2----5/7--7-7-7-5-4~------|
E|-0--0--0-1--0---1--0--0-------------------------|
PM .  .  . .  .      .  .         . . . .

TAPPING - GUITAR 1

E|----|------------------------------------------------------|
B|----|-(tap)-9p7p5h7p5--9p7p5h7p5--9p7p5h7p5--9p5h7--10p7p5-|
G|-6>-|------------------------------------------------------|
D|-6>-|------------------------------------------------------|
A|-4>-|------------------------------------------------------|
E|----|------------------------------------------------------|

TAPPING - GUITAR 2

E|--------------|
B|--------------|
G|-6>---9>------|
D|-6>---9>-(X2)-|
A|-4>---7>------|
E|--------------|

OUTRO - GUITAR 1 & 2

E|-------------------------------------------------------------------------------|
B|-------------------------------------------------------------------------------|
G|-2>--------6>------------4>-/-5>---6>------2>--------6>------7>----------------|
D|-2>---4>---6>-------2>---4>-/-5>---6>------2>---4>---6>------7>---4>---2>------|
A|-0>---4>---4>-------2>---2>-/-3>---4>------0>---4>---4>------5>---4>---2>------|
E|------2>------------0>--------------------------2>----------------2>---0>------|

Well that’s it, Please rate!!!

>    - Let Ring
/    - Slide Up
\    - Slide Down
P    - Pull Off
H    - Hammer On
~    - Vibrato
PM . - Palm Mute
comments
We did not receive enough feedback on this tab! Please rate:
1 2 3 4 5
I want to post or [tab]
guest
You may want to rate the tab now too:
select rating
Please do not post tabs as comments. Select "correction" instead!