Oops, an error
Loading. Please wait.

1000000 Tab

ver5
ver5

Whole song

More versions @911Tabs.com
3,424 views 9 this week
no commentswrite comment
1 2 3 4 5
excellent!
x 2
Autoscroll
+/-
esc
set tempo
stop
Contributor
Tuning
D A D G B E
WARNING: You are trying to view
                                    content from Ultimate-Guitar.com
                                    in an unauthorized application,
                                    which is prohibited.

                                    Please use an official Ultimate
                                    Guitar Tabs application for iPhone,
                                    iPad or Android to access legitimate
                                    chords, guitar, bass, and drum tabs
                                    from Ultimate-Guitar.com database.

                                    Type "ultimate guitar tabs" in Apple
                                    App Store's or Android Market's
                                    search to find the application.
#----------------------------------PLEASE NOTE---------------------------------#
#This file is the author's own work and represents their interpretation of the #
#song. You may only use this file for private study, scholarship, or research. #
#------------------------------------------------------------------------------#

1,000,000
As recorded by Nine Inch Nails
(From the 2008 Album THE SLIP)

Transcribed by Mitchell Gardner
        

Words by Trent Reznor Music by Nine Inch Nails

Gtr I (D A D G B E) - 'Gtr. I (Fuzz Dist.)'
Gtr II (D A D G B E) - 'Gtr. II (Fuzz Dist.) [left pan]'
Gtr III (D A D G B E) - 'Gtr. II (Fuzz Dist.) [right pan]'
Gtr IV (D A D G B E) - 'Overdub (Synth)'

 Intro
  Q=136
  N.C.
 4/4
  Gtr I
  Wx4
|--------|
|--------|
|--------|
|--------|
|--------|
|--------|


  C5 D5 C5 D5        C5 D5 C5 D5        C5 D5 C5 D5        C5 D5 C5 D5
   E  E  E  E H       E  E  E  E H       E  E  E  E H       E  E  E  E  Q   Q
|------------------|------------------|------------------|---------------------|
|------------------|------------------|------------------|---------------------|
|------------------|------------------|------------------|---------------------|
|-10h12-10h12------|-10h12-10h12------|-10h12-10h12------|-10h12-10h12-12\-----|
|-10h12-10h12------|-10h12-10h12------|-10h12-10h12------|-10h12-10h12-12\-----|
|-10h12-10h12------|-10h12-10h12------|-10h12-10h12------|-10h12-10h12-12\-----|


  C5 D5 C5 D5        C5 D5 C5 D5
   E  E  E  E H       E  E  E  E H
|------------------|------------------|
|------------------|------------------|
|------------------|------------------|
|-10h12-10h12------|-10h12-10h12------|
|-10h12-10h12------|-10h12-10h12------|
|-10h12-10h12------|-10h12-10h12------|


  C5 D5 C5 D5        C5 D5 C5 D5
   E  E  E  E H       E  E  E  E  Q   Q
|------------------|---------------------||
|------------------|---------------------||
|------------------|---------------------||
|-10h12-10h12------|-10h12-10h12-12\-----||
|-10h12-10h12------|-10h12-10h12-12\-----||
|-10h12-10h12------|-10h12-10h12-12\-----||


 Verse I
  C5 D5 C5 D5        F5 G5 C5 D5        C5 D5 C5 D5        F5 G5 C5 D5
   E  E  E  E H       E  E  E  E H       E  E  E  E H       E  E  E  E  Q   Q
|------------------|------------------|------------------|---------------------|
|------------------|------------------|------------------|---------------------|
|------------------|------------------|------------------|---------------------|
|-10h12-10h12------|-15h17-10h12------|-10h12-10h12------|-15h17-10h12-12\-----|
|-10h12-10h12------|-15h17-10h12------|-10h12-10h12------|-15h17-10h12-12\-----|
|-10h12-10h12------|-15h17-10h12------|-10h12-10h12------|-15h17-10h12-12\-----|


  C5 D5 C5 D5        F5 G5 C5 D5
   E  E  E  E H       E  E  E  E H
|------------------|------------------|
|------------------|------------------|
|------------------|------------------|
|-10h12-10h12------|-15h17-10h12------|
|-10h12-10h12------|-15h17-10h12------|
|-10h12-10h12------|-15h17-10h12------|


  C5 D5 C5 D5        F5 G5 C5 D5      N.C.
   E  E  E  E H       E  E  E  E  Q   E E
|------------------|----------------------|
|------------------|----------------------|
|------------------|----------------------|
|-10h12-10h12------|-15h17-10h12-12\------|
|-10h12-10h12------|-15h17-10h12-12\--x-x-|
|-10h12-10h12------|-15h17-10h12-12\--x-x-|


  C5 D5 C5 D5 N.C.      F5 G5 C5 D5 C
   E  E  E  E E E E E    E  E  E  E E E E E
|---------------------|---------------------|
|---------------------|---------------------|
|---------------------|---------------------|
|-10h12-10h12---------|-15h17-10h12---------|
|-10h12-10h12-x-x-x-x-|-15h17-10h12-x-x-x-x-|
|-10h12-10h12-x-x-x-x-|-15h17-10h12-x-x-x-x-|


  C5 D5 C5 D5 N.C.      F5 G5 C5 D5      N.C.
   E  E  E  E E E E E    E  E  E  E  Q   E E
|---------------------|----------------------|
|---------------------|----------------------|
|---------------------|----------------------|
|-10h12-10h12---------|-15h17-10h12-12\------|
|-10h12-10h12-x-x-x-x-|-15h17-10h12-12\--x-x-|
|-10h12-10h12-x-x-x-x-|-15h17-10h12-12\--x-x-|


  C5 D5 C5 D5 N.C.      F5 G5 C5 D5 N.C.
   E  E  E  E E E E E    E  E  E  E E E E E
|---------------------|---------------------|
|---------------------|---------------------|
|---------------------|---------------------|
|-10h12-10h12---------|-15h17-10h12---------|
|-10h12-10h12-x-x-x-x-|-15h17-10h12-x-x-x-x-|
|-10h12-10h12-x-x-x-x-|-15h17-10h12-x-x-x-x-|


  C5 D5 C5 D5 N.C.      F5 G5 C5 D5      N.C.
   E  E  E  E E E E E    E  E  E  E  Q   E E
|---------------------|----------------------||
|---------------------|----------------------||
|---------------------|----------------------||
|-10h12-10h12---------|-15h17-10h12-12\------||
|-10h12-10h12-x-x-x-x-|-15h17-10h12-12\--x-x-||
|-10h12-10h12-x-x-x-x-|-15h17-10h12-12\--x-x-||


   Interlude
    C5 D5 C5 D5                  F5 G5 C5 D5
     E  E  E  E  E   E  E    E    E  E  E  E  E   E  E    E
||-----------------------------|----------------------------|
||o----------------------------|----------------------------|
||-----------------------------|----------------------------|
||--10h12-10h12-12--12-12---12-|-15h17-10h12-12--12-12---12-|
||o-10h12-10h12-12--12-12---12-|-15h17-10h12-12--12-12---12-|
||--10h12-10h12-12--12-12---12-|-15h17-10h12-12--12-12---12-|
|
|   Gtr IV
|    E  E  E  E +Q     +Q         E  E  E  E +Q     +Q
||-----------------------------|----------------------------|
||o--5h=7--5h=7-(7)----(7)\----|-10h12--5h=7-(7)----(7)\----|
||---5h=7--5h=7-(7)----(7)\----|-10h12--5h=7-(7)----(7)\----|
||-----------------------------|----------------------------|
||o----------------------------|----------------------------|
||-----------------------------|----------------------------|


  C5 D5 C5 D5                  F5 G5 C5 D5
   E  E  E  E  E   E  E    E    E  E  E  E  E   E  E    E
|----------------------------|------------------------------||
|----------------------------|-----------------------------o||
|----------------------------|------------------------------||
|-10h12-10h12-12--12-12---12-|-15h17-10h12-12--12-12---12---||
|-10h12-10h12-12--12-12---12-|-15h17-10h12-12--12-12---12--o||
|-10h12-10h12-12--12-12---12-|-15h17-10h12-12--12-12---12---||
|
|  E  E  E  E +Q     +Q         E  E  E  E +Q     +Q
|----------------------------|------------------------------||
|--5h=7--5h=7-(7)----(7)\----|-10h12--5h=7-(7)----(7)\-----o||
|--5h=7--5h=7-(7)----(7)\----|-10h12--5h=7-(7)----(7)\------||
|----------------------------|------------------------------||
|----------------------------|-----------------------------o||
|----------------------------|------------------------------||


 Chorus
  G5               F5                Bb5
  Gtr I
  E    E E E E E E E    E    E E E E  E E E
|---------------------|----------------------|
|---------------------|----------------------|
|---------------------|----------------------|
|-5----5-5-5-5-5-5-3--|-3----3-3-3-3-/8-8-8--|
|-5----5-5-5-5-5-5-3--|-3----3-3-3-3-/8-8-8--|
|-5----5-5-5-5-5-5-3--|-3----3-3-3-3-/8-8-8--|
|
| Gtr III
| E    E E E E E E E    E    E E E E  E E E
|---------------------|----------------------|
|---------------------|----------------------|
|-4b6==4-4-4-4-4-4-4r-|----------------------|
|---------------------|-3b4==3-3-3-3--3-3-3r-|
|---------------------|----------------------|
|---------------------|----------------------|


  C5 D5 C5 D5        F5 G5 C5 D5
   E  E  E  E H       E  E  E  E H
|------------------|------------------|
|------------------|------------------|
|------------------|------------------|
|-10h12-10h12------|-15h17-10h12------|
|-10h12-10h12------|-15h17-10h12------|
|-10h12-10h12------|-15h17-10h12------|
|
|  >
|  Q     H.           W
|------------------|------------------|
|------------------|------------------|
|------------------|------------------|
|------------------|------------------|
|------------------|------------------|
|--0---------------|------------------|


  G5               F5                Bb5
  E    E E E E E E E    E    E E E E  E E E
|---------------------|----------------------|
|---------------------|----------------------|
|---------------------|----------------------|
|-5----5-5-5-5-5-5-3--|-3----3-3-3-3-/8-8-8--|
|-5----5-5-5-5-5-5-3--|-3----3-3-3-3-/8-8-8--|
|-5----5-5-5-5-5-5-3--|-3----3-3-3-3-/8-8-8--|
|
| Gtr II
| W                     W
|---------------------|----------------------|
|---------------------|----------------------|
|---------------------|----------------------|
|---------------------|----------------------|
|---------------------|----------------------|
|---------------------|----------------------|
|
| Gtr III
| E    E E E E E E E    E    E E E E  E E E
|---------------------|----------------------|
|---------------------|----------------------|
|-4b6==4-4-4-4-4-4-4r-|----------------------|
|---------------------|-3b4==3-3-3-3--3-3-3r-|
|---------------------|----------------------|
|---------------------|----------------------|


  C5 D5 C5 D5   N.C.        F5 G5 C5 D5      N.C.
   E  E  E  E H              E  E  E  E H
|-------------------------|-----------------------|
|-------------------------|-----------------------|
|-------------------------|-----------------------|
|-10h12-10h12-------------|-15h17-10h12-----------|
|-10h12-10h12-------------|-15h17-10h12-----------|
|-10h12-10h12-------------|-15h17-10h12-----------|
|
|  H          E S S S S E    H          Q  S S E
|-------------------------|-----------------------|
|-------------------------|-----------------------|
|-------------------------|-----------------------|
|---------------x-x-x-x-x-|------------------x-x--|
|---------------x-x-x-x-x-|------------------x-x--|
|---------------x-x-x-x-x-|------------------x-x--|
|
|  >
|  Q     H.                  W
|-------------------------|-----------------------|
|-------------------------|-----------------------|
|-------------------------|-----------------------|
|-------------------------|-----------------------|
|-------------------------|-----------------------|
|--0----------------------|-----------------------|


  G5               F5                Bb5
  Gtr I
  E    E E E E E E E    E    E E E E  E E E
|---------------------|----------------------|
|---------------------|----------------------|
|---------------------|----------------------|
|-5----5-5-5-5-5-5-3--|-3----3-3-3-3-/8-8-8--|
|-5----5-5-5-5-5-5-3--|-3----3-3-3-3-/8-8-8--|
|-5----5-5-5-5-5-5-3--|-3----3-3-3-3-/8-8-8--|
|
| Gtr III
| E    E E E E E E E    E    E E E E  E E E
|---------------------|----------------------|
|---------------------|----------------------|
|-4b6==4-4-4-4-4-4-4r-|----------------------|
|---------------------|-3b4==3-3-3-3--3-3-3r-|
|---------------------|----------------------|
|---------------------|----------------------|


  C5 D5 C5 D5 N.C.      F5 G5 C5 D5 N.C.
   E  E  E  E E E E E    E  E  E  E E E E E
|---------------------|---------------------|
|---------------------|---------------------|
|---------------------|---------------------|
|-10h12-10h12-x-x-x-x-|-15h17-10h12-x-x-x-x-|
|-10h12-10h12-x-x-x-x-|-15h17-10h12-x-x-x-x-|
|-10h12-10h12-x-x-x-x-|-15h17-10h12-x-x-x-x-|
|
|  H.             E E    E  E  E  E E E E E
|---------------------|---------------------|
|---------------------|---------------------|
|---------------------|---------------------|
|---------------------|---------------------|
|---------------------|---------------------|
|-----------------0-0-|-----0--0----0-0-0-0-|


  G5               F5                Bb5
  E    E E E E E E E    E    E E E E  E E E
|---------------------|----------------------||
|---------------------|----------------------||
|---------------------|----------------------||
|-5----5-5-5-5-5-5-3--|-3----3-3-3-3-/8-8-8--||
|-5----5-5-5-5-5-5-3--|-3----3-3-3-3-/8-8-8--||
|-5----5-5-5-5-5-5-3--|-3----3-3-3-3-/8-8-8--||
|
| E    E E E E E E E    E    E E E E  E E E
|---------------------|----------------------||
|---------------------|----------------------||
|-4b6==4-4-4-4-4-4-4r-|----------------------||
|---------------------|-3b4==3-3-3-3--3-3-3r-||
|---------------------|----------------------||
|---------------------|----------------------||


 Pre-Verse
  C5 D5 C5 D5        F5 G5 C5 D5
   E  E  E  E H       E  E  E  E H
|------------------|------------------|
|------------------|------------------|
|------------------|------------------|
|-10h12-10h12------|-15h17-10h12------|
|-10h12-10h12------|-15h17-10h12------|
|-10h12-10h12------|-15h17-10h12------|


  C5 D5 C5 D5        F5 G5 C5 D5      N.C.
   E  E  E  E H       E  E  E  E  Q   E E
|------------------|----------------------||
|------------------|----------------------||
|------------------|----------------------||
|-10h12-10h12------|-15h17-10h12-12\------||
|-10h12-10h12------|-15h17-10h12-12\--x-x-||
|-10h12-10h12------|-15h17-10h12-12\--x-x-||


 Verse II
  C5 D5 C5 D5 N.C.      F5 G5 C5 D5 N.C.
   E  E  E  E E E E E    E  E  E  E E E E E
|---------------------|---------------------|
|---------------------|---------------------|
|---------------------|---------------------|
|-10h12-10h12---------|-15h17-10h12---------|
|-10h12-10h12-x-x-x-x-|-15h17-10h12-x-x-x-x-|
|-10h12-10h12-x-x-x-x-|-15h17-10h12-x-x-x-x-|


  C5 D5 C5 D5 N.C.      F5 G5 C5 D5      N.C.
   E  E  E  E E E E E    E  E  E  E  Q   E E
|---------------------|----------------------|
|---------------------|----------------------|
|---------------------|----------------------|
|-10h12-10h12---------|-15h17-10h12-12\------|
|-10h12-10h12-x-x-x-x-|-15h17-10h12-12\--x-x-|
|-10h12-10h12-x-x-x-x-|-15h17-10h12-12\--x-x-|


  C5 D5 C5 D5 N.C.      F5 G5 C5 D5 N.C.
   E  E  E  E E E E E    E  E  E  E E E E E
|---------------------|---------------------|
|---------------------|---------------------|
|---------------------|---------------------|
|-10h12-10h12---------|-15h17-10h12---------|
|-10h12-10h12-x-x-x-x-|-15h17-10h12-x-x-x-x-|
|-10h12-10h12-x-x-x-x-|-15h17-10h12-x-x-x-x-|


  C5 D5 C5 D5 N.C.      F5 G5 C5 D5
   E  E  E  E E E E E    E  E  E  E  Q   Q
|---------------------|---------------------|
|---------------------|---------------------|
|---------------------|---------------------|
|-10h12-10h12---------|-15h17-10h12-12\-----|
|-10h12-10h12-x-x-x-x-|-15h17-10h12-12\-----|
|-10h12-10h12-x-x-x-x-|-15h17-10h12-12\-----|


  C5 D5 C5 D5                  F5 G5 C5 D5
   E  E  E  E  E   E  E    E    E  E  E  E  E   E  E    E
|----------------------------|----------------------------|
|----------------------------|----------------------------|
|----------------------------|----------------------------|
|-10h12-10h12-12--12-12---12-|-15h17-10h12-12--12-12---12-|
|-10h12-10h12-12--12-12---12-|-15h17-10h12-12--12-12---12-|
|-10h12-10h12-12--12-12---12-|-15h17-10h12-12--12-12---12-|
|
| Gtr IV
|  E  E  E  E +Q     +Q         E  E  E  E +Q     +Q
|----------------------------|----------------------------|
|--5h=7--5h=7-(7)----(7)\----|-10h12--5h=7-(7)----(7)\----|
|--5h=7--5h=7-(7)----(7)\----|-10h12--5h=7-(7)----(7)\----|
|----------------------------|----------------------------|
|----------------------------|----------------------------|
|----------------------------|----------------------------|


  C5 D5 C5 D5                  F5 G5 C5 D5
   E  E  E  E  E   E  E    E    E  E  E  E  E   E  E    E
|----------------------------|----------------------------|
|----------------------------|----------------------------|
|----------------------------|----------------------------|
|-10h12-10h12-12--12-12---12-|-15h17-10h12-12--12-12---12-|
|-10h12-10h12-12--12-12---12-|-15h17-10h12-12--12-12---12-|
|-10h12-10h12-12--12-12---12-|-15h17-10h12-12--12-12---12-|
|
|  E  E  E  E +Q     +Q         E  E  E  E +Q     +Q
|----------------------------|----------------------------|
|--5h=7--5h=7-(7)----(7)\----|-10h12--5h=7-(7)----(7)\----|
|--5h=7--5h=7-(7)----(7)\----|-10h12--5h=7-(7)----(7)\----|
|----------------------------|----------------------------|
|----------------------------|----------------------------|
|----------------------------|----------------------------|


  C5 D5 C5 D5                  F5 G5 C5 D5
   E  E  E  E  E   E  E    E    E  E  E  E  E   E  E    E
|----------------------------|----------------------------|
|----------------------------|----------------------------|
|----------------------------|----------------------------|
|-10h12-10h12-12--12-12---12-|-15h17-10h12-12--12-12---12-|
|-10h12-10h12-12--12-12---12-|-15h17-10h12-12--12-12---12-|
|-10h12-10h12-12--12-12---12-|-15h17-10h12-12--12-12---12-|
|
|  E  E  E  E +Q     +Q         E  E  E  E +Q     +Q
|----------------------------|----------------------------|
|--5h=7--5h=7-(7)----(7)\----|-10h12--5h=7-(7)----(7)\----|
|--5h=7--5h=7-(7)----(7)\----|-10h12--5h=7-(7)----(7)\----|
|----------------------------|----------------------------|
|----------------------------|----------------------------|
|----------------------------|----------------------------|


  C5 D5 C5 D5                  F5 G5 C5 D5
   E  E  E  E  E   E  E    E    E  E  E  E  E   E  E    E
|----------------------------|----------------------------||
|----------------------------|----------------------------||
|----------------------------|----------------------------||
|-10h12-10h12-12--12-12---12-|-15h17-10h12-12--12-12---12-||
|-10h12-10h12-12--12-12---12-|-15h17-10h12-12--12-12---12-||
|-10h12-10h12-12--12-12---12-|-15h17-10h12-12--12-12---12-||
|
|  E  E  E  E +Q     +Q         E  E  E  E +Q     +Q
|----------------------------|----------------------------||
|--5h=7--5h=7-(7)----(7)\----|-10h12--5h=7-(7)----(7)\----||
|--5h=7--5h=7-(7)----(7)\----|-10h12--5h=7-(7)----(7)\----||
|----------------------------|----------------------------||
|----------------------------|----------------------------||
|----------------------------|----------------------------||


 Chorus
  G5               F5                Bb5
  Gtr I
  E    E E E E E E E    E    E E E E  E E E
|---------------------|----------------------|
|---------------------|----------------------|
|---------------------|----------------------|
|-5----5-5-5-5-5-5-3--|-3----3-3-3-3-/8-8-8--|
|-5----5-5-5-5-5-5-3--|-3----3-3-3-3-/8-8-8--|
|-5----5-5-5-5-5-5-3--|-3----3-3-3-3-/8-8-8--|
|
| Gtr III
| E    E E E E E E E    E    E E E E  E E E
|---------------------|----------------------|
|---------------------|----------------------|
|-4b6==4-4-4-4-4-4-4r-|----------------------|
|---------------------|-3b4==3-3-3-3--3-3-3r-|
|---------------------|----------------------|
|---------------------|----------------------|


  C5 D5 C5 D5        F5 G5 C5 D5
   E  E  E  E H       E  E  E  E H
|------------------|------------------|
|------------------|------------------|
|------------------|------------------|
|-10h12-10h12------|-15h17-10h12------|
|-10h12-10h12------|-15h17-10h12------|
|-10h12-10h12------|-15h17-10h12------|
|
|  >
|  Q     H.           W
|------------------|------------------|
|------------------|------------------|
|------------------|------------------|
|------------------|------------------|
|------------------|------------------|
|--0---------------|------------------|


  G5               F5                Bb5
  Gtr I
  E    E E E E E E E    E    E E E E  E E E
|---------------------|----------------------|
|---------------------|----------------------|
|---------------------|----------------------|
|-5----5-5-5-5-5-5-3--|-3----3-3-3-3-/8-8-8--|
|-5----5-5-5-5-5-5-3--|-3----3-3-3-3-/8-8-8--|
|-5----5-5-5-5-5-5-3--|-3----3-3-3-3-/8-8-8--|
|
| Gtr II
| W                     W
|---------------------|----------------------|
|---------------------|----------------------|
|---------------------|----------------------|
|---------------------|----------------------|
|---------------------|----------------------|
|---------------------|----------------------|
|
| Gtr III
| E    E E E E E E E    E    E E E E  E E E
|---------------------|----------------------|
|---------------------|----------------------|
|-4b6==4-4-4-4-4-4-4r-|----------------------|
|---------------------|-3b4==3-3-3-3--3-3-3r-|
|---------------------|----------------------|
|---------------------|----------------------|


  C5 D5 C5 D5   N.C.        F5 G5 C5 D5      N.C.
   E  E  E  E H              E  E  E  E H
|-------------------------|-----------------------|
|-------------------------|-----------------------|
|-------------------------|-----------------------|
|-10h12-10h12-------------|-15h17-10h12-----------|
|-10h12-10h12-------------|-15h17-10h12-----------|
|-10h12-10h12-------------|-15h17-10h12-----------|
|
|  H          E S S S S E    H          Q  S S E
|-------------------------|-----------------------|
|-------------------------|-----------------------|
|-------------------------|-----------------------|
|---------------x-x-x-x-x-|------------------x-x--|
|---------------x-x-x-x-x-|------------------x-x--|
|---------------x-x-x-x-x-|------------------x-x--|
|
|  W                         W
|-------------------------|-----------------------|
|-------------------------|-----------------------|
|-------------------------|-----------------------|
|-------------------------|-----------------------|
|-------------------------|-----------------------|
|-------------------------|-----------------------|


  G5               F5                Bb5
  E    E E E E E E E    E    E E E E  E E E
|---------------------|----------------------|
|---------------------|----------------------|
|---------------------|----------------------|
|-5----5-5-5-5-5-5-3--|-3----3-3-3-3-/8-8-8--|
|-5----5-5-5-5-5-5-3--|-3----3-3-3-3-/8-8-8--|
|-5----5-5-5-5-5-5-3--|-3----3-3-3-3-/8-8-8--|
|
| Gtr III
| E    E E E E E E E    E    E E E E  E E E
|---------------------|----------------------|
|---------------------|----------------------|
|-4b6==4-4-4-4-4-4-4r-|----------------------|
|---------------------|-3b4==3-3-3-3--3-3-3r-|
|---------------------|----------------------|
|---------------------|----------------------|


  C5 D5 C5 D5      N.C.  F5 G5 C5 D5 N.C.
   E  E  E  E  Q   E E    E  E  E  E E E E E
|----------------------|---------------------|
|----------------------|---------------------|
|----------------------|---------------------|
|-10h12-10h12-12\--x-x-|-15h17-10h12-x-x-x-x-|
|-10h12-10h12-12\--x-x-|-15h17-10h12-x-x-x-x-|
|-10h12-10h12-12\--x-x-|-15h17-10h12-x-x-x-x-|
|
|  H.              E E    E  E  E  E E E E E
|----------------------|---------------------|
|----------------------|---------------------|
|----------------------|---------------------|
|----------------------|---------------------|
|----------------------|---------------------|
|------------------0-0-|-----0--0----0-0-0-0-|


  G5               F5                Bb5
  E    E E E E E E E    E    E E E E  E E E
|---------------------|----------------------|
|---------------------|----------------------|
|---------------------|----------------------|
|-5----5-5-5-5-5-5-3--|-3----3-3-3-3-/8-8-8--|
|-5----5-5-5-5-5-5-3--|-3----3-3-3-3-/8-8-8--|
|-5----5-5-5-5-5-5-3--|-3----3-3-3-3-/8-8-8--|
|
| E    E E E E E E E    E    E E E E  E E E
|---------------------|----------------------|
|---------------------|----------------------|
|-4b6==4-4-4-4-4-4-4r-|----------------------|
|---------------------|-3b4==3-3-3-3--3-3-3r-|
|---------------------|----------------------|
|---------------------|----------------------|


  C5    D5 C5 D5 N.C.       F5    G5 C5 D5 N.C.
   E     E  E  E E E E E     E     E  E  E E E E E
|-------------------------|-------------------------|
|-------------------------|-------------------------|
|-------------------------|-------------------------|
|-10h===12-10h12-x-x-x-x--|-15h===17-10h12-x-x-x-x--|
|-10h===12-10h12-x-x-x-x--|-15h===17-10h12-x-x-x-x--|
|-10h===12-10h12-x-x-x-x--|-15h===17-10h12-x-x-x-x--|
|
|  E     E  E  E E E E E     E     E  E  E E E E E
|-------------------------|-------------------------|
|-------------------------|-------------------------|
|-------------------------|-------------------------|
|-------------------------|--4b5===4--4--4-4-4-4-4r-|
|--1b3===1--1--1-1-1-1-1r-|-------------------------|
|-------------------------|-------------------------|


  G5               F5                Bb5
  E    E E E E E E E    E    E E E E  E E E
|---------------------|----------------------|
|---------------------|----------------------|
|---------------------|----------------------|
|-5----5-5-5-5-5-5-3--|-3----3-3-3-3-/8-8-8--|
|-5----5-5-5-5-5-5-3--|-3----3-3-3-3-/8-8-8--|
|-5----5-5-5-5-5-5-3--|-3----3-3-3-3-/8-8-8--|
|
| E    E E E E E E E    E    E E E E  E E E
|---------------------|----------------------|
|---------------------|----------------------|
|-4b6==4-4-4-4-4-4-4r-|----------------------|
|---------------------|-3b4==3-3-3-3--3-3-3r-|
|---------------------|----------------------|
|---------------------|----------------------|


  C5    D5 C5 D5 N.C.       F5    G5 C5 D5 N.C.
   E     E  E  E H           E     E  E  E H
|-------------------------|-------------------------|
|-------------------------|-------------------------|
|-------------------------|-------------------------|
|-10h===12-10h12----------|-15h===17-10h12----------|
|-10h===12-10h12----------|-15h===17-10h12----------|
|-10h===12-10h12----------|-15h===17-10h12----------|
|
|  E     E  E  E E E E E     E     E  E  E E E E E
|-------------------------|-------------------------|
|-------------------------|-------------------------|
|-------------------------|-------------------------|
|-------------------------|--4b5===4--4--4-4-4-4-4r-|
|--1b3===1--1--1-1-1-1-1r-|-------------------------|
|-------------------------|-------------------------|


  G5               F5                Bb5
  E    E E E E E E E    E    E E E E  E E E
|---------------------|----------------------|
|---------------------|----------------------|
|---------------------|----------------------|
|-5----5-5-5-5-5-5-3--|-3----3-3-3-3-/8-8-8--|
|-5----5-5-5-5-5-5-3--|-3----3-3-3-3-/8-8-8--|
|-5----5-5-5-5-5-5-3--|-3----3-3-3-3-/8-8-8--|
|
| E    E E E E E E E    E    E E E E  E E E
|---------------------|----------------------|
|---------------------|----------------------|
|-4b6==4-4-4-4-4-4-4r-|----------------------|
|---------------------|-3b4==3-3-3-3--3-3-3r-|
|---------------------|----------------------|
|---------------------|----------------------|


  C5    D5 C5 D5 N.C.       F5    G5 C5 D5 N.C.
   E     E  E  E H           E     E  E  E H
|-------------------------|-------------------------|
|-------------------------|-------------------------|
|-------------------------|-------------------------|
|-10h===12-10h12----------|-15h===17-10h12----------|
|-10h===12-10h12----------|-15h===17-10h12----------|
|-10h===12-10h12----------|-15h===17-10h12----------|
|
|  E     E  E  E E E E E     E     E  E  E E E E E
|-------------------------|-------------------------|
|-------------------------|-------------------------|
|-------------------------|-------------------------|
|-------------------------|--4b5===4--4--4-4-4-4-4r-|
|--1b3===1--1--1-1-1-1-1r-|-------------------------|
|-------------------------|-------------------------|


  G5                   F5                    Bb5
   E     E E E E E  E   E      E     E E E E  E  E   E
|---------------------------|----------------------------|
|---------------------------|----------------------------|
|---------------------------|----------------------------|
|--5-----5-5-5-5-5--5---3---|--3-----3-3-3-3-/8--8---8---|
|--5-----5-5-5-5-5--5---3---|--3-----3-3-3-3-/8--8---8---|
|--5-----5-5-5-5-5--5---3---|--3-----3-3-3-3-/8--8---8---|
|
|  H.              +E  +E      H.               +E  +E
|-(7)b9============(7)-(7)r-|----------------------------|
|---------------------------|-(6)b7=============(6)-(6)r-|
|--4b6===4-4-4-4-4--4---4r--|----------------------------|
|---------------------------|--3b4===3-3-3-3--3--3---3r--|
|---------------------------|----------------------------|
|---------------------------|----------------------------|
   E     E E E E E  E   E      E     E E E E  E  E   E


  C5     D5 C5 D5       N.C.       F5     G5 C5 D5 N.C.
   E      E  E  E  Q     E   E      E      E  E  E E E  E   E
|--------------------------------|------------------------------|
|--------------------------------|------------------------------|
|--------------------------------|------------------------------|
|-10h====12-10h12-12\----x---x---|-15h====17-10h12-x-x--x---x---|
|-10h====12-10h12-12\----x---x---|-15h====17-10h12-x-x--x---x---|
|-10h====12-10h12-12\----x---x---|-15h====17-10h12-x-x--x---x---|
|
|  H.                   +E  +E      H.                 +E  +E
|--------------------------------|------------------------------|
|--------------------------------|-(7)b8===============(7)-(7)r-|
|-(3)b5=================(3)-(3)r-|------------------------------|
|--------------------------------|--4b5====4--4--4-4-4--4---4r--|
|--1b3====1--1--1--1--1--1---1r--|------------------------------|
|--------------------------------|------------------------------|
   E      E  E  E  E  E  E   E      E      E  E  E E E  E   E


  G5                   F5          N.C.
   E     E E E E E  E   E      q   H.        W
|---------------------------|--------------|------||
|---------------------------|--------------|------||
|---------------------------|--------------|------||
|--5-----5-5-5-5-5--5---3---|--3-----------|------||
|--5-----5-5-5-5-5--5---3---|--3-----------|------||
|--5-----5-5-5-5-5--5---3---|--3-----------|------||
|
|  H.              +E  +E      q   H.        W
|-(7)b9============(7)-(7)r-|--------------|------||
|---------------------------|-(6)----------|------||
|--4b6===4-4-4-4-4--4---4r--|--------------|------||
|---------------------------|--3-----------|------||
|---------------------------|--------------|------||
|---------------------------|--------------|------||
   E     E E E E E  E   E


   Outro
    C5 D5 C5 D5 N.C.   F5 G5 C5 D5 N.C.
    Gtr I
     E  E  E  E H       E  E  E  E H
||-------------------|------------------|
||o------------------|------------------|
||-------------------|------------------|
||--10h12-10h12------|-15h17-10h12------|
||o-10h12-10h12------|-15h17-10h12------|
||--10h12-10h12------|-15h17-10h12------|


  C5 D5 C5 D5 N.C.   F5 G5 C5 D5      N.C.
   E  E  E  E H       E  E  E  E  Q   Q
|------------------|-----------------------||
|------------------|----------------------o||
|------------------|-----------------------||
|-10h12-10h12------|-15h17-10h12-12\-------||
|-10h12-10h12------|-15h17-10h12-12\------o||
|-10h12-10h12------|-15h17-10h12-12\-------||


    C5    D5 C5 D5 N.C.       F5    G5 C5 D5 N.C.
     E     E  E  E H           E     E  E  E H
||--------------------------|-------------------------|
||o-------------------------|-------------------------|
||--------------------------|-------------------------|
||--10h===12-10h12----------|-15h===17-10h12----------|
||o-10h===12-10h12----------|-15h===17-10h12----------|
||--10h===12-10h12----------|-15h===17-10h12----------|
|
|   Gtr III
|    E     E  E  E E E E E     E     E  E  E E E E E
||--------------------------|-------------------------|
||o-------------------------|-------------------------|
||---4b6===4--4--4-4-4-4-4r-|-------------------------|
||--------------------------|--3b4===3--3--3-3-3-3-3r-|
||o-------------------------|-------------------------|
||--------------------------|-------------------------|


  C5    D5 C5 D5 N.C.       F5    G5 C5 D5       N.C.
   E     E  E  E H           E     E  E  E  Q    Q      4x
|-------------------------|-----------------------------||
|-------------------------|----------------------------o||
|-------------------------|-----------------------------||
|-10h===12-10h12----------|-15h===17-10h12-12\----------||
|-10h===12-10h12----------|-15h===17-10h12-12\---------o||
|-10h===12-10h12----------|-15h===17-10h12-12\----------||
|
|  E     E  E  E E E E E     E     E  E  E  E  E E E    4x
|-------------------------|-----------------------------||
|-------------------------|----------------------------o||
|-------------------------|-----------------------------||
|-------------------------|--4b5===4--4--4--4--4-4-4r---||
|--1b3===1--1--1-1-1-1-1r-|----------------------------o||
|-------------------------|-----------------------------||


  C5     D5 C5 D5 N.C.           F5     G5 C5 D5 N.C.
   E      E  E  E H               E      E  E  E H
|------------------------------|------------------------------|
|------------------------------|------------------------------|
|------------------------------|------------------------------|
|-10h====12-10h12--------------|-15h====17-10h12--------------|
|-10h====12-10h12--------------|-15h====17-10h12--------------|
|-10h====12-10h12--------------|-15h====17-10h12--------------|
|
|  H.                 +E  +E      H.                 +E  +E
|-(7)b9===============(7)-(7)r-|------------------------------|
|------------------------------|-(6)b7===============(6)-(6)r-|
|--4b6====4--4--4-4-4--4---4r--|------------------------------|
|------------------------------|--3b4====3--3--3-3-3--3---3r--|
|------------------------------|------------------------------|
|------------------------------|------------------------------|
   E      E  E  E E E  E   E      E      E  E  E E E  E   E


  C5     D5 C5 D5 N.C.           F5     G5 C5 D5       N.C.
   E      E  E  E H               E      E  E  E  Q     Q
|------------------------------|--------------------------------|
|------------------------------|--------------------------------|
|------------------------------|--------------------------------|
|-10h====12-10h12--------------|-15h====17-10h12-12\------------|
|-10h====12-10h12--------------|-15h====17-10h12-12\------------|
|-10h====12-10h12--------------|-15h====17-10h12-12\------------|
|
|  H.                 +E  +E      H.                   +E  +E
|------------------------------|--------------------------------|
|------------------------------|-(7)b8=================(7)-(7)r-|
|-(3)b5===============(3)-(3)r-|--------------------------------|
|------------------------------|--4b5====4--4--4--4--4--4---4r--|
|--1b3====1--1--1-1-1--1---1r--|--------------------------------|
|------------------------------|--------------------------------|
   E      E  E  E E E  E   E      E      E  E  E  E  E  E   E


  C5     D5 C5 D5 N.C.           F5     G5 C5 D5 N.C.
   E      E  E  E H               E      E  E  E H
|------------------------------|------------------------------|
|------------------------------|------------------------------|
|------------------------------|------------------------------|
|-10h====12-10h12--------------|-15h====17-10h12--------------|
|-10h====12-10h12--------------|-15h====17-10h12--------------|
|-10h====12-10h12--------------|-15h====17-10h12--------------|
|
|  H.                 +E  +E      H.                 +E  +E
|-(7)b9===============(7)-(7)r-|------------------------------|
|------------------------------|-(6)b7===============(6)-(6)r-|
|--4b6====4--4--4-4-4--4---4r--|------------------------------|
|------------------------------|--3b4====3--3--3-3-3--3---3r--|
|------------------------------|------------------------------|
|------------------------------|------------------------------|
   E      E  E  E E E  E   E      E      E  E  E E E  E   E


  C5     D5 C5 D5 N.C.           F5     G5 C5 D5            N.C.
   E      E  E  E H               E      E  E  E  +Q        Q
|------------------------------|-------------------------------*|
|------------------------------|-------------------------------*|
|------------------------------|-------------------------------*|
|-10h====12-10h12--------------|-15h====17-10h12-(12)\---------*|
|-10h====12-10h12--------------|-15h====17-10h12-(12)\---------*|
|-10h====12-10h12--------------|-15h====17-10h12-(12)\---------*|
|
|  H.                 +E  +E      H               +E   +E   Q
|------------------------------|-------------------------------*|
|------------------------------|-(7)b8============(7)--(7)r----*|
|-(3)b5===============(3)-(3)r-|-------------------------------*|
|------------------------------|--4b5====4--4--4---4----4r-----*|
|--1b3====1--1--1-1-1--1---1r--|-------------------------------*|
|------------------------------|-------------------------------*|
   E      E  E  E E E  E   E      E      E  E  E   E    E   Q



Duration Legend
---------------
W - whole; H - half; Q - quarter; E - 8th; S - 16th; T - 32nd; X - 64th; a - acciaccatura
+ - note tied to previous; . - note dotted; .. - note double dotted
Uncapitalized letters represent notes that are staccato (1/2 duration)
Irregular groupings are notated above the duration line
Duration letters will always appear directly above the note/fret number it represents the
duration for.  Duration letters with no fret number below them represent rests.  Multi-
bar rests are notated in the form Wxn, where n is the number of bars to rest for.  Low
melody durations appear below the staff

Tablature Legend
----------------
 h   - hammer-on
 p   - pull-off
 b   - bend
 pb  - pre-bend
 r   - bend release (if no number after the r, then release immediately)
 /\  - slide into or out of (from/to "nowhere")
 s   - legato slide
 S   - shift slide
 - natural harmonic
[n]  - artificial harmonic
n(n) - tapped harmonic
 ~   - vibrato
 tr  - trill
 T   - tap
 TP  - trem. picking
 PM  - palm muting
\n/  - tremolo bar dip; n = amount to dip
 \n  - tremolo bar down
 n/  - tremolo bar up
/n\  - tremolo bar inverted dip
 =   - hold bend; also acts as connecting device for hammers/pulls
 <> - volume swell (louder/softer)
 x   - on rhythm slash represents muted slash
 o   - on rhythm slash represents single note slash

Misc Legend
-----------
 |  - bar
||  - double bar
||o - repeat start
o|| - repeat end
*|  - double bar (ending)
 :  - bar (freetime)
 $  - Segno
 &  - Coda
Tempo markers -  = BPM(8/16=s8/s16), where s8 = swing 8ths, s16 = swing 16ths

comments
We did not receive enough feedback on this tab! Please rate:
print report bad tab
1 2 3 4 5
I want to post or [tab]
guest
You may want to rate the tab now too:
select rating
Please do not post tabs as comments. Select "correction" instead!