Oops, an error
Loading. Please wait.

And All That Could Have Been Tab

ver1
ver1

Album

Interactive

More versions @911Tabs.com
7,443 views 15 this week
4 commentsread comments
1 2 3 4 5
not so good
x 3
Autoscroll
+/-
esc
set tempo
stop
Contributor
Hey! There's an official Ultimate Guitar app which is ideal
for learning songs when you're away from computer. Get the app
WARNING: You are trying to view
                                    content from Ultimate-Guitar.com
                                    in an unauthorized application,
                                    which is prohibited.

                                    Please use an official Ultimate
                                    Guitar Tabs application for iPhone,
                                    iPad or Android to access legitimate
                                    chords, guitar, bass, and drum tabs
                                    from Ultimate-Guitar.com database.

                                    Type "ultimate guitar tabs" in Apple
                                    App Store's or Android Market's
                                    search to find the application.
Heres the halo 17 cd 1 tab and all that could have been these songs are live and since the
tabs are off the cd im just going to take the cd versions and let you figure the rest out

Tracks
1.  TERRIBLE LIE
2.  SIN
3.  MARCH OF THE PIGS
4.  PIGGY
5.  THE FRAIL
6.  THE WRETCHED
7.  GAVE UP
8.  THE GREAT BELOW
9.  THE MARK HAS BEEN MADE
10. WISH
11. SUCK
12. CLOSER
13. HEAD LIKE A HOLE
14. THE DAY THE WORLD WENT AWAY
15. STAR****ERS, INC.
16. HURT

-----------------------------------------------------------------------------

1.  TERRIBLE LIE
From: SPEX49D@prodigy.com (MR JOHN M VETTESE)

Terrible Lie
Guitar
  God why are you doing this to me?
  Rhythm Fig. 1               End Rhythm Fig. 1
|------------------------------------7-7---7---|
|----------------------------------------------|
|-6------------------------------------------4-|
|-6------------------------------------------4-|
|-4------------------------------------------2-|
|----------------------------------------------|
(Bass Out)

w/Rhythm Fig. 2 (3 times)
Am I not living up to what I am supposed to be?
Why am I seething with this animosity?
I think you owe me a great (fucking) big apology! Terrible

Synth Arr. For Guitar #1
   lie!                                                         Terrible
 Lead Fig. 1
|-------------------------------12-12-|----------------------------------|
|-------------------------------------|----------------------------------|
|-------------------------------------|----------------------------------|
|--11----11---11----11-14-14-12-------|-14-----------------14-14---------|
|-----14----14------------------------|-----7--7---7-9--7----------------|
|-------------------------------------|-------9--9-------9---------------|
Guitar #2
 Rhythm Fig. 2
|-------------------------------------|----------------------------------|
|-------------------------------------|----------------------------------|
|--6----------------------------------|----------------------------------|
|--6----------------------------------|-5--------------------------------|
|--4----------------------------------|-5--------------------------------|
|-------------------------------------|-3--------------------------------|
Bass
 Bass Fig. 1
|-------------------------------------|----------------------------------|
|-------------------------------------|----------------------------------|
|--4----------------------------------|----------------------------------|
|-------------------------------------|-3--------------------------------|


Synth Arr For Guitar #1
  lie!                                                   Terrible
                                                end Lead Fig. 1
|-----------------------------9----|-----------------------------|
|-------------------------------12-|-----------------------------|
|----------------------------------|-14--------------------------|
|-------------14-14-12-------------|--------------14-14----------|
|--7--7--7--7----------------------|------7--7--7----------------|
|----9--9--9-----------------------|--------9--9-----------------|
Guitar #2
                                              end Rhythm Fig. 2
|----------------------------------|-----------------------------|
|----------------------------------|-----------------------------|
|--4-------------------------------|---------------------4-------|
|--4-------------------------------|-4-------------------4-------|
|--2-------------------------------|-4-------------------2-------|
|----------------------------------|-2---------------------------|
Bass
                                                end Bass Fig. 1
|----------------------------------|-----------------------------|
|----------------------------------|-----------------------------|
|--2-------------------------------|-----------------------------|
|----------------------------------|-2---------------------------|


w/Lead Fig. 1, Rhythm Fig. 2, Bass Fig. 1
lie!
Terrible lie! Hey

(Guitar #2 & Bass out)
w/Rhythm Fig. 1 (4 times)
God, I really don't know what you mean.
Seems like salvation comes only in our dreams.
I feel my hatred grow all the more extreme.
Hey God, can this world really be as sad as it seems? Terrible

w/Lead fig. 1, Rhythm fig. 2, Bass fig. 1 (2 times)
lie!
Terrible lie!
Terrible lie!
Terrible lie!

(Both Guitars and Bass out)
Don't tear it away from me, I need somone to hold on to
Don't tear it away from me, I need somone to hold on to
Don't tear it away from me, I need somone to hold on to
Please don't tear it away from me, Motherfucker needs somone to hold on to

(Bass and Guitar enter)

  Don't tear it away from me, I need somone to hold on to
Guitar
|---------------------------|-----------------------------|
|---------------------------|-----------------------------|
|---------------------------|-----------------------------|
|-4-------------------------|-5---------------------------|
|-4-------------------------|-5---------------------------|
|-2-------------------------|-3---------------------------|
Bass
|---------------------------|-----------------------------|
|---------------------------|-----------------------------|
|---------------------------|-----------------------------|
|-2-------------------------|-3---------------------------|


  Don't tear it away from me, I need....
Guitar
|---------------------------|-----------------------------|
|---------------------------|-----------------------------|
|---------------------------|-----------------------------|
|-2-------------------------|-4---------------------------|
|-2-------------------------|-4---------------------------|
|-0-------------------------|-2---------------------------|
Bass
|---------------------------|-----------------------------|
|---------------------------|-----------------------------|
|---------------------------|-----------------------------|
|-0-------------------------|-2---------------------------|


  Don't tear it away from me, I need you to hold on to
Guitar
|---------------------------|-----------------------------|
|---------------------------|-----------------------------|
|---------------------------|-----------------------------|
|-4-------------------------|-5---------------------------|
|-4-------------------------|-5---------------------------|
|-2-------------------------|-3---------------------------|
Bass
|---------------------------|-----------------------------|
|---------------------------|-----------------------------|
|---------------------------|-----------------------------|
|-2-------------------------|-3---------------------------|


  Don't take it, don't take it,  don't take it, don't take it, don't!
Guitar
|------------------------------|----------------------------------------|
|------------------------------|----------------------------------------|
|------------------------------|--------------------------------------4-|
|-2----------------------------|-4------------------------------------4-|
|-2----------------------------|-4------------------------------------2-|
|-0----------------------------|-2--------------------------------------|
Bass
|------------------------------|----------------------------------------|
|------------------------------|----------------------------------------|
|------------------------------|----------------------------------------|
|-0----------------------------|-2--------------------------------------|


(Bass out)
w/Rhythm Fig. 1 (4 times)
There's nothing left for me to hide,
I lost my ignorance, security, and pride.
I'm all alone in a world you must despise.
Hey God, I believed your promises! Your promises and lies! Terrible

w/Lead Fig. 1, Rhythm Fig. 2, Bass Fig. 1 (4 times)
lie!
Terrible lie!
Terrible lie!
Terrible lie!
Terrible lie!
(You made me throw it all away, my morals left to decay,)
Terrible lie!
(how many you betry, you've taken everything)
Terrible lie!
(My head is filled with disease, my skin is begging you please,)
Terrible lie!
(I'm on my hands and knees, I want so much to believe)
-----------------------------------------------------------------------------

2.  SIN
Tablature by: Aaron Nolan [speed_racer420@hotmail.com]

Tuning: Normal

Distortion: Yes--To make the song sound correct, fiddle with your distortion a
bit to make it sound right, like trent's guitar, I reccomend turing up the treble
quite a bit.  OK!, Il'l stop talking and get the tab goin

----===SIN===----

wb-washboard (set fingers over the strings and strike for blunted sound)

E--3-/-4-wb-1---3-----|
A---5/--6----3---5----|
D---5/--6----3---5----|
G---------------------|
B---------------------|
E---------------------|

-----------------------------------------------------------------------------

3.  MARCH OF THE PIGS
From: GARDNERCJ%CS32@cadetmail.usafa.af.mil (Turbopunk)

------------------------|
------------------------|
------------------------|
------------------------|
-------------5-5-6-6-8--|
------5-6-8-------------|
^play 3 times then

-------5-5-6-8-10 --|
-5-6-8--------------|

Play whole thing twice, then :

------------------|
------------------|
--7-7-7-7---------|
--7-7-7-7-5-3-----|
--5-5-5-5-5-3-3---|
--------------4---|
Play 3 times then :

----------------------|
----------------------|
--7-7-7-7-------------|
--7-7-7-7-5-3-2-3-5-6-|
--5-5-5-5-5-3-2-3-5-6-|
----------------------|

Repeat until this part :

a 5555555555555555-------------------------------------------------|
e ----------------444444444444444433333333333333331111111111111111-|

repeat 3 1/2 times, then accoustic :

------------|
--3 5---5-7-|
--3 5--5--7-|
--3 5-5---7-|
------------|
------------|

Repeat Everything but into again.
Second accoustic part :

---------------------------------------------------------|
--3-5---5-7-----------5 --5-7---3-5-7---------------13---|
--3-5--5--7-----3-----5--5--7---3-5-7-------------10-----|
--3-5-5---7---3-3-3-3-5 5---7---3-5-7------------10------|
--------------------1-----------1-3-5--5-7-9----9--------|
---------------------------------------6-8-10-10---------|


Hope you can decipher it!
-----------------------------------------------------------------------------

4.  PIGGY
By: Jon Craven (i_apathy@hotmail.com)

For questions, comments, feedback, an outline of the timing, write the above
address.

Note:
  -Played with a pick.

(4/4)(66 bpm)
Standard tuning

r - eighth rest
* - note held for an eighth beat
R - quarter rest
p - pull-off
. - sixteenth rest

Verse 1: (x2)(0:02)
|----------------|----------------|----------------|-----------------|
|----------------|----------------|----------------|-----------------|
|------5-*-*-R---|----------------|------5-*-*-R---|--------------8p7|
|7---r-----------|5---r-4-*-*-R---|7---r-----------|5---r-4-*-*-r----|

|----------------|----------------|----------------|-----------------|
|----------------|----------------|----------------|-----------------|
|------5-*-*-R---|----------------|------5-*-*-R---|--------------8p7|
|7---r-----------|5---r-4-*-*-R---|7---r-----------|5---r-4-*-*-r----|

|----------------|----------------|----------------|----------------|
|----------------|----------------|----------------|----------------|
|------5-*-*-R---|----------------|------5-*-*-R---|----------------|
|7---r-----------|5---r-4-*-*-R---|7---r-----------|5---R---R---R---|

Chorus: (x2)(0:45)
|----------------|----------------|----------------|----------------|
|----------------|----------------|----------------|----------------|
|----------------|------------55r-|----------------|----------------|
|5777r-5777r-5777|r-5777r-88r-----|5777r-5777r-5777|5777r-578.r-R---|

Verse 2: (1:14)
|----------------|----------------|----------------|-----------------|
|----------------|----------------|----------------|-----------------|
|------5-*-*-R---|----------------|------5-*-*-R---|--------------8p7|
|7---r-----------|5---r-4-*-*-R---|7---r-----------|5---r-4-*-*-r----|

|----------------|----------------|----------------|-----------------|
|----------------|----------------|----------------|-----------------|
|------5-*-*-R---|----------------|------5-*-*-R---|--------------8p7|
|7---r-----------|5---r-4-*-*-R---|7---r-----------|5---r-4-*-*-r----|

|----------------|----------------|
|----------------|----------------|
|------5-*-*-R---|----------------|
|7---r-----------|5---r-4-*-*-R---|

Chorus (x2)
Rest for one measure

Outro: (x6)(2:23)
|----------------|----------------|----------------|----------------|
|----------------|----------------|----------------|----------------|
|------------7777|r-------55r-44r-|------------7777|r---------------|
|5777r-3333r-----|--5555r---------|5777r-3333r-----|--5555r-R---R---|

Rest till end
-----------------------------------------------------------------------------

5.  THE FRAIL
The Frail, from `The Fragile` by NINE INCH NAILS,tabbed by Justin Schwarz

Turning dropped-D
    (0:00-0:09)      (0:09-0:17)     (0:17-0:25)      (0:25-0:33-----|
e|--------------|-----10--------|----------------|-------------------|
B|--8-----------|--8-----6------|--5---6---------|--8----------------|
G|-----5--------|-----------5-4-|-------------4--|------5------------|
D|---------8--5-|-------------5-|---------10-----|----------8---5----|
A|--5--6---8----|--5--6--8------|--5---6--8------|--5---6---8--------|
D|------------5-|---------------|-------------5--|--------------5----|
    (0:33-0:41)             (0:42-0:50)              (0:50-0:58------|
e|---------------------|-----------------|------10-------------------|
B|--5---6-----------3--|--6-------8---3--|--8------------------------|
G|---------------------|------5----------|-----------6---5-4---------|
D|-----------8--10-----|-----------------|-----------------5---------|
A|--5---6----8---------|--5---6---8------|--5---6----8---------------|
D|------------------5--|--------------5--|---------------------------|
   (0:58-1:04)       (1:04-1:07)    (1:08-1:54-----------------------| (x3)
e|------------------|-----------|------------------------------------|
B|--5---6-----------|-----------|------------------------------------|
G|------------------|-----------|------------------------------------|
D|----------8---5---|-----------|------------------------------------|
A|--5---6---8-------|-----------|------------------------------------|
D|--------------5---|-----------|--0---1---3---5---------------------|


THIS SHOULD BE 99.99% CORRECT, IF NOT EMAIL ME AT SHR0OMHEAD420@aol.com
-----------------------------------------------------------------------------

6.  THE WRETCHED
Transcribed by --==<[aRyAn]>==--
ss4_aaron@yahoo.com

      h - hammer on
      p - pull off
      b - bend string up
      r - release bend
      / - slide up
      \ - slide down
      v - vibrato (sometimes written as ~)
      t - tap (with strumming hand)
      x - muted, struck string

[piano riff translated for guitar]

e|---------------------------------------------------------------------------|
B|---------------------------------------------------------------------------|
G|---------------------------------------------------------------------------|
D|-------------------------------------------------------3-------------------|
A|---------5-------------5--------------5-------------------5----------------|
E|-3-4-5----4---3-4-5-----4--3-4-5-----4---3-4-5-----------------------------|

[first riff played by electric]

high reverb/distortion/delay

e|---------------------------------------------------------------------------|
B|---------------------------------------------------------------------------|
G|---------------------------------------------------------------------------|
D|------------------v3--0---------------v3--0--------------------------------|
A|---3--3--2--1-----------3--3--2--1-----------------------------------------|
E|---------------------------------------------------------------------------|

[prechorus]

let each of these ring for about a quarter to half count

e|--------------------------------------------------------------------|
B|--b13-/--b12-\--b3-/--b15-------------------------------------------|
G|--------------------------------------------------------------------|
D|--------------------------------------------------------------------|
A|--------------------------------------------------------------------|
E|--------------------------------------------------------------------|

[chorus riff]
(heavy distortion)
e|--------------------------------------------------------------------|
B|--------------------------------------------------------------------|
G|--------------------------------------------------------------------|
D|--------------------------------------------------------------------|
A|--------------------------------------------------------------------|
E|---6-6-7-7-8-8-10-10---3-1-3--b3------------------------------------|

[solo]

part 1
e|--------------------------------------------------------------------|
B|--------------------------------------------------------------------|
G|-b6-------b6--------------------------------------------------------|
D|------b3-------b3--3-3-/-v5-----------------3-----------------------|
A|-----------------------------------1-3-4-3-1----1-3-4-3-1-----------|
E|-----------------------------------------------------------------3--|
part 2
e|--------------------------------------------------------------------|
B|------------------------------------------------------0-------------|
G|-b6-----b6----------------------------------------------------------|
D|-----b3-----b3---3--5-5-3-3-----------------------------------------|
A|-----------------------------------5-5-3-3-3-1----------------------|
E|--------------------------------------------------------------------|

--==<[aRyAn]>==--
-----------------------------------------------------------------------------

7.  GAVE UP
tabbed by Tom Mallon

Guitar Riff 1 (appears behind verses)
E -------------------------------------------------------------------|
B -------------------------------------------------------------------|
G -------------------------------------------------------------------|
D --2---4------------------------------------------------------------|
A --2---4------------------------------------------------------------|
E --0---2------------------------------------------------------------|

Chorus Riff 1 (at "It took you...")
E |-----------------------------------------|
B |-----------------------------------------|
G |.--9--\---------------5-4-2---------5\4-.|
D |.--9--\--7--\--4------5-4-2--4------5\4-.|
A |---7--\--7--\--4------3-2-0--4------3\2--|
E |---------5--\--2-------------2-----------|

Chorus Riff 2 (at "Smashed up my sanity...")
E |-----------------------------------------------|
B |-----------------------------------------------|
G |.--9----11\------------------5-4-2--------5\4-.|
D |.--9----11\---7----9--\--4---5-4-2--4-----5\4-.|
A |---7----9-\---7----9--\--4---3-2-0--4-----3\2--|
E |--------------5----7--\--2----------2----------|

Synth Solo (1:21) (play twice)
E ---------------------------------------------------|
B ---------------------------------------------------|
G ---------------------------------------------------|
D ---------------------------------------------------|
A -3-3--333--3h4p3p2p0------3-3--333--3h4p3p2p0------|
E ---------------------2------------------------2----|

E ------------------------------|
B ------------------------------|
G ------------------------------|
D ------------------------------|
A ----------------------3p2p0---|
E --2--2--2-5--0h2-2-2----------|

(Note: This is my best guess. It's a little hard to figure it out because
 the notes are a little muddy. This is just a rough estimate.)

There is another synth burst at 2:55. It sounds like one chord being bent
by a pitch shifter, so I just bend the living shit out a chord that is
shaped like x-x-16-18-19-x. It's some sort of F# chord.

Outro Synth Line (also appears at 2:55)
E -------------------------------------------------------------------|
B -------------------------------------------------------------------|
G --/9------------/9------------/9-------------/9--------------------|
D ------9--7----------9--7----------7--------------7-----------------|
A ------------9-------------9----------9--7-----------9--7-----------|
E -------------------------------------------------------------------|

-----------------------------------------------------------------------------

8.  THE GREAT BELOW
Transcribed by --==<[aRyAn]>==--
ss4_aaron@yahoo.com

This Tab was transcribed by me and no-one else

[riff1]

e|-1-2-4-1-2-4-4/5/4-----------|
b|-----------------------------|
g|-----------------------------|
d|-----------------------------|
a|-----------------------------|
e|-----------------------------|

use high reverb, and if possible use digital delay, but if not
just plain full out reverb will work

[riff2]

e|-----------------------------------------------------|
b|-9--7-----------9--7----------9--7---------9--7------|
g|--------8--6-8--------8-6-8--------8-6-9--------8-6-8|
d|-----------------------------------------------------|
a|-----------------------------------------------------|
e|-----------------------------------------------------|

email me at ss4_aaron@yahoo.com if you need any help

--==<[aRyAn]>==--
-----------------------------------------------------------------------------

9.  THE MARK HAS BEEN MADE
tab by Rafael Aguilar


e|---------------------------------|
B|---------------------------------|
G|---------------------------------|
D|----7b-7b-5-4~-----7b---7b-5-4---| 6 times
A|--5--------------5----5----------|
E|---------------------------------|

   Then

e|---------------------------------------|
B|---------------------------------------|
G|---------------------------------------|
D|---------------------------------------| 3 times
A|--5-4-0-3-2---------5-4-0-3-2----------|
E|------------3-0-3-4-----------3-0-3-1--|


   Then
  (with wah pedal)
e|------------------------------------------|
B|------------------------------------------|
G|---------x-x---------x-x----x----x-x--x---|
D|---------x-x---------x-x----x----x-x--x---| a couple of times
A|-5-8b-8b-x-x-5-8b-8b-x-x-8b-x-8b-x-x--x---|
E|------------------------------------------|


this riff is played behind the one above
i think the third time into it although im not really
sure.
e|-----------------------------------|
B|-----------------------------------|
G|--7/6--6/5--5/4--3-2---------------|
D|--7/6--6/5--5/4--3-2---------------|
A|--5/4--4/3--3/2--1-0---------------|
E|-----------------------------------|

End
e|---------------------------------------|
B|---------------------------------------|
G|---------------------------------------|
D|-12--12--11--11--10--10--9--9----------| 3 times (i think)
A|---------------------------------------|
E|---------------------------------------|

-----------------------------------------------------------------------------

10. WISH
From: switzerd@freenet3.scri.fsu.edu (David Eli Switzer)

Play this bit during the vocals:
("riff A")
-----------------------|-------------|
-----------------------|----12-12-12-|
-14/16\14-12---12---14-|-14----------|
-----------------------|-------------|
-----------------------|-------------|
-----------------------|-------------|

But I am the one usually screaming (err, singing), and
that lead line is a bit touch while screaming, so I usually
get my bassist to play it like so:
(Which actually I think sounds better)
-----------------------|--------------|
-----------------------|----9--9--9---|
-12/14\12-10---10--12--|-12-----------|
-----------------------|--------------|

So ya play that while you sing the verses.. so you sing
a line, then hit the chords, which are as follows:
(for this, strum up and down, slam all the chords, go
bonkers.. this is nin, the more noise the better)

("riff b")
-----------------------------------|
-----------------------------------|
-7-7-7-7-7-8-7--7-7-7-7-7-8-7------|
-7-7-7-7-7-8-7--7-7-7-7-7-8-7------|
-5-5-5-5-5-6-5--5-5-5-5-5-6-5------|
-----------------------------------|

So:

RiffA				       Riff B
This is the first day, of my last days ...................
(a) Build it up, now take it apart, climbed up real high, now falldown
real far (b)
(a) No need for me to stay, last thing left, I just threw it away! (b)
(a) my faith in god, or  my trust in you, now there's nothing more fucked
up I can do! (b)
(at the last line, play the "riff b", pause a sec, then do it again)

Chorus is basically "riff b" plus 2 chords:

----			       ---|
-10-			       -5-|
-10-			       -5-|
-10-			       -5-|
-8--			       -3-|				Riff B
----			       ---|

Wish there was something real, wish there was something true.
Wish there was something real, in this world full of you!


Next verse (same guitar parts)
Now I'm the one without a soul, I'm the one  with this big fucking hole!
No new tale to tell, 26 years, on my way to hell.
Gotta listen to your big time hard line bad luck FIST FUCK!
Well don't think you're having all the fun, you know me, I hate EVERYONE!

Back to chorus, but throw in more "This world full of YOU!"

Then it's basically a jam time, with a distorted synth line,
and i'll tell ya, it's pretty easy if you have other people going
nuts with this behind you to go from the "riff b" to the synth
line, and make it sound nice and full. It's really easy.
For the line, I drop low E to a D so I can just use 1 finger.
You know the part, listen to the music:

(Ugh, time is slim, I'll just show the fret on the low-e (now a d),
and you understand, just press down all the strings there)

-5-3-5-6-5-3-0---5-3-5-6-5-3-0------

Have fun. It's a great song to let loose on.
--
| David Eli Switzer
| switzerd@freenet.acns.fsu.edu
| Moderator of freenet.kids.*
| Future bumpersticker: I'd rather be REALLY USING THE INTERNET! WISH
-----------------------------------------------------------------------------

11. SUCK
tabbed by Tom Mallon

Main Bass Riff
G |-----------------------|
D |.------0--1-----------.|
A |.---------------------.|
E |---0----------0---0h3--|

Verse Riff (This is really a synth, going from D to E. I play it like this,
            it sounds really close and you don't have to tune down.)
E --------|
B --------|
G --------|
D --0h2---|
A --0h2---|
E --0-----|

Chorus Guitar Riff
E -----------------------------------------------|
B -----------------------------------------------|
G -9--7--10--7--------7-----9--7---------3-------|
D -9--7--10--7--7--9--7-----9--7--7--5---3---5---|
A -7--5--8---5--7--9--5-----7--5--7--5---1---5---|
E --------------5--7--------------5--3-------3---|

E -----------------------------------------------|
B -----------------------------------------------|
G -9--7--10--7--------7-----9--7-----------------|
D -9--7--10--7--7--9--7-----9--7--7------5--5--5-|
A -7--5--8---5--7--9--5-----7--5--7------5--5--5-|
E --------------5--7--------------5------3--3--3-|

Bridge Bass Riff
G |----------------------------------------|
D |.--------------2---------3-------------.|
A |.--------------------------------------.|
E |--0-0-0-0-0-0-----3-3-3-----4-4-4--5-6--|

Synth/Guitar Line in Final Chorus (3:20)
E --------------------------------------------------------------------------|
B --------------------------------------------------------------------------|
G ---------------------------------------4^---------------------------------|
D --8-\-7----7-\-5-----8-\-7----8--7--5----------5--------------------------|
A --------------------------------------------7-----------------------------|
E --------------------------------------------------------------------------|

-----------------------------------------------------------------------------

12. CLOSER
tanscribed by John Vettese (spex49d@prodigy.com)


x=deaden
/=slide
~=vibrato

1ST VERSE (bass w/wah pedal)
1:----5---------3-------5--------3--0--------|
2:-------------------------------------3--0--|
3:-3-----x--3-3----x-3-----3--3--------------|
4:-------------------------------------------|

1ST CHORUS (clean bass and one clean guitar)
Bass
1:---------------|
2:---------------|
3:------x-1-x-2--|
4:-1-------------|

Guitar
1:------1-----------|
2:------------------|
3:------------------|
4:-3--------3---4---|
5:-3----------3---4-|
6:-1--1---1---------|

2ND VERSE (bass w/wah pedal, one guitar w/chorus pedal, one clean
guitar)
Bass
(Same as 1st verse)

Guitar 1 (w/chorus pedal)
1:----------------------------3~~~/12~~~-|
2:-5~~~~~~~~~~~~~~~-6~~~~~~~-------------|
3:---------------------------------------|
4:---------------------------------------|
5:---------------------------------------|
6:---------------------------------------|

Guitar 2 (clean)
1:----------------------------3333-4444--|
2:-5555555555555555-66666666-------------|
3:---------------------------------------|
4:---------------------------------------|
5:---------------------------------------|
6:---------------------------------------|

2ND CHORUS (clean bass and two clean guitars)
Bass
 (Same as 1st Chorus)
Guitar 1
 (Same as 1st Chorus)
Guitar 2
1:--------------------------------|
2:----------------------4----4----|
3:----2----3--3--5------5----5----|
4:----3----5--5--6----------------|
5:--------------------------------|
6:--------------------------------|

INTERLUDE (clean bass, one guitar w/chorus pedal, one guitar
w/distortion
           pedal)
Bass
1:---------------------------|
2:---------------------------|
3:---------------------------|
4:-0-0-0-1-------------------|
Guitar 1 (w/chorus pedal)
 (same as 2nd Verse)
Guitar 2 (w/distortion pedal, after a few repetitions)
1:------------------------------|
2:------------------------------|
3:--------6-5-------------------|
4:-2--2-3-6-5--6-7--6-8--6-5-4--|
5:-2--2-3-4-3--6-7--6-8--6-5-4--|
6:-0--0-1------4-5--4-6--4-3-2--|

PRE-OUTRO (clean bass, one guitar w/chorus pedal, one guitar w/wah
pedal)
Bass
 (same as interlude)
Guitar 1 (w/chorus pedal)
 (same as 2nd Verse)
Guitar 2 (w/wah pedal)
1:-----------------------|
2:-----------------------|
3:-----------------------|
4:-3----3----3----1-3-1--|
5:---3---------3---------|
6:---------4-------------|

OUTRO (bass w/wah pedal, two guitars w/chorus pedals)
Bass (w/wah pedal)
1:---------------------------8-|
2:-10--8--10--8-8--10--8-10----|
3:-----------------------------|
4:-----------------------------|

Guitar 1 (w/chorus pedal)
 (same as 2nd verse)
Guitar 2 (w/chorus pedal, after a few repetitions)
1:-----------------------------------------------------------|
2:-----------------------------------------------------------|
3:-----------------------------------------------------------|
4:-5~~~-3~~~~~~~-3~~~-2~~~~~~~-1~~~----------------3~~~~~~~~-|
5:----------------------------------5~~~~~~~-1-1-0-----------|
6:-----------------------------------------------------------|

then, by itself

1:-------------------------------------------------------------------|
2:-------------------------------------------------------------------|
3:-12~~~-10~~~~~~~-10~~~-9~~~~~~~--------------------------10~~~~~~~-|
4:--------------------------------13~~~-12~~~~~~~-13-13-12-----------|
5:-------------------------------------------------------------------|
6:-------------------------------------------------------------------|

                               THE END!!!
-----------------------------------------------------------------------------

13. HEAD LIKE A HOLE

The main bassline for the song is: by Tim Davis (davist@cs.man.ac.uk)
Riff 1
G|--------------------|----------------|--------------------|------------|
D|--------------------|----------------|--------------------|------------|
A|--------------------|----------------|--------------------|------------|
E|-12-0-0-13-0-0-10-0-|-5-0-4-5-4-1-0--|-12-0-0-13-0-0-10-0-|-5-0-4--0---|

Lyrics:
 Guitar (out)
 Bass (Riff 1)
	God money I'll do anything for you.
	God money just tell me what you want me to.
	God money nail me up against the wall.
	God money don't want everything he want it all.

Bridge 1:
 Guitar (out)
 Bass (Riff 1)
	No you can't take it, no no you can't take it.
	(No you can't take it away from me.)

Chorus
  Guitar(This is just a way you can play it-- not Trent's exact way)
   E                  E                 A                E
e|------------------|-----------------|----------------|----------------|
B|------------------|-----------------|----------------|----------------|
G|-9-99999999-9/10\9|-9-999999999/10\9|-777777777-/8\7-|-9999999999/10\9|
D|-9-99999999-9/10\9|-9-999999999/10\9|-7777777777/8\7-|-9999999999/10\9|
A|-7-77777777-7/8 \7|-7-777777777/8 \7|-5555555555/6\5-|-7777777777/8 \7|
E|------------------|0----------------|0---------------|0---------------|

  Bass Guitar (This is just an arrangement that sounds good)
G|------------------|-----------------|----------------|----------------|
D|------------------|-----------------|----------------|----------------|
A|------------------|-----------------|----------------|----------------|
E|-12-0-0-540-10-0--|-12-0-0-540-10-0-|-10-0-0-540-5-0-|-12-0-0-540-10-0|
  Head Like a Hole, Black as your soul,I'd rather die   than give you
  control

Bridge 2:
 Guitar (out)

 Bass Guitar
G|------------------|-----------------|----------------|----------------|
D|------------------|-----------------|----------------|----------------|
A|------------------|-----------------|----------------|----------------|
E|-12-0-0-540-10-0--|-12-0-0-540-10-0-|-10-0-0-540-5-0-|-10-0-0-540-5-0-|
 Bow down before the one you serve    you're going to get what you deserve
 Bow down before the one you serve    you're going to get what you deserve


Lyrics:
	God money's not looking for the cure.
	God money's not concerned about the sick among the pure.
	God money lets go dancing on the back's of the bruised.
	God money's not one to choose.

Chorus (X2)
 Bow down before the one you serve    you're going to get what you deserve
 Bow down before the one you serve    you're going to get what you deserve
 you know who you are.

=-=-=-=-=-=-=-=-=-=-=-=-=-=-=-=-=-=-=-=-=-=-=-=-=-=-=-=-=-=-==-=-=-=-=-=-=
        PLEASE DO NOT REPLY TO HEADER! ITS NOT MY ADDRESS!
                INSTEAD REPLY TO  --> mockud@rpi.edu    -- Darrell

     " Some are confused, most are just irritated " -- David Letterman
=-=-=-=-=-=-=-=-=-=-=-=-=-=-=-=-=-=-=-=-=-=-=-=-=-=-=-=-=-=-==-=-=-=-=-=-=

14. THE DAY THE WORLD WENT AWAY
Transcribed by --==<[aRyAn]>==--
ss4_aaron@yahoo.com

(note:the reason I tabbed this is because,
the other version is extremely primative,
incomplete, and obsolete.)

[main riff]

distorted low end/mids

guitar1

e|---------------------------------------------------------------------|
B|---------------------------------------------------------------------|
G|-6-6-6-6-6-6-6--4-4-4-4-4-4-4----------------------------------------|
D|-6-6-6-6-6-6-6--4-4-4-4-4-4-4---2-2-2-2-2-2-2--4-4-4-4-4-4-4---------|
A|-4-4-4-4-4-4-4--2-2-2-2-2-2-2---2-2-2-2-2-2-2--4-4-4-4-4-4-4--------4|
D|--------------------------------2-2-2-2-2-2-2--4-4-4-4-4-4-4--4--6---|

(lyrics)
"I listen to the words he'd say,
but in his voice I heard decay,
the plastic face forced to portray,
Il'l be inside left cold, and gray,
there is a place that still remains,
it eats the fear,it eats the pain,
the sweetest price hel'l have to pay,
the day the whole world went away"

play 14x
then


[lead during main riff]

this riff comes in during the guitar1's 8th time through the main riff

e|---------------------------------------------------------------|
B|---------------------------------------------------------------|
G|---------------------------------------------------------------|
D|-15--12--14--10--15--12--14--10--15--12--14--10----------------|
A|---------------------------------------------------------------|
E|---------------------------------------------------------------|

play 4x


[mid riff]

e|-------------------------------------------------------------------------|
B|-------------------------------------------------------------------------|
G|-9-2-8-4-----------------------------------------------------------------|
D|-9-2-8-4-----------------------------------------------------------------|
A|-7-4-6-2-----------------------------------------------------------------|
E|-------------------------------------------------------------------------|

[light riff, ending riff]

e|----------------------------------------------------------------------|
B|----------------------------------------------------------------------|
G|-6-6-8-8-9-9-11-11----------------------------------------------------|
D|----------------------------------------------------------------------|
A|----------------------------------------------------------------------|
E|----------------------------------------------------------------------|


--==<[aRyAn]>==--
ss4_aaron@yahoo.com
-----------------------------------------------------------------------------

15. STAR****ERS, INC.
By Zakk Valensky  (Zakk9999@aol.com)

 Notation:

 b   bend
 gb  gradual bend
 pb  pre-bend
 br  bend and return
 bp  bend then pull off
 /   slide up
 \   slide down
 ~~  vibrato
 h   hammer on
 p   pull off
 PM  palm mute
 X   muted or scraped note
 H   harmonic
 (#) I think I hear this note,but maybe not.or.sounds cool with it there...
 *** tremolo pick
 [: :] repeat


 Dropped-D tuning

 VERSE

 e--------------|
 B--------------|
 G--------------|
 D----2---2-----|
 A----2---2-----|
 D----2---2-----|


 CHORUS

 e---------------------------------------|
 B---------------------------------------|
 G---------X--13-13-13-------------------|
 D--9\12---X--13-13-13---12---14-14---9--|
 A--9\12---X--11-11-11---12---14-14---9--|
 D--9\12---X-------------12---14-14---9--|

 OR Like This...
 e---------------------------------|
 B---------------------------------|
 G--9-9-9-9---6-7---3-3-3-3-3h2--7-|
 D--9-9-9-9---6-7---3-3-3-3-3h2--7-|
 A--7-7-7-7---4\5---1-1-1-1-1h0--5-|
 D---------------------------------|

 CHORUS into VERSE
 G-----------9gb-------|
 D--6--7--9------------|
 A--7--7--5--5---------|
 D---------------------|

 2nd VERSE

 D--5--
 repeated

 BRIDGE "all our pain..."

 e--0--0--0--0-------|
 B--0--0--0--0-------|
 G--5--4--2--1-------|
 D--2--2--2--2-------|
 A--2--2--2--2-------|
 D--2--2--2--2-------|

 Next CHORUS

 D--2-2-2-2-2-2-2----

 [3:33]

 G--12b13--11b12--10b11--8b9----

-----------------------------------------------------------------------------

16. HURT
Tabbed by:BOB
Email:ROB@NAIVEROCKS.COM

 THIS IS ARRANGED TO BE PLAYED BY ONE GUITAR. SOUNDS GOOD ON AN ACOUSTIC!

Tuning:LOW-D A D G A E-HIGH
 (VERSE RIFF REPEAT SEVERAL TIMES)
              I  HURT MYSELF TODAY          TO SEE IF I STILL FEEL
e|-----------------------------10---------------------------------|
A|---------------------7------------------------------7-----------|
G|-----10------------7-------7--------10------------7-------7-----|
D|---------12------7-------9--------------12------7-------9---9---|
A|---9-----------5-------7----------9-----------5-------7---------|
D|-9------------------------------9-------------------------------|
 (PRE-CHORUS RIFF)
                   WHAT HAVE I BECOME             MY SWEETEST FRIEND
e|-0---0---0---0---0---0---0---0---0---0---0---0---0---0---0---0--|
A|-0---0---0---0---0---0---0---0---0---0---0---0---0---0---0---0--|
G|-X---X---X---X---X---X---X---X---X---X---X---X---X---X---X---X--|
D|-7---7---7---7---9---9---9---9---7---7---7---7---7---7---7---7--|
A|-X---X---X---X---X---X---X---X---X---X---X---X---5---5---5---5--|
D|-7---7---7---7---9---9---9---9---5---5---5---5---0---0---0---0--|
 (CHORUS RIFF)
                   YOU COULD HAVE IT ALL          MY EMPIRE OF DIRT
e|-0---0---0---0---0---0---0---0---0---0---0---0---0---0---0---0---|
A|-0---0---0---0---0---0---0---0---0---0---0---0---0---0---0---0---|
G|-9-9-9-9-9-9-9-9-11--11--11--11--7-7-7-7-7-7-7-7-9-9-9-9-9-9-9-9-|
D|-7-7-7-7-7-7-7-7-9-9-9-9-9-9-9-9-7-7-7-7-7-7-7-7-7-7-7-7-7-7-7-7-|
A|-7-7-7-7-7-7-7-7-9-9-9-9-9-9-9-9-5-5-5-5-5-5-5-5-7-7-7-7-7-7-7-7-|
D|-7-7-7-7-7-7-7-7-9-9-9-9-9-9-9-9-5-5-5-5-5-5-5-5-7-7-7-7-7-7-7-7-|
  (ENDING CHORDS)
e|-----------------------------------------------------------------|
A|-----------------------------------------------------------------|
G|-9----7----11----------------------------------------------------|
D|-7----0----9-----------------------------------------------------|
A|-7----0----9-----------------------------------------------------|
D|-7----0----9-----------------------------------------------------|
  THE STRUCTURE IS
  VERSE,
  PRE-CHORUS,
  CHORUS,
  VERSE,
  PRE-CHORUS,
  CHORUS,
  END CHORDS.

| /  slide up
| \  slide down
| h  hammer-on
| p  pull-off
| ~  vibrato
| +  harmonic
| x  Mute note
=============================================================================
THATS THE ALBUM ENJOY THANKS TO THOSE PEOPLE WHO WROTE THE TABS
comments
We did not receive enough feedback on this tab! Please rate:
print report bad tab
1 2 3 4 5
4 comments total. Showing first comments.
0 reply
Firaga wrote on March 18 2007, 02:42 pm

See now, some of these tabs are correct, but..many of them aren't. And plus, the way some of them are played live is very different.

0 reply
antileet wrote on June 12 2007, 11:01 pm

not alot of these tabs are accurate for that album...

the live songs are played differently than their studio versions

0 reply
the69gemini wrote on June 5 2009, 05:05 pm

tune to drop d, down a half step....C# G# C# F# A# D#

I want to post or [tab]
guest
You may want to rate the tab now too:
select rating
Please do not post tabs as comments. Select "correction" instead!