Oops, an error
Loading. Please wait.

Year Zero Tab

ver2
ver2

Album

More versions @911Tabs.com
4,368 views 3 this week
no commentswrite comment
1 2 3 4 5
accurate
x 4
Autoscroll
+/-
esc
set tempo
stop
Contributor
Hey! There's an official Ultimate Guitar app which is ideal
for learning songs when you're away from computer. Get the app
WARNING: You are trying to view
                                    content from Ultimate-Guitar.com
                                    in an unauthorized application,
                                    which is prohibited.

                                    Please use an official Ultimate
                                    Guitar Tabs application for iPhone,
                                    iPad or Android to access legitimate
                                    chords, guitar, bass, and drum tabs
                                    from Ultimate-Guitar.com database.

                                    Type "ultimate guitar tabs" in Apple
                                    App Store's or Android Market's
                                    search to find the application.
Band - Alice In Chains
Album - Year Zero (2007)



1.HYPERPOWER


Q=85

 Drop B tuning 
 B F# B E G# C# (I won't write in each string in tab
                 cos those sharps look like shit )


 00:12

 Gtr I
|----------------------------------|
|----------------------------------|
|----------------------------------|
|-0---0---3-0-0-0---0-0-0---0-0----|
|-----------------3-------3--------|
|----------------------------------|

 
 00:34

 Bass
|----------------------------------|
|-0-0-0-0-3-0-0-0-3-0-0-0-3-0-0----|
|----------------------------------|
|----------------------------------|

 
 00:56

 Gtr II
|-------------------------------------------------|
|-------------------------------------------------|
|-14-14-14-14-14-14-14-14-14-14-14-14-14-14-14-14-|
|-------------------------------------------------|
|-12-12-12-12-12-12-12-12-12-12-12-12-12-12-12-12-|
|-------------------------------------------------|

|-------------------------------------------------|
|-------------------------------------------------|
|-14-14-14-14-14-14-14-14-14-14-14-14-14-13-13----|
|-------------------------------------------------|
|-14-12-12-12-12-12-12-12-12-12-12-12-12-11-11/14-|
|-------------------------------------------------|

|-------------------------------------------------|
|-------------------------------------------------|
|-13-13-13-13-13-13-13-13-13-13-13-13-13-13----13-|
|-------------------------------------------------|
|-11-11-11-11-11-11-11-11-11-11-11-11-11-11/14-11-|
|-------------------------------------------------|


|-------------------------------------------------|
|-------------------------------------------------|
|-13-13-13-13-13-13-10-10-13-13-10-10-10-10-10-10-|
|-------------------------------------------------|
|-11-11-11-11-11-11-8--8--11-11-8--8--8--8--8--8--|
|-------------------------------------------------|

|-------------------------------------------------|
|-------------------------------------------------|
|-14-14-14-14-14-14-14-14-14-14-14-14-14-14-14-14-|
|-------------------------------------------------|
|-12-12-12-12-12-12-12-12-12-12-12-12-12-12-12-12-|
|-------------------------------------------------|

|-------------------------------------------------|
|-------------------------------------------------|
|-14-14-14-14-14-14-14-14-14-14-14-14-14-13-13-13-|
|-------------------------------------------------|
|-12-12-12-12-12-12-12-12-12-12-12-12-12-11-11-11-|
|-------------------------------------------------|
|
|additional gtr
|-------------------------------------------------|
|-------------------------------------------------|
|----------15----15----------15----15----15----15-|
|-------------------------------------------------|
|----------13----13----------13----13----13----13-|
|-------------------------------------------------|

|-------------------------------------------------|
|-------------------------------------------------|
|-13-13-13-13-13-13-13-13-13-13-13-13-13-13-13-13-|
|-------------------------------------------------|
|-11-11-11-11-11-11-11-11-11-11-11-11-11-11-11-11-|
|-------------------------------------------------|
|
|
|-------------------------------------------------|
|-------------------------------------------------|
|----------15-15----------15----------------------|
|-------------------------------------------------|
|----------13-13----------13----------------------|
|-------------------------------------------------|

|-------------------------------------------------|
|-------------------------------------------------|
|-13-13-13-13-13-13-10-10-13-13-10-10-10-10-------|
|-------------------------------------------------|
|-11-11-11-11-11-11-8--8--11-11-8--8--8--8--------|
|-------------------------------------------0-----|
|
|
|--------------------------------------------------|
|--------------------------------------------------|
|-------------------10----13---10-----10-10--------|
|--------------------------------------------------|
|-------------------8-----11---8------8--8---------|
|-------------------------------------------0------|


 01:19

 Gtr I
|----------------------------------|
|----------------------------------|
|-----------------------------5----|
|-------------------------5h7------|
|-5-5---x-x-x-5-5---5---5----------|
|-0-0---x-x-x-0-0---0---0----------|

|----------------------------------|
|----------------------------------|
|-7---------------------------5----|
|-x-----------------------5h7------|
|-5-5---x-x-x-5-5---5---5----------|
|-0-0---x-x-x-0-0---0---0----------| thru the end




2.THE BEGINNING Of THE END


Q=135

Dropped D tuning

 use down-stroke picking for every rhythm part

Gtr I
 
 Verse

e|-----------------|-----------------|
b|-----------------|-----------------|
G|-7-7-7-7-7-7-7-7-|-7-7-7---5-5-5-5-|
D|-----------------|-----------------|
A|-5-5-5-5-5-5-5-5-|-5-5-5---3-3-3-3-|
D|-0-0-0-0-0-0-0-0-|-0-0-0-----------|

 
 Chorus

e|-----------------|-----------------|
b|-----------------|-----------------|
G|-----------------|-----------------|
D|-----------------|-----------------|
A|-1-1-1-1-1-1-1-1-|-1-1-1---1-1-1-1-|
D|-----------------|-----------------|


e|-----------------|-----------------|
b|-----------------|-----------------|
G|-----------------|-----------------|
D|-----------------|-----------------|
A|-----------------|-----------------|
D|-5-5-5-5-5-5-5-5-|-5-5-5---5-5-5-5-|
 
Bass begins in the 2nd verse and it plays just the root notes of gtr I

Gtr II (whole song)

                       1/4
e|-----------------|-----------------|
b|-----------------|-----------------|
G|-7-7-7-7-7-7-7-7-|-7-7b7-7-7-7-7-7-|
D|-----------------|-----------------|
A|-5-5-5-5-5-5-5-5-|-5-5b5-5-5-5-5-5-|
D|-----------------|-----------------|


Gtr III (second chorus)

e|-------------------------|-------------------------|
b|-------------------------|-------------------------|
G|-17-17-17-17-17-17-17-17-|-17-17-17-17-17-17-17-17-|
D|-------------------------|-------------------------|
A|-15-15-15-15-15-15-15-15-|-15-15-15-15-15-15-15-15-|
D|-------------------------|-------------------------|

use down-strokes for every part



Solo

e|-------------------------|-------------------------|
b|-------------------------|-------------------------|
G|-17-17-17-17-17-17-17-17-|-17----------------------|
D|-------------------------|-------------------------|
A|-------------------------|----17-17-17-17-17-17-17-|
D|-------------------------|-------------------------|

e|-------------------------|-------22----------------|
b|-------------------------|-------------------------|
G|-------19-19-19-19-19-17-|-19-19----18-------------|
D|-------------------------|-------------------------|
A|-17-17-------------------|-------------------------|
D|-------------------------|-------------------------|

e|-------------------------|-------------------------|
b|-------------------------|-------------------------|
G|-------------------------|-------------------------|
D|----------0--16----0--14-|----12p0--12-------------|
A|-------------------------|-------------------------|
D|-------------------------|-------------------------|

e|-------------------------|-------------------------|
b|-------------------------|-0-----------------------|
G|-------5\4--4--4--4------|-------------------------|
D|-12p0--------------------|--------3----------------|
A|-------3\2--2--2--2------|-------------------------|
D|-------------------------|-------------------------|

e|-------------------------|-------------------------|
b|-------------------------|----15-------------------|
G|-14-14-14-7--7--7--7--7--|-------17-16----14-0-----|
D|-------------------------|-15----------15----------|
A|-12-12-12-5--5--5--5--5--|-------------------------|
D|-------------------------|-------------------------|

e|-------------------------|-------------------------|
b|-------------------------|-------------------------|
G|-14----------19p0--0--19-|-------------------------|
D|-------------------------|-21----------------------|
A|-------------------------|----20-------------------|
D|-------------------------|-------------------------|



3.SURVIVALISM


Bass intro:
     
G|----------------------------------|
D|----------------------------------|
A|-0-0-0-0-0-0-0---0-0-0-0-0-0-0----|
E|----------------------------------|


Verse:
e|----------------------------------|
b|----------------------------------|
G|----------------------------------|
D|----------------------------------|
A|-0-0-0-0-0-0-0---0-0-0-0-0-0-0----|
E|----------------------------------|


Chorus:

 Gtr 1
e|----------------------------------|
b|----------------------------------|
G|-7-7-7-7-7-7-7---5-5-5-5-5-5-5----|
D|-7-7-7-7-7-7-7---5-5-5-5-5-5-5----|
A|-5-5-5-5-5-5-5---3-3-3-3-3-3-3----|
E|----------------------------------|

e|----------------------------------|
b|----------------------------------|
G|-2-2-2-2-2-2-2---2-2-2-2-2-2-2----|
D|-2-2-2-2-2-2-2---2-2-2-2-2-2-2----|
A|-0-0-0-0-0-0-0---0-0-0-0-0-0-0----|
E|----------------------------------|


 Gtr2

   x8      x8
e|------------------|
b|------------------|
G|-12------13-------|
D|------------------|
A|-10------11-------|
E|------------------|



Outro:

   x3 x11     x3 x11     x3 x11    x3 x7  x4
e|---------------------------------------------|
b|---------------------------------------------|
G|-14--12-----11--17-----9--10-----7--6--------|
D|---------------------------------------------|
A|-12--10-----9---15-----7--8------5--4----0---|
E|---------------------------------------------|



4.THE GOOD SOLDIER


Q=90

Drop C tuning



Bass line thru whole song

|-7-7-7-5-X-X-X-5-7-5-7---X-5-X-X-|-7-7-7-5-X-X-X-5-7-5-7---X-5-X-X-|
|---------------------------------|---------------------------------|
|---------------------------------|---------------------------------|
|---------------------------------|---------------------------------|


 1st verse guitar (even through Trent sings here "when the bass goes
                    bomb" this is guitar part)
|---------------------------------|---------------------------------|
|---------------------------------|---------------------------------|
|---------------------------------|---------------------------------|
|---------------------------------|---------------------------------|
|---------------------------------|-x-------------------------------|
|-0-----------3b--0---6b--0-------|---------------------------------|

|---------------------------------|---------------------------------|
|---------------------------------|---------------------------------|
|---------------------------------|---------------------------------|
|---------------------------------|---------------------------------|
|---------------------------------|-x-------------------------------|
|-0-----------3b--0---6b--0-------|---------------------------------|

|---------------------------------|---------------------------------|
|---------------------------------|---------------------------------|
|---------------------------------|---------------------------------|
|---------------------------------|---------------------------------|
|---------------------------------|-x-------------------------------|
|-0-----------3b--0---6b--0-------|-------------------------3b--0---|
                                                    
                                                    |----PM----|
|---------------------------------|---------------------------------|
|---------------------------------|---------------------------------|
|---------------------------------|---------------------------------|
|---------------------------------|---------------------------------|
|---------------------5b----------|-x---------------5-5-----5-3-X-X-|
|-0-----------3b--0-------0-------|---------------------------------|

|---------------------------------|---------------------------------|
|---------------------------------|---------------------------------|
|---------------------------------|---------------------------------|
|---------------------------------|---------------------------------|
|---------------------------------|-x-------------------------------|
|-0-----------3b--0---6b--0-------|---------------------------------|

|---------------------------------|---------------------------------|
|---------------------------------|---------------------------------|
|---------------------------------|-----------------6b--------------|
|---------------------------------|---------------------------------|
|---------------------------------|-x-------------------------------|
|-0-----------3b--0---6b--0-------|---------------------------------|



 Chorus synth
|---------------------------------|-----------------7---------------|
|-8-------------------------------|-8-------------------------------|
|-7-------------------------------|-7-------------------------------|
|-7-------------------------------|-9-------------------------------|
|-10------------------------------|-10------------------------------|
|---------------------------------|---------------------------------|

|-3-------------------------------|-3-------------------------------|
|-3-------------------------------|-3-------------------------------|
|-3-------------------------------|-2-------------------------------|
|-3-------------------------------|-5-------------------------------|
|---------------------------------|---------------------------------|
|---------------------------------|---------------------------------|


 Chorus guitar
|---------------------------------|---------------------------------|
|---------------------------------|---------------------------------|
|---------------------------------|---------------------------------|
|---------------------------------|---------------------------------|
|---------------------------------|---------------------------------|
|-3---3---3---3---3---3---3---3---|-5---5---5---5---5---5---5---5---|

|---------------------------------|---------------------------------|
|---------------------------------|---------------------------------|
|---------------------------------|---------------------------------|
|---------------------------------|---------------------------------|
|-1---1---1---1---1---1---1---1---|-5---5---5---5---5---5---5---5---|
|---------------------------------|---------------------------------|




 2nd verse guitar
|---------------------------------|---------------------------------|
|---------------------------------|---------------------------------|
|---------------------------------|---------------------------------|
|---------------------------------|---------------------------------|
|---------------------------------|-x-------------------------------|
|-0-----------3b--0---6b--0-------|---------------------------------|

                                                    |----PM----|
|---------------------------------|---------------------------------|
|---------------------------------|---------------------------------|
|---------------------------------|---------------------------------|
|---------------------------------|---------------------------------|
|---------------------5b----------|-x---------------5-5-----5-3-X-X-|
|-0-----------3b--0-------0-------|---------------------------------|

|---------------------------------|---------------------------------|
|---------------------------------|---------------------------------|
|---------------------------------|---------------------------------|
|---------------------------------|-------------------------3b------|
|---------------------------------|-x-------------------------------|
|-0-----------3b--0---6b--0-------|---------------------------------|

|---------------------------------|---------------------------------|
|---------------------------------|---------------------------------|
|---------------------------------|---------------------------------|
|---------------------------------|---------------------------------|
|---------------------------------|-x-------------------------------|
|-0-----------3b--0---6b--0-------|---------------------------------|



Vibraphone in 2nd chorus and solo
 
|---------------------------------|---------------------17--15--15--|
|---------------------------------|---------------------------------|
|---------------------------------|---------------------------------|
|---------------------------------|---------------------------------|
|---------------------------------|---------------------------------|
|---------------------------------|---------------------------------|

 Chorus
|---------------------------------|---------------------17--15--15--|
|-18----------------------17--15--|---------------------------------|
|---------------------------------|---------------------------------|
|---------------------------------|---------------------------------|
|---------------------------------|---------------------------------|
|---------------------------------|---------------------------------|


|---------------------------------|---------------------17--15--15--|
|-18----------------------17--15--|---------------------------------|
|---------------------------------|---------------------------------|
|---------------------------------|---------------------------------|
|---------------------------------|---------------------------------|
|---------------------------------|---------------------------------|


|-----17--------------------------|---------------------17--15--15--|
|-------------------------17--15--|---------------------------------|
|---------------------------------|---------------------------------|
|---------------------------------|---------------------------------|
|---------------------------------|---------------------------------|
|---------------------------------|---------------------------------|


|---------------------------------|---------------------17--15--15--|
|-18----------------------17--15--|---------------------------------|
|---------------------------------|---------------------------------|
|---------------------------------|---------------------------------|
|---------------------------------|---------------------------------|
|---------------------------------|---------------------------------|


 Solo

|---------------------------------|---------------------------------|
|---------------------------------|---------------------------------|
|---------------------------------|---------------------------------|
|-12--12--12--3---3---3---3---3---|-14--14--14--5---5---5---5---5---|
|---------------------------------|---------------------------------|
|---------------------------------|---------------------------------|


|---------------------------------|---------------------------------|
|---------------------------------|---------------------------------|
|-14--14--14--5---5---5---7---7---|---------------------------------|
|---------------------------------|-5---5---5---4---4---4-----------|
|---------------------------------|-------------------------5p3-----|
|---------------------------------|-----------------------------0---|


|---------------------------------|---------------------------------|
|---------------------------------|---------------------------------|
|---------------------------------|---------------------------------|
|-12--12--12--3---3---3---3---3---|-14--14--14--5---5---5---5---5---|
|---------------------------------|---------------------------------|
|---------------------------------|---------------------------------|


|---------------------------------|---------------------------------|
|---------------------------------|---------------------------------|
|-14--14--14--5---5---5---7---7---|---------------------------------|
|---------------------------------|-5---5b7r(5)-4-----4-------------|
|---------------------------------|---------------------5---3-------|
|---------------------------------|-----------------------------0---|


|---------------------------------|---------------------------------|
|---------------------------------|---------------------------------|
|---------------------------------|---------------------------------|
|-12--12--12--3---3---3---3---3---|-14--14--14--5---5---5---5---5---|
|---------------------------------|---------------------------------|
|---------------------------------|---------------------------------|


|---------------------------------|---------------------------------|
|---------------------------------|---------------------------------|
|-14--14--14--5---5---5---7---7---|---------------------------------|
|---------------------------------|-5---5---5---4---4---4-----------|
|---------------------------------|-------------------------5p3-----|
|---------------------------------|-----------------------------0---|


|---------------------------------|---------------------------------|
|---------------------------------|---------------------------------|
|---------------------------------|---------------------------------|
|-12--12--12--3---3---3---3---3---|-14--14--14--5---5---5---5---5---|
|---------------------------------|---------------------------------|
|---------------------------------|---------------------------------|
|
|-10--10--10--1---1---1---1---1---|-12--12--12--3---3---3---3---3---|
|---------------------------------|---------------------------------|
|---------------------------------|---------------------------------|
|---------------------------------|---------------------------------|
|---------------------------------|---------------------------------|
|---------------------------------|---------------------------------|


|---------------------------------|---------------------------------|
|---------------------------------|---------------------------------|
|-14--14--14--5---5---5---7---7---|---------------------------------|
|---------------------------------|-5---5---5---4-------------------|
|---------------------------------|---------------------5---3-------|
|---------------------------------|-----------------------------0---|
|
|-17--17--17--8---8---8---10--10--|---------------------------------|
|---------------------------------|-8b10r(8)----7-------------------|
|---------------------------------|---------------------7---5-------|
|---------------------------------|-----------------------------0---|
|---------------------------------|---------------------------------|
|---------------------------------|---------------------------------|


|---------------------------------|---------------------------------|
|---------------------------------|---------------------------------|
|---------------------------------|---------------------------------|
|-12--12--12--3---3---3---3---3---|-14--14--14--5---5---5---5---5---|
|---------------------------------|---------------------------------|
|---------------------------------|---------------------------------|
|
|-10--10--10--1---1---1---1---1---|-12--12--12--3---3---3---3---3---|
|---------------------------------|---------------------------------|
|---------------------------------|---------------------------------|
|---------------------------------|---------------------------------|
|---------------------------------|---------------------------------|
|---------------------------------|---------------------------------|


|---------------------------------|---------------------------------|
|---------------------------------|---------------------------------|
|-14--14--14--5---5---5---7---7---|---------------------------------|
|---------------------------------|-5---5b7r(5)-4-------------------|
|---------------------------------|---------------------5-----------|
|---------------------------------|---------------------------------|
|
|-17--17--17--8---8---8---10--10--|---------------------------------|
|---------------------------------|-8b10r(8)----7-------------------|
|---------------------------------|---------------------7-----------|
|---------------------------------|---------------------------------|
|---------------------------------|---------------------------------|
|---------------------------------|---------------------------------|


5.VESSEL

Q=90

Drop D tuning (you can do it in standard tuning as well,
               but in drop d is easier to play synth part)

Verse

  Synth 1
E|------------------------------|------------------------------|
B|------------------------------|------------------------------|
G|------------------------------|------------------------------|
D|------------------------------|------------------------------|
A|------------------------------|------------------------------|
D|-8r7~~~~-5--------------------|------------------------------|
 |
 |Synth 2
E|------------------------------|------------------------------|
B|------------------------------|------------------------------|
G|------------------------------|------------------------------|
D|------------------------------|------------------------------|
A|------------------------------|------------------------------|
D|----------------5r3~~~~-3-----|------------------------------|


 ringing in the verse
E|------------------------------|
B|------------------------------|
G|-14p13-12---14p13-12----------|
D|------------------------------|
A|------------------------------|
D|------------------------------|

  Chorus
E|------------------------------|------------------------------|
B|------------------------------|------------------------------|
G|-3------12------10------------|------------10/12------12-----|
D|------------------------------|------------------------------|
A|-1------10------8-------------|------------8-/10------10-----|
D|------------------------------|------------------------------|

E|------------------------------|------------------------------|
B|------------------------------|------------------------------|
G|-3------5------4--------------|------------10/12------12-----|
D|------------------------------|------------------------------|
A|-1------3------2--------------|------------8-/10------10-----|
D|------------------------------|------------------------------|


 2nd verse guitar
E|-----------------------------------------|
B|-----------------------------------------|
G|-----10-10-------10-10-0-----------------|
D|-----------------------------------------|
A|-6/8-------8/-10-------------------------|
D|-----------------------------------------|


 Solo 

 probably is just this lick played several times
E|-----------------------------------------|
B|-----------------------------------------|
G|-10-x-x-10-x-x-10-x-x-10-x-x-10/12-10----|
D|----x-x----x-x----x-x----x-x-------------|
A|-8--x-x-8--x-x-8--x-x-8--x-x-8-/10-8-----|
D|-----------------------------------------|




6.ME IM NOT

Q=70


Standard tuning


Synth bass plays G note thru the whole song


 Chorus

E|-------------------------------------------|
B|-------------------------------------------|
G|-12-12---12---12---12-12-12---12---12---12-|
D|-------------------------------------------|
A|-10-10---10---10---10-10-10---10---10---10-|
E|-------------------------------------------|

E|-------------------------------------------|
B|-------------------------------------------|
G|-12-14---14---14---14-14-14---14--------14-|
D|-------------------------------------------|
A|-10-12---12---12---12-12-12---12--------12-|
E|-------------------------------------------|

E|-------------------------------------------|
B|-------------------------------------------|
G|-11-11---11---11---11-11-11---11---11------|
D|-------------------------------------------|
A|-9--9----9----9----9--9--9----9----9-------|
E|-------------------------------------------|

E|-------------------------------------------|
B|-------------------------------------------|
G|-10-10---10---10---10-10-10---10-----------|
D|-------------------------------------------|
A|-8--8----8----8----8--8--8----8------------|
E|-------------------------------------------|




 04:06

E|-------------------------------------------|
B|-------------------------------------------|
G|-12-12-12-12-12---1--0--0--0--12---1---0---|
D|-------------------------------------------|
A|-------------------------------------------|
E|-------------------------------------------|

E|-------------------------------------------|
B|-------------------------------------------|
G|-0-----1-----0----0--12-----12---12---12\10|
D|-------------------------------------------|
A|------------------------------------13-----|
E|-------------------------------------------|


 04:34

E|--------------------------------------------------------------|
B|--------------------------------------------------------------|
G|-12-12-12-12-12-12-12-12-12b13-12b13-12b13-12b13-12b14--------|
D|--------------------------------------------------------------|
A|--------------------------------------------------------------|
E|--------------------------------------------------------------|



7.CAPITAL G

Q=85


Drop D tuning

3/4


verse

G|----------------------|----------------------|
D|----------------------|----------------------|
A|-3---------5----------|-3----3----3----5---6-|
D|----------------------|----------------------|

G|----------------------|----------------------|
D|----------------------|----------------------|
A|-3---------5----------|-3----3----3----------|
D|----------------------|----------------------|

G|----------------------|--------------------10|
D|----------------------|----------------------|
A|-3---------5----------|-3----3----3----3/8---|
D|----------------------|----------------------|

G|----------------------|----------------------|
D|----------------------|----------------------|
A|-3---------5----------|-3----3----3----------|
D|----------------------|----------------------|

G|----------------------|----------------------|
D|----------------------|----------------------|
A|-3---------5----------|-3----3----3----5---6-|
D|----------------------|----------------------|

G|----------------------|----------------------|
D|----------------------|----------------------|
A|-3---------5----------|-3----3----3--3-8-8-8-|
D|----------------------|----------------------|

G|----------------------|----------------------|
D|----------------------|----------------------|
A|-3---------5----------|-3----3----3--3-8-8---|
D|----------------------|----------------------|

G|----------------------|----------------------|
D|----------------------|----------------------|
A|-3---------5----------|-3----3----3----------|
D|----------------------|----------------------|



chorus


  x12                       x12
                           
e|-------------------------|-------------------------|
B|-------------------------|-------------------------|
G|-11----------------------|-11----------------------|
D|-------------------------|-------------------------|
A|-9-----------------------|-9-----------------------|
D|-------------------------|-------------------------|
 |
G|-------------------------|-------------------------|
D|-------------------------|-------------------------|
A|-5-5-5-5-5-5-5-5-5-1-1-1-|-1-1-1-1-1-1-1-1-1-1-1-1-|
D|-------------------------|-------------------------|


  x12                       x8

e|-------------------------|-------------------------|
B|-------------------------|-------------------------|
G|-12----------------------|-12--------------12b-----|
D|-------------------------|-------------------------|
A|-10----------------------|-10--------------10b-----|
D|-------------------------|-------------------------|
 |
G|-------------------------|-------------------------|
D|-------------------------|-------------------------|
A|-------------------------|-------------------------|
D|-3-3-3-3-3-3-3-3-3-5-5-5-|-5-5-5-5-5-5-5-5-5-------|



solo

e|-------------------------|-------------------------|
B|-------------------------|-------------------------|
G|-------------------------|-------------------------|
D|-------------------------|-------------------------|
A|-------3---5-------------|-------------------------|
D|-0---0-----------0-3---5-|-------3---5-----3-------|
 |
G|-------------------------|-------------------------|
D|-------------------------|-------------------------|
A|-5-5-5-5-5-5-5-5-5-1-1-1-|-1-1-1-1-1-1-1-1-1-1-1-1-|
D|-------------------------|-------------------------|


                        

e|-------------------------|-------------------------|
B|-------------------------|-------------------------|
G|-------------------------|-------------------------|
D|-------------------------|-------------------------|
A|-------3---5-------------|-------------------------|
D|-0---0-----------0-3---5-|-------3---5-----3-------|
 |
G|-------------------------|-------------------------|
D|-------------------------|-------------------------|
A|-------------------------|-------------------------|
D|-3-3-3-3-3-3-3-3-3-5-5-5-|-5-5-5-5-5-5-5-5-5-------|




8.MY VIOLENT HEART

Q=95

Drop Db tuning


 Bass
Gb|-------------------|-------------------|
Db|-------------------|-------------------|
Ab|-0---2-------------|-0---2-------------|
Db|-------------------|-------------------|


 Pre-chorus (before 2nd chorus play just the last bar)

   1        2       3       4

Eb|---------------------------------|---------------------------------|
Bb|---------------------------------|---------------------------------|
Gb|---------------------------------|---------------------------------|
Db|---------------------------------|---------------------------------|
Ab|---------2-2-0-2-2-2-2-2-2-0-2-2-|-0-2-2-2-2-2-2-2-2-2-2-2-2-2-2-2-|
Db|---------------------------------|---------------------------------|



 Chorus
Eb|------12-------12----12---------------------|
Bb|-0----------16----------0-0-0----12p0-12----|
Gb|---------14-------14------------------14----|
Db|--------------------------------------------|
Ab|--------------------------------------------|
Db|--------------------------------------------|

Eb|------12-------12-------12------------------|
Bb|-0----------16-------16----0-0----12p0-0----|
Gb|---------14-------14------------------------|
Db|--------------------------------------------|
Ab|--------------------------------------------|
Db|--------------------------------------------|



 Solo
                |---3--|
Eb|-------12--------------------------------------|
Bb|----------15-16p15p14----16-16-----------------|
Gb|-----------------------------------------------|
Db|-12-13----------------13-----------------------|
Ab|-----------------------------------------------|\
Db|---------------------------------------0-0-1-1-| \
                                                     2x
Eb|-------12-------12-----------------------------| /
Bb|-------------------15-16-----------------------|/
Gb|-----------------------------------------11----|
Db|----------13-14---------------12-14-14b-----14-|
Ab|-----------------------------------------------|
Db|-2---------------------------------------------|


                |---3--|
Eb|-------12--------------------------------------|
Bb|----------15-16p15p14----16-16-----------------|
Gb|-----------------------------------------------|
Db|-12-13----------------13-----------------------|
Ab|-----------------------------------------------|\
Db|---------------------------------------0-0-1-1-| \ 
                                                     2x
Eb|-------12-------12-----------------------------| /
Bb|-------------------15-16-----------------------|/
Gb|-----------------------------------14h15h16----|
Db|----------13-14--------------------14----------|
Ab|------------------------------12---------------|
Db|-2---------------------------------------------|



 Ending

Eb|-7----------------------------7----|-7-------------------7--------7----|
Bb|------------10---------10----------|------------10---------10-------10-|
Gb|--------7------7---9------------9b-|---------------7----------9b-------|4x
Db|---------------------7-------------|--------7h9--------9---------------|
Ab|-----------------------------------|-----------------------------------|
Db|-----------------------------------|-----------------------------------|


Eb|-7----------------------------7----|-----------------------------------|
Bb|------------10-----------10--------|------------10---------10----------|
Gb|--------7------7-------------------|-9---7---------7----------7--------|2x
Db|-------------------9-9-9-----------|--------9p7-----------------7-9b---|
Ab|-----------------------------------|-----------------------------------|
Db|-----------------------------------|-----------------------------------|


Eb|-7-----------------------------7---|-7---------------------------------|
Bb|------------10-----10-----10-------|------------10---------10----------|
Gb|--------7------7------7------------|---------------7----------7--------|
Db|------------------------0----------|--------7h9-----------------7-9b---|
Ab|-----------------------------------|-----------------------------------|
Db|-----------------------------------|-----------------------------------|

Eb|-7-----------------------------7---|-7---------------------------------|
Bb|------------10-----10-----10-------|-----------------------------------|
Gb|--------7------7------7------------|-----------------------------------|
Db|------------------------0----------|-----------------------------------|
Ab|-----------------------------------|-----------------------------------|
Db|-----------------------------------|-----------------------------------|


9.THE WARNING

Q=95

 Drop C tuning


 Bass Fig I
F|---------------------------------------|
C|-0---0---12---12---12---10---10---12---|
G|---------------------------------------|
C|---------------------------------------|

F|------------------------------------------|
C|-15---15---12-12-10---10---10---12p10-12--|
G|------------------------------------------|
C|------------------------------------------|


 Bass Fig II
F|---------19---19---19---17---17---19---|
C|-0---0---------------------------------|
G|---------------------------------------|
C|---------------------------------------|

F|-22---22---19-19-17---17---17---19p17-19---|
C|-------------------------------------------|
G|-------------------------------------------|
C|-------------------------------------------|

 
 guitar riff I
D|----------------------------------------|
A|----------------------------------------|
F|----------------------------------------|
C|---------12---12---12---10---10---12p10-|
G|----------------------------------------|
C|-0---0----------------------------------|

D|------------------------------------------|
A|------------------------------------------|
F|------------------------------------------|
C|-15---15---12-12-10---10---10---12p10-12--|
G|------------------------------------------|
C|------------------------------------------|


 guitar riff II
D|------------------------------------------|
A|------------------------------------------|
F|------------------------------------------|
C|------------------------------------------|
G|------------------------3-------3---------|
C|----0---0h10-9b(10)---0---3---3---4b(5)---|


D|------------------------------------------|
A|------------------------------------------|
F|------------------------------------------|
C|------------------------------------------|
G|------------------------------------------|
C|----0---9b(10)--------0-0-3---5-5-5b(6)5--|



10.GOD GIVEN

Q=100

standard tuning

 

 The whole song is based on just one chord (A) and it's pretty simple 
 to play (practically guitar appears just in the beginning)

 
 00:18

  Guitar

e|-----------0-------------------------|-----------0------------------------|
B|-------------------------------------|------------------------------------|
G|-14---14----------12---14---14\12--0-|-14---14----------12---14---12------|
D|-------------------------------------|------------------------------------|
A|------------------10---12---12\10----|------------------10---12---10------|
E|-------------------------------------|------------------------------------|



 00:27

  Synth

   x16         x16
   
e|-15--------|-15--------|
B|-17--------|-17--------|
G|-----------|-----------|
D|-----------|-----------|
A|-----------|-----------|
E|-----------|-----------|




 Chorus


   Synth

   x13  
   
e|-15------------------------------|---------------------------------|
B|-17------------------------------|---------------------------------|
G|---------------------------------|---------------------------------|
D|---------------------------------|---------------------------------|
A|---------------------------------|---------------------------------|
E|---------------------------------|---------------------------------|
 |
 |                                   x13
 | Guitar/Piano  
e|---------------------------------|-15------------------------------|
B|---------------------------------|-17------------------------------|
G|---------------------------------|---------------------------------|
D|---------------------------------|---------------------------------|
A|---------------------------------|---------------------------------|
E|---------------------------------|---------------------------------|
 |
 | Bass
G|---------------------------------|---------------------------------|
D|---------------------------------|---------------------------------|
A|-0---------------------12-12\0---|---------------------------------|
E|---------------------------------|---------------------------------|

 
 you got the point? If you wanna play it on just one guitar 
 this is the best way:


e|-15-15-15-15-15-15-15-15-15-15-15-15-15-x-x-x-|
B|-17-17-17-17-17-17-17-17-17-17-17-17-17-x-x-x-|
G|----------------------------------------------|
D|----------------------------------------------|
A|----------------------------------------------|
E|----------------------------------------------|


e|-15-15-15-15-15-15-15-15-15-15-15-15-15-x-x-x-|
B|-17-17-17-17-17-17-17-17-17-17-17-17-17-x-x-x-|
G|----------------------------------------------|
D|----------------------------------------------|
A|----------------------------------------------|
E|----------------------------------------------|


11.MEET YOUR MASTER


Q=75

 tune down 1/2 step

 
  Verse
Gb|-------------------------------------------------|
Db|-------------------------------------------------|
Ab|-------------------------------------------------|
Eb|-0--0--0--------------0--0--0--0-----------------|

Gb|-------------------------------------------------|
Db|-------------------------------------------------|
Ab|-------------------------------------------------|
Eb|-3--3--3--------------5--5--5--5-----------------|
                                                    

  Chorus
Gb|-------------------------------------------------|
Db|-------------------------------------------------|
Ab|-7--7--7--7--7--7--7--7--7--7--7--7--7--7--6--6--|
Eb|-------------------------------------------------|


Gb|-------------------------------------------------|
Db|-------------------------------------------------|
Ab|-5--5--5--5--5--5--5--5--------------------------|
Eb|-------------------------3--3--3--3--15-15-15-15-|


 Intro

Eb|-----------------------12-----------------------|
Bb|------15----------------------------------------|
Gb|------------------------------------------------|
Db|-14-------12-12---14--------14b15r(14)-------14-|
Ab|------------------------------------------12----|
Eb|------------------------------------------------|

Eb|------10-----12---12---10b11r(10)-------------|
Bb|----------------------------------------------|
Gb|----------------------------------------------|
Db|----------------------------------------------|
Ab|-10--------------------------------10---10----|
Eb|----------------------------------------------|


Eb|-----------------------12-----------------------|
Bb|------15----------------------------------------|
Gb|------------------------------------------------|
Db|-14-------12-12---14--------14b15r(14)-------14-|
Ab|------------------------------------------12----|
Eb|------------------------------------------------|

Eb|------10b11r(10)--12---12---12--------------|
Bb|--------------------------------------------|
Gb|--------------------------------------------|
Db|--------------------------------------------|
Ab|-10-----------------------------------------|
Eb|--------------------------------------------|

 Verse

-------------|----------------------------------------|
-------------|----------------------------------------|
-------------|----------------------------------------|
-------------|-10h11h12------10-----------------------|
-10h11-11h12-|----------10--------------------10---12-|
-------------|-------------0----0---0---0---0----0----|

|----------------------------------------|
|----------------------------------------|
|----------------------------------------|
|-10h11h12------10-----------------------|
|----------10----------------10h11-11h12-|
|-------------0--------------------------|


 additional gtr chorus (expect 1st)
Eb|-19~~~~~~~~~~~~~~~~~~~~~~~~~~~~~~(19)\|-0---|
Bb|--------------------------------------|-----|
Gb|--------------------------------------|-----|
Db|--------------------------------------|-----|
Ab|--------------------------------------|-----|
Eb|--------------------------------------|-----|

 Chorus

Eb|----------------------------------------|
Bb|----------------------------------------|
Gb|----------------14-------14h15----------|
Db|-----13---14p13----13h14----------------|
Ab|----------------------------------------|
Eb|-0--------------------------------------|


Eb|----------------------------------------|
Bb|----------------12---12---12------------|
Gb|---------------------15---15---11-0-0-0-|
Db|-----13------13-------------------------|
Ab|----------15----------------------------|
Eb|-0--------------------------------------|

 Solo

Eb|-10----10b11r(10)--10-------7---------------|
Bb|----------------------9--10--------11r(10)--|
Gb|--------------------------------------------|
Db|--------------------------------------------|
Ab|--------------------------------------------|
Eb|--------------------------------------------|

Eb|-10----10b11r(10)--10-----------------6-----|
Bb|------------------------8----7b8r7----------|
Gb|--------------------------11-------7--------|
Db|---------------------10---------------------|
Ab|--------------------------------------------|
Eb|--------------------------------------------|


 Synth (before "come on down" part)

Eb|--------------------------------------------|
Bb|--------------------------------------------|
Gb|-11-------------------11--------------------|
Db|-12-------------------10--------------------|
Ab|-12-------------------12--------------------|
Eb|-10-------------------10--------------------|

Eb|--------------------------------------------|
Bb|--------------------------------------------|
Gb|-9--------------------12--------------------|
Db|-10-------------------12--------------------|
Ab|-10-------------------10--------------------|
Eb|-8------------------------------------------|

Eb|----------------------7---------------------|
Bb|-10-------------------8---------------------|
Gb|-11-------------------9---------------------|
Db|-12-------------------10--------------------|
Ab|--------------------------------------------|
Eb|--------------------------------------------|

Eb|-(7)----------------------------------------|
Bb|-(8)----------------------------------------|
Gb|-(9)----------------------------------------|
Db|-(10)---------------------------------------|
Ab|--------------------------------------------|
Eb|--------------------------------------------|



12.THE GREATER GOOD


 Drop D tuning

 00:14

 Synth
E|---------|---------|---------|----------|
B|-5-------|-6-------|-5-------|-(5)------|
G|-7-------|-7-------|-7-------|-(7)------|
D|-0-------|-0-------|-0-------|-(0)------|
A|---------|---------|---------|----------|
D|---------|---------|---------|----------|


 00:34

 Bass
G|-------------------------------------|
D|-------------------------------------|
A|-------------------------------------|
D|-12p0-----12-12-0---0-0-0-0-12-0-0---|

                                 [--3--]
G|---------------------------------------|
D|---------------------------------x-x-x-|
A|---------------------------------------|
D|-12p0-----12-12-0---0-0-0-0-12---------|

G|-------------------------------------|
D|-------------------------------------|
A|-------------------------------------|
D|-12p0-----12-12-0---3-3-0-0-12-0-0---|

G|-------------------------------------|
D|-------------------------------------|
A|-------------------------------------|
D|-12p0-----12-12-0---3-3-0-0-12-0-----|



 00:46

  Vibraphone
E|-----------------------------|-----------------------------|
B|------5-----5------------5-7-|------5-----5------------5-7-|
G|-5--------7-----7--5---------|-5--------7-----7--5---------|
D|-0---------------------------|-0---------------------------|
A|-----------------------------|-----------------------------|
D|-----------------------------|-----------------------------|



 01:09
 
 Synth
E|---------|---------|---------|----------|
B|-5-------|-6-------|-5-------|--6-------|
G|-7-------|-7-------|-7-------|--7-------|
D|-0-------|-0-------|-0-------|--0-------|
A|---------|---------|---------|----------|
D|---------|---------|---------|----------|




01:19

  Synth 2
--|--------------------0--------|-----------------------------|
--|-----------6-----------------|-----------------------------|
2-|-3---------------------------|--5--------14----------------|
--|-0---------------------------|--0--------0-----------------|
--|-----------------------------|-----------------------------|
--|-----------------------------|-----------------------------|

E|-----------------------------|-----------------------------|
B|-----------------------------|-----------------------------|
G|-14----------12--------------|-11--------------------------|
D|-0-----------0---------------|-0---------------------------|
A|-----------------------------|-----------------------------|
D|-----------------------------|-----------------------------|


 01:32

 Piano
E|----------18---------20--------------------|
B|-------21---------23-----------------------|
G|----19---------19--------------------------|
D|-18----------------------------------------|
A|-------------------------------------------|
D|-------------------------------------------|

E|-------16---------18---------20------------|
B|----11---------19---------23---------------|
G|-13---------17---------19------------------|
D|-------------------------------------------|
A|-------------------------------------------|
D|-------------------------------------------|




 01:57

 this strange ringing
E|-----------------------------|-----------------------------|
B|-----------------------------|-----------------------------|
G|-17------------------------X-|-17--------------------------|
D|-0---------------------------|-0---------------------------|
A|-----------------------------|-----------------------------|
D|-----------------------------|-----------------------------|



 02:18

 Piano
E|-----7-------5---------------|
B|---5---5---5---------5-------|
G|-8-------8-------------8-----|
D|-------------------------0-0-|
A|-----------------------------|
D|-----------------------------|

13.THE GREAT DESTROYER


 Q=75

 Drop D tuning

  
 
 Verse
e|---------------------------------|------------------------------------|
B|---------------------------------|------------------------------------|
G|---------------------------------|------------------------------------|
D|-0-0h2-2-x---0-0h2-2-----0-0h2-2-|-x---0-0h2-2---10-10-10-10--5-5-5---|
A|-0-0h2-2-x---0-0h2-2-----0-0h2-2-|-x---0-0h2-2---10-10-10-10--5-5-5---|
D|-0-0h2-2-x---0-0h2-2-----0-0h2-2-|-x---0-0h2-2---10-10-10-10--5-5-5---|


 
 this strange sound before chorus is probably a natural harmonic:
e|-----------------
B|-----------------
G|-<5>-------------
D|-----------------
A|-----------------
D|-----------------

 
 Chorus
e|---------------------------------|---------------------------------|
B|---------------------------------|---------------------------------|
G|-x-2-2-2-2---x-5-5-5-5-----------|-----x-7-7-7-7-------------------|
D|-x-2-2-2-2---x-5-5-5-5---x-5-5-5-|-5---x-7-7-7-7---x-3-3-3-x-2-2-2-|
A|-x-0-0-0-0---x-3-3-3-3---x-5-5-5-|-5---x-5-5-5-5---x-3-3-3-x-2-2-2-|
D|-------------------------x-5-5-5-|-5---------------x-3-3-3-x-2-2-2-|
 |
e|---------------------------------|---------------------------------|
B|---------------------------------|---------------------------------|
G|-2---2---2---2---2---2---2---2---|-2---2---2---2---2---2---2---2---|
D|---------------------------------|---------------------------------|
A|---------------------------------|---------------------------------|
D|---------------------------------|---------------------------------|


 second verse additional guitar
e|---------------------------------|---------------------------------|
B|---------------------------------|---------------------------------|
G|---------------------------------|---------------------------------|
D|-6b~~~~~~~~~~~~~(7)~(6)~~~~~~~~~~|-(7)r6~~~~~~~~~~~7b~~~~~~(8)~~~~~|
A|---------------------------------|---------------------------------|
D|---------------------------------|---------------------------------|



14.ANOTHER VERSION OF THE TRUTH


Standard tuning


 00:17
 
 Q=90

E|----------------|-7------5------|---------------|-10------------|
B|------------5---|---------------|-8-------------|---------------|
G|--------8-------|---------------|-0-------------|-10------------|
D|-7--------------|---------------|---------------|---------------|
A|----------------|---------------|---------------|-8-------------|
E|----------------|---------------|---------------|---------------|


E|-9--------------|-7------5------|---------------|-10------------|
B|------------5---|---------------|-8-------------|---------------|
G|-9------8-------|---------------|-0-------------|--------10-----|
D|----------------|---------------|---------------|---------------|
A|-0--------------|---------------|---------------|-8-------------|
E|----------------|---------------|---------------|---------------|


e|-9--------------|-7------5------|---------------|---------------|
B|------------5---|---------------|-8-------------|---------------|
G|-9------8-------|---------------|-0-------------|---5----10-----|
D|----------------|---------------|---------------|-0-------------|
A|-0--------------|---------------|---------------|---------------|
E|----------------|---------------|---------------|---------------|


e|-9--------------|-7------5------|---------------|--------7------|
B|------------5---|---------------|-8-------------|---------------|
G|-9------8-------|---------------|-0------0------|---------------|
D|----------------|---------------|---------------|-0------0------|
A|-0--------------|---------------|---------------|---------------|
E|----------------|---------------|---------------|---------------|

e|-8--------------|-7------5------|---------------|--------10-----|
B|------------5---|---------------|-8-------------|---------------|
G|--------8-------|---------------|-0-------------|--------10-----|
D|----------------|---------------|---------------|-0-------------|
A|-0--------------|---------------|---------------|---------------|
E|----------------|---------------|--------3------|---------------|


e|-0--------------|-7------5------|---------------|---------------|
B|------------5---|---------------|-12-----13-----|---------------|
G|--------8-------|---------------|-0------0------|-10-----9---7--|
D|----------------|---------------|---------------|--------0------|
A|-0--------------|---------------|---------------|---------------|
E|----------------|---------------|---------------|---------------|


e|----------------|-7------5------|---------------|--------10-----|
B|------------5---|---------------|-8-------------|---------------|
G|-6------8-------|---------------|-0------0------|---5----10-----|
D|----------------|---------------|---------------|-0-------------|
A|-0--------------|---------------|---------------|---------------|
E|----------------|---------------|---------------|---------------|


e|----------------|-7------5------|-8--10-----15--|--------10-----|
B|------------5---|---------------|--------0------|---------------|
G|-9------8-------|---------------|-0-------------|---------------|
D|----------------|---------------|---------------|-0------0------|
A|-0--------------|---------------|---------------|---------------|
E|----------------|---------------|---------------|---------------|




 01:52

 Q=80

e|----------------|---------------|---------------|---------------|
B|-0--------------|-0-------------|---------------|----3-------1--|
G|-0--------------|-0------2------|-5-------------|----------0----|
D|----------------|---------------|-3-------------|-3------3------|
A|----------------|-3-------------|-1-------------|---------------|
E|-3--------------|---------------|---------------|---------------|


e|----------------|---------------|-1---0---------|-5-------------|
B|-0------0---1---|-0-------------|--------3---1--|---------------|
G|-0------0---0---|-0------2------|---------------|--------2------|
D|----------------|---------------|---------------|-3-------------|
A|----------------|-3-------------|-1-------------|---------------|
E|-3--------------|---------------|---------------|---------------|


e|----------------|---------------|-1---0---------|---------------|
B|-0------0---1---|-0-------------|--------1------|-----------0---|
G|-0------0---0---|-0------2------|------------0--|----2---5------|
D|----------------|---------------|---------------|-3------3------|
A|----------------|-3------3------|-1------1------|---------------|
E|-3------3-------|---------------|---------------|---------------|


e|----------------|---------------|---------------|---------------|
B|--------0---1---|-0-------------|---------------|-1-------------|
G|--------0---0---|-0------2------|-5-------------|---------------|
D|----------------|---------------|-3-------------|-3-------------|
A|--------3-------|-3-------------|-1-------------|---------------|
E|-3--------------|---------------|---------------|--------1------|


e|-----8------7---|----5----------|-----8------7--|----5----------|
B|----------------|-----------8-6-|-6-------------|------------1--|
G|-0------0-------|--------5------|---------------|----------2---4|
D|----------------|---------------|--------8------|--------3------|
A|----------------|---------------|---------------|---------------|
E|-3--------------|-8-------------|-6-------------|-1-------------|

e|-----8------7---|----5----------|-----8------7--|----5---1------|
B|----------------|-----------8-6-|---------------|----------1-1-0|
G|-0------0-------|--------5------|---------------|---------------|
D|----------------|---------------|--------8------|---------------|
A|----------------|---------------|---------------|---------------|
E|-3--------------|-8-------------|-6-------------|-1-------------|


e|-----8------7---|----5----------|-----8------7--|----5----------|
B|----------------|-----------8-6-|-6-------------|------------1--|
G|--------0-------|--------5------|---------------|--------------4|
D|----------------|---------------|--------8------|--------3------|
A|----------------|---------------|---------------|---------------|
E|-3--------------|-8-------------|-6-------------|-1-------------|

e|----------------|---------------|---------------|---------------|
B|----------------|--------0------|--------0------|--------0------|
G|----------------|-5-------------|-5-------------|-5-------------|
D|----------------|---------------|-3-------------|-3-------------|
A|----------------|-3-------------|-1-------------|---------------|
E|-3--------------|---------------|---------------|---------------|

e|----------------|---------------|---------------|---------------|-
B|-0--------------|--------0------|--------0------|-1------0------|-
G|-0--------------|-5------0------|-5------0------|--------0------|-
D|----------------|---------------|-3-------------|---------------|-
A|----------------|-3-------------|-1-------------|---------------|-
E|-3--------------|---------------|---------------|-1-------------|-3



15.IN THIS TWILIGHT

Q=110

standard tuning 

 
 repeating synth chord

e|-4---------------|-4---------------|-4---------------|-4---------------|
B|-----------------|-----------------|-----------------|-----------------|
G|-----------------|-----------------|-----------------|-----------------|
D|-----------------|-----------------|-----------------|-----------------|
A|-----------------|-----------------|-----------------|-----------------|
E|-0---------------|-0---------------|-0---------------|-0---------------|

 
 guitar?

e|-----------------|-----------------|-----------------|-----------------|
B|-----------------|-----------------|-----------------|-----------------|
G|-4---------------|-2---------------|-4---------------|-2---------------|
D|-----------------|-----------------|-----------------|-----------------|
A|-----------------|-----------------|-----------------|-----------------|
E|-----------------|-----------------|-----------------|-----------------|



 BASS


 Verse

G|-----------------|-----------------|-----------------|-----------------|
D|-----------------|-----------------|-----------------|-----------------|
A|-0---------------|-----------------|-----------------|-----------------|
E|-----------------|-----------------|-0---------------|-----------------|

 
 Chorus (use octaver to get that ultra low sound)

G|-----------------|-----------------|-----------------|-----------------|
D|-----------------|-----------------|-----------------|-----------------|
A|-3-3-3-3-3-3-3-3-|-2-2-2-2-2-2-2-2-|-5-5-5-5-5-5-5-5-|-4-4-4-4-4-4-4-4-|
E|-----------------|-----------------|-----------------|-----------------|



16.ZERO SUM

Q=75
 
3/4
 
 Synth
E|-----------|
B|-----------|
G|-0---------|
D|-2---------|
A|-0---------|
E|-----------|

 
 Verse piano
E|-----------7-7---9-9---10-10---|-12-12-------------------------|
B|-------------------------------|----------6-6---8-8----10-10---|
G|-------------------------------|-------------------------------|
D|-------------------------------|-------------------------------|
A|-------------------------------|-------------------------------|
E|-------------------------------|-------------------------------|


 Chorus
E|-----------|-----------|-----------|-----------|
B|-----------|-3---------|-----------|-----------|
G|-2---------|-2---------|-----------|-----------|
D|-3---------|-0---------|-5---------|-5---------|
A|-3---------|-----------|-3---------|-5---------|
E|-1---------|-----------|-----------|-3---------|



Tablature Legend
----------------
 h   - hammer-on
 p   - pull-off
 b   - bend
 r   - bend release
 /\  - slide into or out of
  - natural harmonic
 ~   - vibrato
 PM  - palm muting
comments
print report bad tab
I want to post or [tab]
guest
You may want to rate the tab now too:
select rating
Please do not post tabs as comments. Select "correction" instead!