Oops, an error
Loading. Please wait.

A Time For Us Tab

ver2
ver2

Intro

Whole song

Interactive

More versions @911Tabs.com
9,072 views 15 this week
no commentswrite comment
1 2 3 4 5
excellent!
x 1
Autoscroll
+/-
esc
set tempo
stop
Contributor
Tabbers playing skills
advanced
Hey! There's an official Ultimate Guitar app which is ideal
for learning songs when you're away from computer. Get the app
WARNING: You are trying to view
                                    content from Ultimate-Guitar.com
                                    in an unauthorized application,
                                    which is prohibited.

                                    Please use an official Ultimate
                                    Guitar Tabs application for iPhone,
                                    iPad or Android to access legitimate
                                    chords, guitar, bass, and drum tabs
                                    from Ultimate-Guitar.com database.

                                    Type "ultimate guitar tabs" in Apple
                                    App Store's or Android Market's
                                    search to find the application.
\---Song:-A-Time-For-Us---------------\
 \---Composer:-Nino-Rota---------------\
  \---Transcription-by:Christian Liang--\
  /---E-Mail:christian.liang@gmail.com--/
 /---http://www.classclef.com----------/
/---Enjoy!----------------------------/

==========================================================================
                 A Time for Us by Nino Rota (1911–1979)
==========================================================================

Romeo And Juliet (Love Theme)
Time 3/4

[1]  Intro                                                  
E|---------------------------|---------------------------|
B|---------------------------|---------------------------|
G|-------------------0======-|-------------------0======-|
D|-----------4-------0======-|-----------2-------0======-|
A|-------2-------2-----------|-------2-------2-----------|
E|---0======================-|---0======================-|
     |   |   |   |   |   |       |   |   |   |   |   |   
     |       |       |           |       |       |     

L        1   3   1                   1   2   1
R    p   i   m   i   a           p   i   m   i   a
                     m                           m
[3]                                                       
E|---------------------------|---------------0---3-----2-|
B|---------------------------|---------------------------|
G|---------------0---2-------|---------------------------|
D|-----------4-----------4---|-----------2---------------|
A|-------2-------------------|-------2-------------------|
E|---0======================-|---0======================-|
     |   |   |   |   |   |       |   |   |   |   |   | |  
     |       |       |           |       |       |     

L        1   4       2   4           2   3       4     3

  

[5]                                                       
E||--------------------------|---0==========-0==========-|
B||--0==========-0---3====-0-|-----------1-------3====-1-|
G||*---------0---------------|-------0-------------------|
D||*-----0-------------------|---------------------------|
A||--2======================-|---3======================-|
E||--------------------------|---------------------------|
     |   |   |   |   |   | |     |   |   |   |   |   | | 
     |       |       |           |       |       |     

L    2               4           3       1       4     1

[7]                                                       
E|---------------------------|---------------------------|
B|---3==========-3---1====-0-|---------------0-----------|
G|-----------0---------------|---2============-2-0---2---|
D|-------0-------------------|---2-------2---------------|
A|---2======================-|---0==-3==================-|
E|---------------------------|---------------------------|
     |   |   |   |   |   | |     |   |   |   | | |   |   
     |       |       |           |       |       |     

L    4           4   1           3   4   2     3     3
     2                           2
  

[9]                                                       
E|---------------0---3====-2-|---------------------------|
B|---0======================-|---0==========-0---3====-0-|
G|---------------------------|-----------0---------------|
D|-----------2---------------|-------0-------------------|
A|-------2-------------------|---2======================-|
E|---0======================-|---------------------------|
     |   |   |   |   |   | |     |   |   |   |   |   | | 
     |       |       |           |       |       |     

L        1   2       4     3     2               4


[11]                             V.......................                      
E|---0==================-0---|---5======================-|
B|-----------1---------------|-------------------5-------|
G|-------0-------0-----------|---------------5-------5---|
D|-------------------2-------|-----------7---------------|
A|---3======================-|-------7-------------------|
E|---------------------------|---5======================-|
     |   |   |   |   |   |       |   |   |   |   |   |   
     |       |       |           |       |       |     

L    3       1       2           1   3   4   1   1   1
R                                p   p   i   m   a   m
  

[13] II.................                                                      
E|---2======-----------------|---3==========-2---0-------|
B|---3======-------------0---|-----------------------3---|
G|---4======-----------------|---------------------------|
D|---4======-----------------|-----------2---------------|
A|---2======-2======-2======-|-------2-------------------|
E|---------------------------|---0======================-|
     |   |   |   |   |   |       |   |   |   |   |   |   
     |       |       |           |       |       |     

L    1       1       1           4   1   2   3       4
     2
     4
     3
     1

[15]                                                       
E|---3---2---0==============-|---0======================-|
B|-------------------3======-|---------------------------|
G|---------------------------|-----------------------0---|
D|---------------2-----------|-----------2---------------|
A|-------------------2======-|-------2-------2-----------|
E|---0======================-|---0==============-0======-|
     |   |   |   |   |   |       |   |   |   |   |   |   
     |       |       |           |       |       |     

L    4   3       2   4               1   2   1       4
                     1
R                                a   i   m   i   p   a
                                 p

[17] VII.....................    V.......................
E|---7======================-|---5==================-7---|
B|-----------7-----------8---|-----------5---------------|
G|-------7-------7-----------|-------5-------5-----------|
D|-------------------9-------|-------------------7-------|
A|---------------------------|---5======================-|
E|---7======================-|---------------------------|
     |   |   |   |   |   |       |   |   |   |   |   |   
     |       |       |           |       |       |     

L    1   1   1   1   3   2       1   1   1   1   3   4 
     1                           1
R    a   i   m   i   p   m       a   i   m   i   p   a
     p                           p

[19] V.......................    VII.....................     
E|---8==================-5---|---7======================-|
B|-----------5---------------|-------------------8-------|
G|-------5-------5-----------|---------------9-------9---|
D|-------------------7-------|-----------9---------------|
A|---------------------------|-------7-------------------|
E|---5======================-|---7======================-|
     |   |   |   |   |   |       |   |   |   |   |   |   
     |       |       |           |       |       |     

L    4   1   1   1   3   1       1   1   3   4   2   4
     1                           1
R    a   i   m   i   p   a       a   p   i   m   a   m
     p                           p

[21] V.......................                                                    
E|---5======================-|---3==================-0---|
B|-----------6-----------7---|-----------1---------------|
G|-------5-------5-----------|-------0-------0-----------|
D|-------------------7-------|-------------------2-------|
A|---5======================-|---3======================-|
E|---------------------------|---------------------------|
     |   |   |   |   |   |       |   |   |   |   |   |   
     |       |       |           |       |       |     

L    1   1   2   1   3   4       4       1       2
     1                           3
R    a   i   m   i   p   m       a   i   m   i   p   a
     p                           p

[23] II......................                                                      
E|---2==============-2-------|---0==========-0---3====-2-|
B|---------------3-------3---|---------------------------|
G|-----------4---------------|---------------------------|
D|-------4-------------------|-----------2---------------|
A|---2======================-|-------2-------------------|
E|---------------------------|---0======================-|
     |   |   |   |   |   |       |   |   |   |   |   | | 
     |       |       |           |       |       |     

L    1   3   4   2   1   2           1   2       4     3
     1
R    p   p   i   m   a   m
  
[25]                                                       
E|---------------------------|---0==========-0==========-|
B|---0==========-0---3====-0-|-----------1-------3---1---|
G|-----------0---------------|-------0-------------------|
D|-------0-------------------|---------------------------|
A|---2======================-|---3======================-|
E|---------------------------|---------------------------|
     |   |   |   |   |   | |     |   |   |   |   |   |  
     |       |       |           |       |       |     
L    2               4           3       1       4   1

[27]                                                       
E|---------------------------|---------------------------|
B|---3==========-3---1====-0-|---------------0-----------|
G|-----------0---------------|---2-------------2-0---2---|
D|-------0-------------------|---2-------2---------------|
A|---2======================-|---0==-3==================-|
E|---------------------------|---------------------------|
     |   |   |   |   |   | |     |   |   |   | | |   |  
     |       |       |           |       |       |     
L    4           4   1           3   4   2     3     3
     2                           2

[29]                                                       
E|---------------0---3====-2-|---------------------------|
B|---0======================-|---0==========-0---3====-0-|
G|---------------------------|-----------0---------------|
D|-----------2---------------|-------0-------------------|
A|-------2-------------------|---2======================-|
E|---0======================-|---------------------------|
     |   |   |   |   |   | |     |   |   |   |   |   | | 
     |       |       |           |       |       |     

L        1   2       4     3     2               4


[31]                             V.......................     
E|---0==================-0---|---5======================-|
B|-----------1---------------|-------------------5-------|
G|-------0-------0-----------|---------------5-------5---|
D|-------------------2-------|-----------7---------------|
A|---3======================-|-------7-------------------|
E|---------------------------|---5======================-|
     |   |   |   |   |   |       |   |   |   |   |   |   
     |       |       |           |       |       |     

L    3       1       2           1   3   4   1   1   1
                                 1
R    a   i   m   i   p   a       a   p   i   m   a   m  
     p                           p    

[33] II.................                                                
E|---2======-----------------|---3==========-2---0-------|
B|---3======-------------0---|-----------------------3---|
G|---4======-----------------|---------------------------|
D|---4======-----------------|-----------2---------------|
A|---2======-2======-2======-|-------2-------------------|
E|---------------------------|---0======================-|
     |   |   |   |   |   |       |   |   |   |   |   |   
     |       |       |           |       |       |     

L    1       1       1           4   1   2   3       4
     2
     4
     3
     1
                              ___________________________
[35]                         | 1.                                             
E|---3---2---0---------------|---0==========-0---3====-2||
B|-------------------3======-|--------------------------||
G|---------------------------|-------------------------*||
D|---------------2-----------|-----------2-------------*||
A|-------------------2======-|-------2------------------||
E|---0======================-|---0=====================-||
     |   |   |   |   |   |       |   |   |   |   |   | | 
     |       |       |           |       |       |     

L    4   3       2   4               1   2       4     3
                     1

  
     ________________________
[37]|2.                                                
E|---0======-----------------|---------------------------|
B|---0======-----------------|---------------------------|
G|---0======---------0-------|---------------------------|
D|-----------4---------------|---2======================-|
A|---------------------------|---------------------------|
E|---0======-----------------|---0======================-|
     |   |   |   |   |   |       |   |   |   |   |   |   
     |       |       |           |       |       |     

L            3                   2


======
Legend
======
Left                       Right                   ___________
p = pull off               p = pulgar = thumb    |1.          = Ending 1
h = hammer on              i = indice = index     
/ = slide                  m = medio = middle     
= = suspend/hold Note      a = anular = ring      
V = Barre at fret 5
comments
We did not receive enough feedback on this tab! Please rate:
print report bad tab
1 2 3 4 5
I want to post or [tab]
guest
You may want to rate the tab now too:
select rating
Please do not post tabs as comments. Select "correction" instead!