Oops, an error
Loading. Please wait.

All Nirvana Songs Bass Tab

ver1
ver1

Album

More versions @911Tabs.com
47,816 views 111 this week
17 commentsread comments
1 2 3 4 5
accurate
x 63
Autoscroll
+/-
esc
set tempo
stop
Contributor
Hey! There's an official Ultimate Guitar app which is ideal
for learning songs when you're away from computer. Get the app
WARNING: You are trying to view
                                    content from Ultimate-Guitar.com
                                    in an unauthorized application,
                                    which is prohibited.

                                    Please use an official Ultimate
                                    Guitar Tabs application for iPhone,
                                    iPad or Android to access legitimate
                                    chords, guitar, bass, and drum tabs
                                    from Ultimate-Guitar.com database.

                                    Type "ultimate guitar tabs" in Apple
                                    App Store's or Android Market's
                                    search to find the application.
NIRVANA
ALL NIRVANA SONGS
-----------------------------------------------------------------------------
I done the last All Nirvana Songs but I had to do it again because I spotted
A few corrections, also I included a tuning table in the notes and a few extras... enjoy.
-----------------------------------------------------------------------------
                         -----NOTES-----
NOTE - Over the bass tab is the guitar chords, if the guitar tab differs from
the bass tab, then it is not included. Also, if the letters: PC are wrote over
the bass tab it means that the guitar Power Chords the bass tab. 

                   -----Powerchords in Drop D--------
When the bass is in drop D and is says to PC the tab, bar it!
Baring a bass tab:
If the Bass tab was:
G:----------
D:----------
A:----------
D:--3----7--
Then The Guitar Would Be:
4:--3----7--
5:--3----7--
6:--3----7—-
                    -----Tunings For Guitar----

The bass can do the same with all these tunings  but only up to the G string...

Standard Tuning: E A D G B E
How To Get It: Tune the low E string to a tuner or another guitar
Tune the A string to the 5th fret of the low E string
Tune the D string to the 5th fret of the A string
Tune the G string to the 5th fret of the D string
Tune the B string to the 4th fret of the G string
Tune the high E string to the 5th fret of the B string

Down 1/2 Step: Eb Ab Db Gb Bb Eb
How To Get It: Tune the 6th fret of the E string to the A string
Retune the rest of the guitar as in standard tuning

Drop D: D A D G B E
How To Get It: Tune the 7th fret of the low E string to the A string

Drop C: C A D G B E
How To Get It: Tune the 9th fret of the low E string to the A string

                   -----Chords into PowerChords-----
   E  F  F# G  G# A  Bb B  C  C# D  
1:---------------------------------||
2:---------------------------------||
3:----------------2--3--4--5--6--7—||
4:-2—-3—-4—-5—-6—-2--3--4--5--6--7-||
5:-2—-3—-4—-5—-6—-0--1--2--3--4--5-||
6:-0—-1—-2—-3--4-------------------||
-----------------------------------------------------------------------------
SYMBOLS USED IN THE BOOK:
\       slide up to
/       slide down to
PM      palm mute
NH      natural harmonic
*       mute
h       hammer on
~       vibrate
( )     bend
-----------------------------------------------------------------------------

                         *****BLEACH*****
BLEW
(Drop C tuning) 
Intro:
G:--------------
D:--------------
A:--------------
C:--0-0-3\6-6-5- (x4)  
Verse:
G:----------------------------
D:----------------------------
A:----------------------------
C:-0-0-3-5-6-6-5-3-3-0-0-5-5--
Chorus:
         PC
G:-------------------------
D:-------------------------
A:-------------------------
C:-3-5—-5-5-3--3-5--5-3-6— (x3)
         PC
G:----------------------------------------------
D:----------------------------------------------
A:----------------------------------------------
C:-3-5—-5-5-3-—3-5—-5-3-7—7-7-7-7-7-7-7-7-7-7-7- 
Outro:
G:-------------| 
D:-------------|    
A:-------------|    
C:-0-0-3\6-6-5-|

G:-----------------||
D:-----------------||
A:-----------------||
C:-0-0-3\6-6-0---0-|| 

FLOYD THE BARBER
(Tune down 1/2 step)
Verse:
       PC 
Gb:-------------|
Db:-------------|
Ab:-------------|
Eb:-1-1-0-0-0---|
Chorus:
    C#    A    C     G#    
Gb:------------------------|
Db:------------------------|
Ab:-4-4--0-0--3-3----------|
Eb:---------------4-4--4-4-|

ABOUT A GIRL
Verse:
    Em      G
G:---------------|
D:---------------|
A:---------------|
E:-0-0-0-3-3-3-3-|
Chorus:
    C#  G#     F#                                     PC         
G:---------------------------|           |-----------------------------|
D:---------------------------|           |-----------------------------|
A:-4--4-4--------------------|           |--------7--7-7------3--3-3-3-|
E:--------4--4-4-2-2-2-2-2-2-| x2, then: |-0--0-0--------5-5-----------|

SCHOOL
Intro and Verse:
G:-------------------------------------
D:-------------------------------------
A:-------------------------------------
E:-0--0-0-(5)--0-(5)-0--0-0-0-0-(5)----
Chorus:
    C          E
G:----------------------------------
D:----------------------------------
A:-3--3-3-3--3-3-3------------------
E:-----------------0--0--0----------

LOVE BUZZ   (Originally By: Shocking Blue)
Intro and Verse:
G:-3-1-3-3/7\3-| Every 4th time, play this:|--1--3-3---6-7-
D:-------------|                           |---------------
A:-------------|                           |--------------- 
E:-------------|                           |---------------
Chorus:
                  A  
G:---7---7-8--8-7---------------7--------------
D:-8---8------------8-6-8--6-8-----8-6-8-------
A:---------------------------------------------
E:---------------------------------------------
End Of Second Chorus:
G:------------8-9-
D:--7-9-7-9-7-----
A:----------------
E:----------------

PAPER CUTS
Intro And Verse:
           PC
G:-----------------------|
D:-----------------------|
A:-----------------------|
E:--1-1-1-1-1-1-*-1-1-1--|  
   {-------PM----------}
Chorus:
            PC
G:-----------------------|---------------
D:-----------------------|---------------
A:-----------------------|---------------
E:-2-3-3-4-4-5-5-6-7\6-6-|-5\4-4--7\6-6--
Post-Chorus:
            PC
G:-----------------| 
D:-----------------|
A:-----------------| 
E:-2-2-2-2-2-2-2-2-|

NEGATIVE CREEP
(Tuning: Drop D)
This is the whole song, except the 'Daddy's little girl'
G:---------------------|
D:---------------------| 
A:---------------------|
D:-0-0-12\-0-0-0-0-12\-|
'Daddy's little girl' bit:
G:-------------------------|
D:-------------------------|
A:-5-5-3-3-3---------------|
D:-----------6-6\13-13-13--|

SCOFF
Intro and Verse:
       1/2 PC
G:---------------
D:---------------
A:---------------
E:-2-2-1-0-2-2-1- 
Chorus:
        PC
G:---------------------
D:---------------------
A:---------------------
E:-3--3--3-0-0-5--2---- 
                  'Heal a million...'
SWAP MEET
Intro And Verse:
G:---------------
D:---------------
A:-----3-----2-1--
E:-0-1---0-1-----
Chorus:
        A            C
G:---------------------------|
D:---------------------------|
A:-0-0--0-0-0-3--3-3--3-3-3--|
E:---------------------------|

G:----------------|
D:----------------|
A:---3-2-1-0--1-2-|
E:-1--------0-----|

(Repeat 1st half of chorus)
End Of Chorus:
          PC
G:---------------------|
D:---------------------|
A:---------------------|
E:-2-2--1-1--0-0-0-0-0-|

MR MOUSTACHE 
Intro (main riff):
G:---------------------------------|
D:---------------------------------|
A:---2---------------1-------------|  
E:-3---3-2-1-0-1-2-3---3-2-1-0-1-2-|
Verse:
        G **** 
G:-------------|
D:-------------|
A:-------------|
E:-3-3-0-1-0-1-|
Chorus:
    A    C
G:-----------
D:-----------
A:-0-0-3-3-3-
E:-----------
                 PC
G:-----------------------------------------------------|
D:-----------------------------------------------------|
A:-0-0-0--0-0-0--0-0-0--0-0-0--3-3-3-3-6-6-6-6-6-6-6-6-|
E:-----------------------------------------------------|

SIFTING
Intro:
       PC         
G:---------
D:---------
A:---------
E:-0-0-0-0-
 [---PM---]
Verse:
        PC
G:-----------------------
D:-----------------------
A:-------3-------2-1-0---
E:-0-0-0---0-0-0---------
Pre-Chorus:
      PC
G:----------|
D:----------|
A:-------5--|
E:-0-0-0----|
                 'Your Eyes...'
Chorus:
         PC
G:--------------------------
D:--------------------------
A:-5--5-5-5-5-0-------------
E:----------------5-5-5-3-0-
During Solo:
G:---------|
D:---------|
A:---------|
E:-0-0-0---|

BIG CHEESE
Intro:
    PC 
G:-----|
D:-----|
A:-----|
E:-8-7-|
Verse:
    PC    @@@
G:----------------|
D:----------------|
A:----------------|
E:-8-8-7-----@@@--|
Chorus:
      PC
G:-------------------------------
D:-------------------------------
A:-------------------------------
E:--2--2-2--2-2-2-2--2-2--3-3----

Bridge:
G:--------------
D:--------------
A:-2-2-3-2-1-0--
E:--------------

DOWNER
     PC
G:-----------------|
D:-----------------|
A:-----------------|
E:-0-0-0-0-0-8-8-8-|

G:-----------
D:-----------
A:-----------
E:-1-2-3-2-1-
Interlude:
G:--------------------
D:----------0---1-----
A:--0---1------------- 
E:--------------------

			 *****Nevermind*****

SMELLS LIKE TEEN SPIRIT
Intro And Chorus:
     F          Bb       G#         C#  
G:----------------------------------------|
D:----------------------------------------|
A:---------****1--1-0---------****-4--4-0-|
E:-1--1-1--------------4--4-4-------------|
Verse:
G:----------------------------------|
D:----------------------------------|
A:---------1-1-1-1---------4-4-4-4--|
E:-1-1-1-1---------4-4-4-4----------|
(Guitar) Verse:
1:-----1---||
2:--1------||
Bridge:
     F    F#    F    Bb   
G:--------------------------
D:--------------------------
A:------------------1-1-1-1-
E:-1-1---2-2---1-1---------- (x2)

IN BLOOM
Intro:
           PC
G:----------------------|
D:----------------------|
A:----------------------|
E:-6--6-6-3--1--1-1\4---|
                          (x2)
              PC                    
G:------------------------------------------------------------|
D:------------------------------------------------------------|
A:----------------------------6-6-6-6-6--6--------------------|
E:-6-6-6-6-6--6--2-2-2-2-2--2----------------7-7-7-7--5-5-5-5-|
Verse:
G:----------------------------------------------------|
D:----------------------------------------------------|
A:---------------------------6-6-6-6-6--6-------------|
E:-6-6-6-6-6--6-2-2-2-2-2-2/--------------7-7-7--5-5--|
Chorus:
                   PC
G:----------|            |-----------|
D:----------|            |-----------|
A:----------|            |-----------|
E:-6--6-6-3-| (x4), then |-1-1-1-1-4-| (x2)

COME AS YOU ARE
Intro:
G:---------------------------------
D:---------------------------------
A:---------0---0----------2------2-
E:-0-0-1-2---2----2-2-1-0----0-0---
Verse:
G:-------------------------------|
D:-------------------------------|
A:-------0---0---------2-----2---|
E:-0-1-2---2---2-2-1-0---0-0-----|
Post-Chorus:
       F#               A     
G:------------------------------|
D:------------------------------|
A:------------------------------|
E:-2--2-2--2-2-2--5--5-5--5-5-5-|
           'Memoria...'
Chorus:
         B               D
G:------------------------------|
D:------------------------------|
A:-2--2-2--2-2-2--5--5-5--5-5-5-|
E:------------------------------|

BREED
Intro And Verse
       PC
G:-------------
D:-------------
A:-------------
E:-2-2-0-2\5-0-
Guitar Verse:
3:-11------------------------------10-|
4:-11------------------------------10-|
5:-9-(Play this PC 21 times then):-8--|
Chorus:
      D     A        C       B       
G:-------------------------------|
D:-------------------------------|
A:-5--5-5-0--0-0--3--3-3--2--2-2-|
E:-------------------------------|

LITHIUM
(Drop D)
Verse And Chorus:
G:---------------------------------------------------------------------|
D:---------------------------------------------------------------------|
A:---------------------------------------------------------------------|   
D:-0--0-0-4--4-4--9--9-9--5-5-5-5--8-8-8-10-10-10-10-7-7-7-10-10-10-10-|
Bridge:
G:------------------------|         
D:------------------------|
A:------------------------|
D:-1-1--4-4--1-1--4-4-4-4-| 

POLLY
Verse:
     E       G      D     C
G:-----------------------------|
D:-----------------------------|
A:-----------------5-5--3--3-3-|   
E:-0--0-0--3--3-3--------------|
Chorus:
    D     C    G     Bb 
G:-----------------------|
D:-----------------------|
A:-5-5--3-3-3------------|
E:------------3-3--6-6-6-|

TERRITORIAL PISSINGS
          PC
G:------------------------------------------------------------------|
D:------------------------------------------------------------------|
A:-----------------8-8-8-8-8-8-8-8--5-5-5-5-5-5-5-5-5-5-5-5-5-5-5-5-|
E:-5-5-5-5-5-5-5-5--------------------------------------------------|
Intermission:
G:----------------------------|
D:----------------------------| 
A:----------------------------|
E:-0-0-5--0-0-5--0-0-5--0-0-5-|

DRAIN YOU
Verse:
     B        D#    G#     C#         
G:-------------------------------|
D:-------------------------------|
A:-2-2-0--6-6-6-0-------4-4-4-0--|
E:----------------4-4-0----------|
Chorus:
         B                G#                                    G F E
G:---------------------------------|                          |-------||
D:---------------------------------|                          |-------||
A:-2-2-2-2-2-2-2-2-----------------|                          |-------||
E:-----------------4-4-4-4-4-4-4-4-| Play 4 Times And End With|-3-1-0-||
Bridge:
G:-----------------|
D:-----------------|
A:-----------------|
E:-0-0-0-0-0-0-0-0-| Over And Over

LOUNGE ACT
Whole song:    
G:---------------------------|
D:-----5---------------------|
A:---6----------4--4-5-4-3-2-|
E:-8-----4--4-0--------------|
Ending:
G:-----------------------|
D:-----------------------|
A:-----------------------|
E:-5-5-5-5--4-4--3-3-3-3-|
(Guitar) Verse: B G C  Chorus: Em A7 D G

STAY AWAY
Verse And Chorus:
        PC
G:----------------------------|
D:----------------------------|
A:-5-7--7--------8-8--8-------|
E:--------7-7--7--------8-8-9-|
Bridge:
         PC
G:--------------------|
D:--------------------|
A:-4\5-5-5-5-(5)------|
E:--------------------|

ON A PLAIN
Verse:
     D     A        G  
G:----------------------------
D:----------------------------
A:-5-5-0----------------------
E:-------5-5-0--3-3-2-2-3-2-0-
Chorus:
       D       A             C 
G:-----------------------------------|
D:-----------------------------------|
A:-5-5-5-5--0-0-0-0--3-3-3-3-3-3-3-3-|
E:-----------------------------------|
          F              E            A             G  
G:----------------------------------------------------------
D:----------------------------------------------------------
A:------------------------------0--0-0--0-0-0---------------
E:-1--1-1--1-1-1--0--0-0--0-0-0---------------3--3-3--3-3-3-

SOMETHING IN THE WAY
(Tune Down 1/2 step and then Drop D Tuning)
Intro And Verse:
         PC
Gb:----------------------|
Db:----------------------|
Ab:----------------------| 
Db:-4--4—-4-4--0--0--0-0-|
Chorus:
Gb:---2----2----2----2-|
Db:--------------------|
Ab:--------------------|
Db:-4---4----0----0----| repeat...
                   *****Incesticide*****
All songs on this album were recorded 1/2 step lower,
these tabs here are all in standard tuning. 
DIVE
Bass Intro:
G:------------------------------|
D:------------------------------|      
A:----------------------7-7-7-0-|
E:-2--0-(2)-0--(2)-0-0----------|
Verse:
       PC
G:--------------------------|
D:--------------------------|
A:------------------7-7-7-0-|
E:-2-0-2-2--0-2-0-0---------| 
Chorus:
        PC
G:--------------------------------|
D:--------------------------------|
A:-2--2-2--4--4-4---------7--7----|
E:----------------4--4-4----------|
Bass Solo:
G:------------------------------------|
D:------------------------------------|
A:-13-11-13-(13)-11-13-11-11----------|
E:---------------------------12-12-12-|

SLIVER
Bass Intro And Verse:
     C      F     C   A G# A
G:---------------------------|
D:---------------------------|
A:-3--3-3--------3-3---------|
E:--------1--1-1-----5-5-4-5-|
Chorus:
       A      C    
G:----------------|
D:----------------|
A:--------3--3-3--|
E:-5--5-5---------|

STAIN
(Drop D tuning)
Guitar intro:
4:-0--1--|
5:-0--1--|
6:-0--1--|
Verse:
(Drop D tuning)      
       PC
G:------------|
D:------------|
A:------------|
D:-1-2—-2-2-2-|
Chorus:
        PC
G:----------------------------|
D:----------------------------|
A:----------------------------|
D:-8-8—-7-7-7-—0-0-0-0-0-0-0--|

BEEN A SON
(Drop D tuning)
Verse:
      PC
G:---------------------------|
D:---------------------------|
A:-5-5--3-2-0--5-5-5--3-2-0--|
E:---------------------------|
Chorus:
        PC
G:-----------------------|
D:-----------------------|
A:-----------------------|
D:-5-5--3--2-2--2-2-2-2--|

TURN AROUND   (Originally By Devo)
Bass Intro And Verse:
G:-------------------------------|
D:-------------------------------| 
A:-------------------7-7-7-7-7-7-| 
E:-0-0-0-0-0-0-0-0-0-------------|
Chorus:
    D    C       A             F#    G       D
G:----------------------|    |----------------------|
D:----------------------|    |----------------------|
A:-5-5--3-3--0-0-0--0-0-|    |----------5--5-5--5-5-|
E:----------------------| x2 |-1-1--3-3-------------| (x2)

MOLLY'S LIPS   (Originally By The Vaselines)
     G       C
G:----------------|
D:----------------|
A:--------3-3-3-3-|
E:-3--3-3---------|

SON OF A GUN   (Originally By The Vaselines)
Intro And Verse:
      A      E     D      E
G:----------------------------
D:----------------------------
A:--------------5--5-5--------     
E:-5--5-5--0--0---------0--0--
Chorus:
           G                C                 D               C
G:------------------------------------------------------------------
D:------------------------------------------------------------------
A:------------------3-3-3-3-3-3-3-3-5-5-5-5-5-5-5-5-3-3-3-3-3-3-3-3-
E:-3-3-3-3-3-3-3-3--------------------------------------------------
Interlude:
          G                 D
G:-----------------------------------
D:-----------------------------------
A:------------------\5-5-5-5-5-5-5-0-
E:-3-3-3-3-3-3-3-3------------------- (x2)
            A              High E
G:----------------------------------
D:----------------------------------
A:-----------------\7-7-7-7-7-7-7-7-
E:-5-5-5-5-5-5-5-5------------------  (x2)

POLLY NEW WAVE
Intro And Verse
      E      G     D     C
G:----------------------------||
D:----------------------------||
A:----------------5-5--3--3-3-||
E:-0--0-0-3--3-3--------------||
Chorus:
    D      C     G      A#
G:--------------------------
D:--------------------------
A:-5-5--3--3-3--------------
E:--------------3-3--6--6-6-

BEESWAX
Intro And Verse:
        PC
G:-----------------------
D:-----------------------
A:-----------------------
E:--8-7-7-6-6-6-5-5-4----
Chorus:
    E    G    E      G
G:------------------------|
D:------------------------|
A:------------------------|
E:-0-0--3-3--0-0--3-3-3-3-|
   F#    F
G:---------|
D:---------|
A:---------|
E:-2-2-2-1-|

DOWNER
Intro And Verse:
     PC
G:-----------------
D:-----------------
A:-----------------
E:-0-0-0-0-0-8-8-8-
Chorus:
      PC
G:-----------| 
D:-----------|
A:-----------|
E:-1-2-3-2-1-|
Interlude:
G:---------------
D:-------0---1---
A:-0---1---------
E:---------------

MEXICAN SEAFOOD
(tune down 1/2 step)
Intro And Chorus (Main Riff)
       PC
Gb:------------------||
Db:------------------||
Ab:------------------||
Eb:-5--5--3-3-5-3-2--||
Verse:
       PC
Gb:----------------|
Db:----------------|
Ab:----------------|
Eb:-5****5****5-3--|
Intermission (Bass):
Gb:-------------------------------
Db:-------------------------------
Ab:-------------------------------
Eb:-5-------5----5-----------5----
                              (x4)
Gb:----------------------------------
Db:----------------------------------
Ab:------------------7-6-5-----------
Eb:-0-3-4-0-4-5-6-0----------7-6-5-3-

HAIRSPRAY QUEEN
BassLine:
G:-----------------
D:---------7-------
A:-5----------(6)--
E:---0-(2)---------  

Chorus:
    E
G:------
D:------
A:------
E:--0---    repeat...
      'At night...'

AERO ZEPPELIN
Intro:
G:------
D:------
A:------
E:-0-0--

(Riff B) Bridge: 
G:-------------------------------
D:-------------------------------
A:-----2-5-5-5----1------1-------
E:-0-0--------0-0---3--3---3-----
(Riff C)
G:---------------------------|--------------------------|
D:---------------------------|--------------------------|
A:-----2-2-2-2-2-2-5-5-5-5-7-|-4-----3-----2-----1------|
E:-0-0-----------------------|---4-4---3-3---2-2---1-1--|
(Repeat the ending of riff C when needed)
(Riff D)
G:------------------||
D:------------------||
A:------------------||
E:-0-0--5-5-4-0-5-4-|| (x4)

Guitar Riff To Aero Zeppelin:
Intro And Verse (A): 
1:-----0----------------0-------0----
2:-------3---3------------3---3------
3:---------3---3------------3--------
4:-2-2-------------2-2---------------
5:-2-2-------------2-2---------------
6:-0-0-------------0-0---------------
At the end of verse play:
1:-------------------------           
2:--------3----------------
3:----------3-------------- 
4:-2-2---------------------
5:-2-2---------------------
6:-0-0--------------------- Repeat...
Bridge (B):
1:---------------------------------
2:---------------------------------
3:---------------------------------
4:-2-2--4\7-7-7--2-2---------------
5:-2-2--2\5-5-5--2-2--1-----1------ 
6:-0-0-----------0-0----3-3----3---
Riff (C):
1:-----------------------|-------------------------
2:-----------------------|-------------------------
3:-4-4-4-4-4-4\7-7-7-7-9-|-------------------------
4:-4-4-4-4-4-4\7-7-7-7-9-|-------------------------
5:-2-2-2-2-2-2\5-5-5-5-7-|-4-----3-----2-----1-----
6:-----------------------|---4-4---3-3---2-2---1-1-          
(Repeat the ending of that when needed, you'll hear it)
Riff (D):
1:------------------------
2:------------------------
3:------------------------
4:-2-2--------------------
5:-2-2--------------------
6:-0-0--5-5-4-0-5-4-------
            (Play that 4 times).
Verse: E B E G
Chorus: Riff C

BIG LONG NOW
G:-------------0-------
D:-----0---------------
A:---8---8---8---8-----
E:-9-------9-----------
"Can we show our faces now?" part:
   Bb  A  G# 
G:----------
D:----------
A:-1---0-----
E:--------4--
Chorus:
      PC
G:--------------
D:--------------
A:--------------
E:-10-10-10-9---
End of chorus:
   F#  F   F
G:------------
D:------------
A:------------
E:-2---1---1--

ANEURYSM
Intro (Main Riff):
                 PC
G:---------------------------------
D:---------------------------------
A:---------3-3-3-3-2-2-2-2-0-0-0-0-
E:-2--2-2--------------------------
Verse:
            B                           D
G:---------------------------------------------------------
D:---------------------------------------------------------
A:-2-2-2-2-2-2-2-2-2-2-2-2-5-5-5-5-5-5-5-5-5-5-5-5-5-5-5-5-
E:---------------------------------------------------------
Chorus:
      F#       A      B       A
G:---------------------------------
D:---------------------------------
A:---------------------------------
E:-2-2--2--5--5-5--7-7-7-7-5-5-5-5-

                             *****In Utero*****
SERVE THE SERVANTS
Intro:
G:----13---
D:----12---
A:---------
E:---------
Verse:
G:------------------------7----7----------11------9----
D:--------7----7--------6----6---6---------------------    
A:------6----6---7--7-7----------------9-------7-------
E:--7-7------------------------------------------------ 
Chorus:
          A             C#
G:------------------------------
D:------------------------------
A:-0--0-0--0-0-0-4--4-4--4-4-4--
E:------------------------------ (x3)
               'Serve the servants, oh no...'
G:-----------------------------
D:-----------------------------
A:-----------------------------
E:-2--2-2--2-2-2-3--3-3--3-3-3- 
                    'The Legendary Divorce...'
G:--13-||
D:--12-||
A:-----||
E:-----|| 
     'Bore...'

SCENTLESS APPRENTICE
Main riff:
          PC    
G:-----------------------------
D:-----------------------------
A:------0----0---------0----0--
E:-2--2---2----2-2-2-2---2-----
Chorus:
G:--------------------------------------------------------------
D:--------------------------------------------------------------
A:-3--3-3-3\5--5-5-5\7--7-7-7\8--8-8-8\10--10-10-10-12-12\15/12\
E:--------------------------------------------------------------

HEART-SHAPED BOX
G:---------------------------------------
D:---------------------7-----7---7-------
A:-----(7)-----(3)-5-5---5-5---5---------
E:-5-5-----1-1---------------------------

RAPE ME
(No bass until chorus):
Chorus:
     A       C    E       G  
G:----------------------------
D:----------------------------
A:----------------------------
E:-5-5****8-8-8--0-0****3-3-3-
Interlude:
      C      G#              |    |          PC              
G:---------------------------|    |------------------------------------------
D:---------------------------|    |------------------------------------------
A:-3-3-3-3-3-----------------|    |------------------------------------------
E:-----------4(hold)-3-2-1-0-| x4 |-0-0--0-0-0-2-2--2-2-2--11---11---11---11-
(Play Chorus for ending).

FRANCIS FARMER WILL HAVE HER REVENGE ON SEATTLE
Intro And Verse:
         G#            E      G       E      G 
G:--------------------------------------------------
D:--------------------------------------------------
A:--------------------------------------------------
E:-4-4-4-4-4-4-4-4/0-0-0-0-3-3-3-3-0-0-0-0-3-3-3-3-- 
                                                 (x2)
        B                          
G:--------------------------
D:--------------------------
A:-2-2--2-2-2--2-2--2-2-2-2-
E:--------------------------
Chorus:
                      PC
G:-----------------------------------------------
D:-----------------------------------------------
A:-4-4--4-4-4--7-7-7-5-5--2-2--2-2-2--2-2--2-2-2-
E:-----------------------------------------------
End Of Chorus:
          A            B               A               G 
G:-------------------------------------------------------------
D:-------------------------------------------------------------
A:-0--0-0--0-0-0--2--2-2--2-2-2-0--0-0--0-0-0------------------
E:---------------------------------------------3--3-3--3-3-3-3-

DUMB
Verse:
      E      A      G       C 
G:--------------------------------
D:--------------------------------
A:------------------------3-3-3-0-
E:-0--0-0-5-5-5-0-3-3-3-0---------
Chorus:
        E               G
G:------------------------------
D:------------------------------
A:------------------------------
E:-0--0-0--0-0-0-3--3-3--3-3-3--
Interlude near end:
          B           C
G:-----------------------------
D:-----------------------------
A:-2--2-2--2-2-2-3--3-3--3-3-3-
E:-----------------------------

VERY APE
Verse:
        PC
G:-----------------
D:-----------------
A:-----------------
E:-3\5-5-5-3\6-6-6-
Chorus:
        PC
G:-----------------
D:-----------------       
A:-----5-5-5-9-9-9-
E:-5-5-------------   

MILK IT
Verse And Chorus:
                 PC (chorus)
G:-----------------------------------------------------------
D:-----------------------------------------------------------
A:-------6-6-6-6------------------------------6-6-6-6--------
E:-5-5-5----------2-2-2-3-3-3-0-0-0-0-0-5-5-5---------2-2-3--
Bridge:
        PC
G:-----------------------------------------
D:-----------------------------------------
A:-------6-6-6-6---------------------------
E:-5-5-5---------2-2-2--3-3-3-3-3-0-0-0-0--

PENNYROYAL TEA
(Tune down 1 step).
Verse:
G:-----------------------------------------------------------
D:-----------------------------------------------------------
A:-0--0-0--0-0-0--0--0-0--0-0-0------------------------------ 
E:------------------------------3--3-3--3-3-3--3--3-3--3-3-3-
Chorus:
          C              D           Bb         A
G:-------------------------------------------------------------
D:-------------------------------------------------------------
A:-3--3-3--3-3-3-5--5-5--5-5-5-1--1-1--1-1-1--1-0-1-0-1-0-1-0--
E:-------------------------------------------------------------

RADIO FRIENDLY UNIT SHIFTER
Intro And Verse (Main Riff)
G:---------------------------
D:---------------------------
A:-----3----------2----------
E:-5-5---5-0--3-3---3-0-2-0--
Verse (Guitar): PC^
Bridge:
              PC
G:-------------------------------------------------
D:-------------------------------------------------
A:-3--3-3-3-3\7--7-7-7-7-0--0-0-0-0-0--------------
E:------------------------------------4---4-3-3-0--

TOURETTE'S
         PC
G:---------------------------------
D:---------------------------------
A:---------------------------------
E:-1-1-1-1-5-5-5-5-6-6-6-6-2-2-2-2-
Chorus (Guitar):
3:---4-3-4-4-- 
4:-3----------
5:-3----------
6:-1----------

ALL APOLOGIES
Verse:
G:-------------------
D:-------------------
A:-------------------
E:-10-10-10-10-10-10-
                 (over and over!)
(Guitar)
Intro And Verse:
G:--------------------------------------------------
D:------------------------------------12-12-10-9----
A:-------9-----12-12-10-9--------9------------------
E:-10-10---10-------------10-10----10---------------

G:--------------------------------------------------
D:------------------------------------16-16-14-12---
A:-------9----12-12-10-9----------9-----------------
E:-10-10---10------------10-10-10-------------------
Chorus:
            G
G:------------------------
D:------------------------
A:------------------------
E:-3-3--3-3-3--3-3--3-3-3- Repeat...
                  'In the sun...'
   A
G:-----
D:-----
A:-0---
E:-----
       'Married!'
      
                              *****Unplugged*****
All guitars in this preformance were tuned down 1/2 step.

ABOUT A GIRL
Intro And Verse:
      Em     G
G:----------------
D:----------------
A:----------------
E:-0--0-0-3-3-3-3-
Chorus:
     C#      G#         F#                          PC
G:-----------------------------|    |-------------------------------
D:-----------------------------|    |-------------------------------
A:-4--4-4----------------------|    |---------7--7-7-------3--3-3-3-
E:--------4--4-4-2--2-2--2-2-2-| x2 |-0--0-0----------5-5-----------

COME AS YOU ARE
Intro And Verse:
G:---------------------------------
D:---------------------------------
A:---------0---0---------2-----2---
E:-0-0-1-2---2---2-2-1-0---0-0-----
    (Only use that first '0' at the start of a verse)
Chorus:
        F#            A
G:-----------------------------
D:-----------------------------
A:-----------------------------
E:-2--2-2--2-2-2-5--5-5--5-5-5- 
                 'Memoria...'
Bridge:
         B              D
G:------------------------------
D:------------------------------ 
A:-2--2-2--2-2-2-5--5-5--5-5-5--
E:------------------------------

JESUS DOESN'T WANT ME FOR A SUNBEAM   (Originally By The Vaselines)
Intro And Verse: 
        E               D               A Asus4 A
G:----------------------------------------------------------
D:----------------------------------------------------------
A:---------------5--5-5--5-5-5------------------------------
E:-0--0-0--0-0-0----------------5--5-5--5-5\6-5--5-5--5-5-5-

Chorus:
         E              D      |    |         A sus4 A
G:-----------------------------|    |---------------------------
D:-----------------------------|    |---------------------------
A:---------------5--5-5--5-5-5-|    |---------------------------
E:-0--0-0--0-0-0---------------| x3 |-5--5-5--5\6-5--5-5--5-5-5- 

THE MAN WHO SOLD THE WORLD   (Originally By David Bowie)
Intro And Post Chorus Riff:
G:-2-2-2-0--2^3^2-0- 
D:------------------
A:------------------
E:------------------
Verse:
            A                       D
G:--------------------------------------------------
D:--------------------------------------------------
A:-0-0-0-0-0-0-0-0-0-0-0-0-5-5-5-5-5-5-5-5-5-5-5-5--
E:--------------------------------------------------
           A                       F
G:--------------------------------------------------
D:--------------------------------------------------
A:-0-0-0-0-0-0-0-0-0-0-0-0--------------------------
E:-------------------------1-1-1-1-1-1-1-1-1-1-1-1--
              C                       A
G:-------------------------------------------------
D:-------------------------------------------------
A:-3-3-3-3-3-3-3-3-3-3-3-3-0-0-0-0-0-0-0-0-0-0-0-0- 
E:-------------------------------------------------
               D              C
G:-------------------------------
D:-------------------------------
A:-5-5-5-5-5-5-5-5-5-5-5-5--3-3--
E:-------------------------------

Chorus: C C# F
G:-----------2-3-5-|-----------------|-----------||
D:-----2-3-5-------|-----------0-2-3-|------3----||
A:-3-5-------------|-----0-1-3-------|--4-4---4--||
E:-----------------|-1-3-------------|-----------||
(Guitar) Outro:
3:-2-2-2-0-2\9~~~9~~9-2-2-2-0-2^3^2-0-2-2-2-0-2\10~~~~~- 

3:-9-9-7-7~~~~~\9--9-9--9-9-9--9--9-9--9-9-9-

3:-2-2-2-0-2^3^2-0--2-2-2-0-2\10~~~10~~~10---

3:-9-9/7-7~~~\9--9-9--9-9-9--9--9-9--9-9-9---

3:-2-2-2-0-2^3^2-0--2-2-2-0-2^3^2-0--2-------

PENNYROYAL TEA
Verse:
G:------------------------------------------------------------
D:------------------------------------------------------------
A:-0--0-0--0-0-0--0--0-0--0-0-0-------------------------------
E:------------------------------3--3-3--3-3-3--3--3-3--3-3-3--
Chorus:
      C                  D            Bb        A Bb    A
G:------------------------------------------------------------
D:------------------------------------------------------------
A:-3--3-3--3-3-3-5--5-5--5-5-5-1--1-1--1-1-1--1-0-1-0-1-0-1-0-
E:------------------------------------------------------------

DUMB
Verse:
       E     A       G        C
G:---------------------------------
D:---------------------------------
A:-------------------------3-3-3-3-
E:-0--0-0-5-5-5-5-3-3-3-3----------
Chorus:
           E            G
G:------------------------------
D:------------------------------
A:------------------------------
E:-0--0-0--0-0-0--3--3-3--3-3-3-
Bridge:
            B          C 
G:-----------------------------
D:-----------------------------
A:-2--2-2--2-2-2-3--3-3--3-3-3-
E:-----------------------------

POLLY
Verse:
       E      G     D       C
G:-------------------------------
D:-------------------------------
A:-----------------5-5--3--3-3-3-
E:-0--0-0--3-3-3-3---------------
Chorus:
     D     C   G     Bb
G:------------------------
D:------------------------
A:-5-5-3--3-3-------------
E:------------3-3--6--6-6-

ON A PLAIN
Verse:
      D      A       G 
G:--------------------------------
D:--------------------------------
A:-5--5-5-------------------------
E:--------5--5-5--3--3-3--2-3-2-0-
Chorus:
       D      A        C
G:--------------------------------
D:--------------------------------
A:-5--5-5---------3--3-3--3-3-3-3-
E:--------5--5-5------------------
                        'I'm on a plane...'
Bridge:
        F                E               A              G
G:------------------------------------------------------------
D:------------------------------------------------------------
A:-------------------------------0--0-0--0-0-0----------------
E:-1--1-1--1-1-1--0--0-0--0-0-0-----------------3--3-3--3-3-3-

SOMETHING IN THE WAY
(Drop D)
Verse:
G:-----------------------
D:-----------------------
A:---4---4------0---0----
E:-4---4---4--0---0---0—
Chorus:
G:----------------2—-2-2--2-2-2-
D:------------------------------
A:------------------------------
D:-4—-4-4—-4-4-4----------------

PLATEAU   (Originally By The Meat Puppets)
Intro And Verse:
(Guitar #1 Plays this on the 6th and 1st string)
G:---------------------
D:---------------------
A:---------------------
E:-3\6-3\6-3\6-1-------
Coming into chorus:
   G#
G:----
D:----
A:----   
E:-4--   
Chorus:
G:-------------------------------
D:-------------------------------
A:-------------------------------
E:-3-0-6-0-3-0-6-0-3-0-6-0-1-----

OH, ME   (Originally By The Meat Puppets)
Intro And Verse:
             E                D                C        D      E
G:-----------------------------------------------------------------
D:-----------------------------------------------------------------
A:-------7---------------7--5--5-5---------7-3--3-3-5--5-5---------
E:-4-5-7---0--0-0--4-5-7------------4-5-7-------------------0--0-0-
Chorus:
        G            E  
G:-----------------------
D:-----------------------
A:-----------------------
E:-3--3--3-3--3-3--0--0--
End Of Chorus:
                C            D         E    
G:-----------------------------------------
D:---------5-5-5-5-5-5\7--7--7-7-7-7-------
A:-------7/3-3-3-3-3-3\5--5--5-5-5-5--2-2-- 
E:-4-5-7------------------------------0-0--

LAKE OF FIRE   (Originally By The Meat Puppets)
Intro And Chorus:
              PC
G:---------------------------------------------------------
D:---------------------------------------------------------
A:------------1---------3-3-1------------1--3-3--3---------
E:-3-3--3-1-1----3-3--3-------3-3--3-1-1------------1--1\3-
Verse:
       D       Bb        A     D   Bb   C    D
G:-----------------------------------------------------------------
D:-----------------------------------------------------------------
A:-5-5-5-5-1-1-1-1-5-5-5-5-0-0-0-0-5-5-5-5-1-1-1-1-3-3-3-3-5--5--5- 
E:-----------------------------------------------------------------

ALL APOLOGIES
Verse:
G:---------------------------------------------------------
D:-----------------------------------12-12-10-9------------
A:-------9----12-12-10-9-------9---------------------------
E:-10-10---10------------10-10----10-----------------------

G:----------------------------------------------------
D:-----------------------------------16-16-14-12------
A:-------9----12-12-10-9-------9----------------------
E:-10-10---10------------10-10---10-------------------
Pre-Chorus:
         G
G:------------------------------|
D:------------------------------|
A:------------------------------|
E:-3--3-3--3-3-3--3--3-3--3-3-3-| etc...
           'In The Sun...'
Chorus:
     A
G:---------
D:---------
A:---------
E:-5----5--
            'Married!'

WHERE DID YOU SLEEP LAST NIGHT?   (Originally By Huddie Ledbetter)
Whole Song:
                      E                A        G           B       G     E
G:---------------------------------------------------------------------------
D:---------------------------------------------------------------------------
A:---------------------------------------------------------------------------
E:-0--0-0-0-0--0-0-0-0--0-0-0-7--7-7-5--5-5--3--3-3-3--7--7-7-7--3--3--3--0--
                       
                       *****RARITIES AND B-SIDES*****
ALCOHOL:
Intro And Interlude:
        PC
G:--------------
D:--------------
A:-3-------5-5--      
E:-----3-3------
Main Bassline And guitar Chorus:
G:--------------------
D:--------------------
A:-----------------3--
E:-0-0-3-0-3-0-3-3----
(Guitar) Verse: C

ANOREXORCIST
(Tuning: Drop D)
Verse:
G:-------------------------------
D:-------------------------------
A:-------------------------------
D:-3-2-0-3-2-0-3-2-0-3-2-0-3-2-1-
Chorus:
     PC
G:---------------------
D:---------------------
A:-2---2-0-2--0--------
D:---------------2-1-0-

BABA O'RILEY   (Originally By: The Who)
Guitar Intro:
2:-9-10-12-10--||

Verse And Outro:
      E     B       A
G:---------------------------
D:---------------------------
A:----------2--0--0-0-0--0-0-
E:-0--0-0-0------------------

BEANS
This Song Has No Bass, But Here's The Guitar
Verse:
5:-6-6-----6-6------
6:-----6-6-----6-6--
End Of Verse:
5:-6-6-----4-
6:-----6-6---

BLANDEST
(Tune Down 1 Step)
Intro And Verse:
G:----------
D:----------
A:---7------ 
E:-9---9--6-
Chorus:
G:-------------------------------12--
D:-------------------3-----------12--
A:-3-4-5-4-3-1-3-4-5---5-4-3-1---10--
E:-----------------------------3-----

BAMBI SLAUGHTER
(Bass Only)
Verse:
G:------------------------------------------------------------------
D:------------------------------------------------------------------
A:-1-1-1-1-4-4-4-4-9-9-9-9-8-8-8-8----------------------------------
E:----------------------------------1-1-1-1-4-4-4-4-9-9-9-9-8-8-8-8-
Chorus: 
G:-------------------------------------------------
D:-------------------------------------------------
A:-----------3-----------1-------------------------
E:-5-5-5-5-5---3-3-3-3-3---1-1-1-1-1-2-1-1-1-1-1-2-

CLEAN UP BEFORE SHE COMES
G:------------------------------------
D:------------------------------------
A:------------------------------------
E:-0-11-h12-0-11-h12-0-11-h12-0-3-0-3-
  [--------------PM----------]
Chorus:
          A             C
G:--------------------------------------------------------------
D:--------------------------------------------------------------
A:-0--0-0--0-0-0-3--3-3--3-3-3----------------------------------
E:------------------------------0-11-12-0-11-12-0-11-12-0-3-0-3-
End Of Chorus:
       B   A       B  A
G:----------------------
D:----------------------
A:-2-2-2-2-0--2-2-2-2-0-
E:----------------------

COME ON DEATH
Whole Song: 
(Guitar only at Chorus) PC
G:----------------------------
D:----------------------------
A:---------------2-2-2--------
E:-5-5-5--4--4-4-------3--3-3-

CURMUDGEON
Verse:
      PC
G:------------7---
D:----------------
A:---------------- 
E:-6--(6)-6-0------
Chorus:
         F#             D
G:-----------------------------
D:-----------------------------
A:---------------5--5-5--5-5-5-  
E:-1--1-1--1-1-1---------------    
   G      E     A
G:----------------
D:----------------
A:----------------
E:-3--0--0-0-0--5-        
              (x8)
D-7   (Originally By: The Wipers)
Intro (Quiet Part):
G:-------------------
D:-----2---------0---
A:---2---2-0---3---3-
E:-0---------1-------
Loud Part:
       E    F    G
G:-------------------
D:-------------------
A:-------------------
E:-0-0-0-0-1-1-3-3-3-
               (x4)
       A    Bb   C
G:-------------------
D:-------------------
A:-------------------
E:-5-5-5-5-6-6-8-8-8-
               (x2)
      E      F   G
G:-------------------
D:-------------------
A:-------------------   
E:-0-0-0-0-1-1-3-3-3-
               (x2)
DO YOU LOVE ME   (Originally by: Kiss)
Intro And Chorus:
         PC
G:--------------------------
D:--------------------------
A:-------1--------1\6-------
E:-1---------1----------6/1-
Verse:
         C               Bb
G:-----------------------------
D:-----------------------------
A:-3-3*3-3-3-3*3*3-3*3-3-1-----
E:-----------------------------

ENDLESS NAMELESS
Intro:
G:------------------------------------------------------
D:------------------------------------------------------
A:------------------------------------------------------
E:-0--0-0-0-0-0-0-0---0-0-0-0---0-0-0-0---0-0-0-0-0-0-0-
      [----PM-----](x4)[PM]       [PM]    [-----PM-----] etc...'0's.
Chorus:
G:----1---1------1---1---
D:-----------------------
A:-3----3---3-2---2----2- 
E:-----------------------
(Outro: More '0' while guitar does a lot of Feedback)

EVEN IN HIS YOUTH
Intro And Verse:
    C   G G# G
G:-------------
D:-------------
A:-3-3---------
E:-----3-3-4-3- 
Chorus:
        PC
G:-----------------
D:-----------------
A:-7-7-3-3-----5-5-
E:---------3-3-----

FORMALDEHYDE
Bass Line:
G:---------------------------
D:--------9-----------9-9---
A:------9---9------9------9-
E:-7------------7-----------
Guitar Part:
3:-12-11-9-8---9-8-7-6---7-6-5-4-4---4-5-4-3-

3:-8-7-7-6---7-6-5-4---5-4-3-2-2---2-2\4-3-1-

3:-14-15-14-12---14-13-12-11---12-11-10-9-9-8-9-10-9-8-

3:-14-12-11-10---11-10-9-8---9-8-7---6-6-5-6-7-6-5-

GALLONS OF RUBBING ALCOHOL FLOW THROUGH THE STRIP
Main Riff:
G:---2-0----0-0----2-0----0-0-
D:----------------------------
A:-3------2-----3------2------   
E:----------------------------              
'I Haven't Had A Date Forever':
G:------------------------
D:------------------------
A:-3-----3-----2----1-----
E:------------------------

Guitar
Main Riff:
2:----------------3-0-
3:---2--0-----0-0-----
4:--------------------
5:-3------------------
6:----------2---------
'I Haven't Had A Date Forever':
C  B  Bb

HEARTBREAKER (Originally By: Led Zeppelin)
Main riff:
G:------------------------------------
D:------------------------------------
A:---3--5-6-7-------------3--5-6-7----
E:-5----------3\5-5-5-5-------------3- (Repeat...)

G:-------------------------------------
D:-------------------------------------
A:----5--7-8-9--------------5--7-8-9---
E:--7------------5\7-7-7-7-----------5- (Repeat...)
Verse:

G:------------------------
D:------------------------
A:------------------7-7-7-
E:-5--5\8-8-8--5-5-------- (Repeat...)
 
HELP ME, IM HUNGRY
Whole Song:
     G        F     A       E (Guitar is only at chorus)
G:------------------------------
D:------------------------------
A:------------------------------
E:-3-3-3--1--1-1--5-5-5--0--0-0-

HERE SHE COMES NOW   (Originally By: Velvet Underground)
Intro:
G:--------
D:--------
A:-0-h2---
E: -------
(Theres No Full Bassline Until The Chorus, 
 Tune down 1/2 step.)
Chorus: 
       B           A      
G:---------------------------
D:---4---4------2---2--------
A:-2---2---2-0----0---0------
E:---------------------------
                  'oh, she looks so good...'
            G
G:--------------------------
D:--------------------------
A:--------------------------
E:-3--3--3-3-3--3--3--3-3-3- 

Second And Third Verses:
         B
G:---------------
D:---------------
A:-2--2-2--2-2-2- (Over And Over...)
E:---------------

HIGH ON THE HOG
Intro And Interlude:
      PC
G:-------------
D:-------------
A:-3------5-5--     
E:----3-3------
Main Bassline And Guitar Chorus:
G:-------------------
D:-------------------
A:-----------------3-
E:-0-0-3-0-3-0-3-3---
Guitar Verse: C

IF YOU MUST/I CAN LIVE
(Drop D Tuning)
G:-----------5---
D:-----6---5-----
A:---6---5-------
D:-6-------------
Chorus:
G:--------------
D:--------------
A:--------------
D:-6---6---0--0-
Bridge:
G:-------------------------
D:-------------------------
A:-------------------------
D:-3-3-3-3-3-3-0-0-0-0-0-0-
  [----PM----]
Play That 4 times, then the Chorus riff 4 times and 
finish by play this last riff 4 times:
      PC
G:-------------
D:-------------
A:-------------
D:-12----7--6--

I HATE MYSELF AND WANT TO DIE
(Drop D Tuning)
G:-----------------
D:-----------------
A:-3--3------------
D:------0-0-2-1-2--
Chorus:
     A      C      A       C
G:------------------------------
D:------------------------------
A:------------------------------
E:-5--5-5-8-8-8-5--5-5--8-8-8-8- 

IMMODIUM
Verse:
       PC
G:--------------
D:--------------
A:--------------
E:-2-2--0-2\5-0-
Verse (Guitar):
3:----------------------------------11------
4:11--------------------------------11------
5:-9-(Play this PC 21 times, then:)-8------- 
6:------------------------------------------
Chorus:
      D      A      C      B
G:-----------------------------
D:-----------------------------
A:-5--5-5-0--0-0-3--3-3-2--2-2-
E:-----------------------------

IN HIS HANDS/ROOM
Intro And Verse:
             PC 
G:--------------------------------------------------------------
D:--------------------------------------------------------------
A:-2--2-2------------------------2--2-2\5-5-5-5-----------------
E:--------3--3-3/2--2-2/0--0-0-0-----------------5--5-5/3-3-3-3- 
Chorus:
        PC 
G:-----------------
D:-----------------
A:-0-0-7-7-3-3-6-6-
E:-----------------
Bassline After Second Chorus:
G:---------------------------
D:---------------------------
A:-2--2-2--------------7-7-7-
E:--------3--3-3--2--2\------
                     (x2)
ITS CLOSING SOON
There Is No Bass In This Song But Here Is The Chords:
B G F# E B      D A G      A F# G#

JELOUSY
Whole Song:
     A        D
G:----------------
D:----------------
A:-0--0---5--5--5- 
E:----------------

JUNKYARD/ TOLKEN EASTERN SONG
Verse:
      PC
G:-------------
D:-------------
A:-----7-7----- 
E:-0-7-----7-0-
Chorus:
      PC
G:------------
D:------------
A:-3-3-3--2-2-
E:------------
         'Born in a junkyard!'

LAMINATED EFFECT   (Originally By: The Rolling Thunder)
Verse:
G:-------------------------
D:-------------------------
A:-----------------5h7t5h7-  
E:-0--0-0-4-5-6-7----------
Chorus:
        PC
G:--------------------------------------------------------
D:--------------------------------------------------------
A:-7-7-5-7--7-7----------------7-7-5-7--7-7--7-5-4-2--2-2-
E:---------------7-7-5-7--7-7-----------------------------
Ending:
G:---------------------
D:---------------------
A:-----------------5-7-
E:-0--0-0-4-5-6-7------

MARIGOLD   (By Dave Grohl)
Verse:
    D       B   A   Bb 
G:---------------------------
D:---------------------------
A:-5-5--2--2-2-0-0-1-1-------
E:-----------------------1-0-
Chorus:
          F               G           D               B
G:-----------------------------------------------------------
D:-----------------------------------------------------------
A:------------------------------5--5-5--5-5-5-2--2-2--2-2-2--
E:-1--1-1--1-1-1-3--3-3--3-3-3-------------------------------
              F
G:-------------------------------
D:-------------------------------
A:-------------------------------
E:-1--1-1--1-1-1--1--1-1--1-1-1--

MISERY LOVES COMPANY
(This Song Is Only Bass)
Verse:
G:-----------------
D:-----------------
A:-------12-------- 
E:-0\12-----12---1-
         NH
Chorus:
G:-----------
D:-5-5-------
A:-----7-6-0-
E:-----------            
                (x4)Then:
G:-------------------
D:-5-----5-----5-----
A:----7-----6-----0--
E:-------------------

MOIST VAGINA
G:----------------
D:------------4---
A:---------------- 
E:-0-2--0-2-------
Verse:
             A            C
G:---------------------------------
D:---------------------------------
A:-0-0-0-0-0-0-0-0-3-3-3-3-3-3-3-3- 
E:---------------------------------
Chorus:
    E     F# 
G:---------------
D:---------------
A:---------------
E:-0--0-2--2-2-2-

MORE THAN A FEELING
     F         Bb     D     C  
G:----------------------------------
D:----------------------------------
A:-----------1-1-1-5-5-5-5-3-3-3-3-
E:-1-1--1-1-1--------------------------
                'More than a feeling...'
      F        Bb   D
G:--------------------
D:--------------------
A:----------1-1-1-1-5-
E:-1-1-1--1-----------

MY BEST FRIENDS GIRL  (originally by: The Cars)
G:-----------------------------
D:----------------2-------4----
A:---2----2---2-0---0-2-2---2--
E:-0----0---0------------------

Chorus:
       E            A        B
G:--------------------------------
D:--------------------------------
A:----------------0--0-0--2-2-2-2-
E:-0--0-0--0-0-0------------------
                            'Here she comes again...'
         E             B
G:------------------------------
D:------------------------------
A:---------------2--2-2--2-2-2--
E:-0--0-0--0-0-0----------------
                            'She's my best friend's girl!'     
MY SHARONA  (Originally by: The Knack)
Verse:
G:------------------------------------------
D:-----7-7---7-----7-----7--------7-7-----7-
A:------------------------------------------
E:-5-5-----5----5----5-5----3\5-5------5----
End Of Verse:
         PC
G:-------------
D:-------------
A:---5--3-5-3--
E:-------------
            'My Sharona!'
Chorus:
G:---------------------------------------------------------
D:------7-7---7---7------7------10-10----10----10-------10-
A:---------------------------------------------------------
E:-5-5------5---5---5-5-----8-8--------8----8------8-8-----
Bridge:
          PC
G:-----------------------
D:-----------------------
A:--5--7--9--11--13-(15)-
E:-----------------------
                        'TIME...'
OH, THE GUILT
Guitar intro:
Pick strings above the nut, twice clean, 
one with destortion. Then:  
       PC
G:--------------6--
D:-----------------
A:-----------------
E:-5-5-5-0-4-4-----
               (x4, then:)
(Riff A):
             PC
G:---------------------------------------6-
D:-----------------------------------------
A:-----------------------------------------
E:-5-5-5---5-5-5---5-5-5---5-5-5-0-4-4-----
Chorus:
     A        G          C#
G:---------------------------------
D:---------------------------------
A:-0-0-0------------4-4-4-4--4-4-4-
E:--------3--3-3-3-----------------

OLD AGE
Verse:
      E         C
G:------------------------------
D:------------------------------
A:----------------3--3-3--3-3-3-
E:-0--0-0--0-0-0----------------
Chorus:
          G                A               C 
G:------------------------------------------------------------
D:------------------------------------------------------------
A:----------------0--0-0--0-0-0--3--3-3--3-3-3--3--3-3--3-3-3-
E:-3--3-3--3-3-3----------------------------------------------
'Old Age': A  E

OPINION
(There is no bassline, but if you add one it's this):
     B         G       D        F#
G:-----------------------------------
D:-----------------------------------
A:-2--2-2-----------5--5-5-----------
E:---------3-3-3-3-----------2-2-2-2-

PEN CAP CHEW
Intro (Riff A):
       PC
G:---------------
D:---------------
A:---------------
E:-0-0-0-0--3~~~-
 [---PM---]      (x3)
     E
G:--------------
D:--------------
A:----------5---   
E:-0-0-0-0------  
   [--PM--]
(Riff A again, then:)
      E  
G:--------------------
D:--------------------
A:----------5---5-2--- 
E:-0-0-0-0------------
(Then play Riff A Twice.)
Verse: 
     E
G:-----------
D:-----------
A:-----------
E:-0-0-0-0-3-
(Later in verse, play Riff A again.)

Chorus:
                PC
G:--------------------------------------
D:--------------------------------------
A:-2-2----------------------5-5-8-8-8-8-
E:-----5-5-2-2-5-5-0-0-3-3--------------
Postchorus:
      PC
G:------------------
D:------------------
A:-2-2\5-5\8--8-8-8-
E:------------------

RETURN OF THE RAT   (Originally By: The Wipers)
Verse:
      G#      B            F#
G:-----------------------------------
D:-----------------------------------
A:---------2-2-2-2-------------------
E:-4-4-4-4-----------2-2-2-2-2-2-2-2-
Chorus:
    Bb   B   Bb   B   Bb     B       G#
G:-----------------------------------------
D:-----------------------------------------
A:-1-1-1-2--1-1-1-2--1-1-1-2--2-2----------
E:---------------------------------4--4--4- (x2)
   B       C#
G:--------------------
D:--------------------
A:-2\4-4-4-4--4-4-4-4-
E:--------------------

RUN RABBIT, RUN
(Guitar)
Intro And Verse: 
     F#    A       F#     A 
G:---------------------------
D:---------------------------
A:---------0--------------0--
E:-2-2-2-2---2-2-2-2-2-2-----
Chorus: 
    D    F   D   F    D  F   A   B
G:-----------------------------------
D:-----------------------------------
A:--5--------5-------5-------0---2---
E:-------1-------1-------1-----------

SAD
(Tune down 1 step or play the song 1 fret lower).
This is just guitar)
Verse:
3:-----5-----5-------------------------------------------------------
4:---5-----5-----5-----6-------3--------5------5---------6-------8---
5:-3-----3-----3-----6-------3---3----5-----5------5---6-------8---8-
6:-----------------4-----4/1--------3-----3------3---4-----4\6-------
Chorus:
G:------5---5----------------|-------------------------|
D:---5---------------6---6---|-----3---3-------6---6---|
A:-3------3---3----6---6---6-|---3---3---3---6---6---6-|
E:---------------4-----------|-1-----------4-----------| 
Repeat that 2nd half until end of chorus.

SAPPY
Verse:
       D             Bb      G         A          Bb      C        
G:-------------------------------------------------------------
D:-------------------------------------------------------------
A:-5--5-5--5-5-5-----------------------------------------------
E:----------------6--6-6/3-3-3-3--5--5-5--5-5-5\6--6-6\8-8-8-8-
Chorus:
         D             Bb       |       G               Bb   
G:------------------------------|------------------------------
D:------------------------------|------------------------------
A:-5--5-5--5-5-5----------------|------------------------------
E:----------------6--6-6--6-6-6-|-3--3-3--3-3-3--6--6-6--6-6-6-
(Repeat that 2nd half until end of chorus.)

SPANK THRU
(Quiet Part)
Intro And Verse:
     A      G   D
G:----------------
D:----------------
A:--------------5-
E:-5-5--5--3-3----
Chorus:
        D           A             F            G
G:----------------------------------------------------
D:----------------------------------------------------
A:-5-5--5-5-5-0--0-0--0-0-0---------------------------
E:----------------------------1--1--1-1-1\3--3--3-3-3-
(Loud Part)
Verse:
G:---------------
D:---------------
A:---------------
E:-0-0-3-(3)-2\5-
Chorus:
        B      D A     B          D       A        B      D  A
G:-------------------------------------------------------------
D:-------------------------------------------------------------
A:-2--2--2-2-2\5-0-2-2--2-2-2--5--5-5--0-0-0--2-2--2-2-2--5--0-
E:-------------------------------------------------------------
       B            G         F    E  
G:-----------------------------------
D:-----------------------------------
A:-2--2--2-2-2------5---------3------
E:--------------3-3----3--1-1----1-0-

SUICIDE SAMURAI
(Tuning: Drop D)
Verse:
G:-------------------------------
D:-------------------------------
A:-------------------------------
D:-3-2-0-3-2-0-3-2-0-3-2-0-3-2-1-
Chorus:
G:--------------------
D:--------------------
A:-2--2-0-2--0--------
D:--------------2-1-0-

SWEET HOME, ALABAMA   (Originally by: Lynryd Skynryd)
Whole Song:
          D          C          G
G:-----------------------------------------------|
D:-------7-----------5---------------------------|
A:--5--5--5--5--3--3---3-3-------5--------5--3\--|
E:--------------------------3--3-----3--3--------|

TALK TO ME
Intro And Verse:
     G  B  C      F      Bb
G:----------------------------
D:----------------------------
A:------2\3-3-3--------1--1-0-
E:-3-3----------1--1-1--------
Chorus:
G:-3-3-3-3-3-3--3\4-4-4-4-4-4--4\5-5-5-5-5-5--5\6-6-6-6\7-7-7-7-
D:--------------------------------------------------------------
A:--------------------------------------------------------------
E:--------------------------------------------------------------

THE EAGLE HAS LANDED
           PC
G:---------------------------------
D:---------------------------------
A:---------------------------------
E:-1-1-1-1\5-5-5-5\6-6-6-6/2-2-2-2-
Chorus (Guitar):
3:----4-3-4-4-
4:-3----------
5:-3----------
6:-1----------

THE MONEY WILL ROLE RIGHT IN   (Originally by: Mudhoney)
Verse:
G:-----------------
D:-----------------
A:-----------------
E:-0-0-0-0-0-1-2-3-
Chorus:
   F  G  F# F
G:------------
D:------------
A:------------
E:-1--3--2--1- 

YOU KNOW YOUR RIGHT
Intro: (guitar)Pick above the nut
Verse:
G:-----------------------------------------------
D:-----------------------------------------------
A:-----------------------------------------------
E:-0-0-0-2-0-2-0-0-0-2-0-2-0-0-2-0-2-0-0-0-2-0-2- etc...
Pre-Chorus:
      PC (sometimes pluck) 
G:--------
D:--------
A:-5----7-
E:--------
Chorus:
         PC
G:-----------------------------------------------
D:-----------------------------------------------
A:-5-5-5-5-5-5-5-5\7-7-7-7-7-7-7-7-7-7-7-7-7-7-7-
E:-----------------------------------------------
Guitar Part Near End:
3:-8/7\8~~~~\14-----
             'You know your right....'
Outro:(guitar) Pick above the nut

By MATTY
PLEASE RATE THIS TAB!
comments
print report bad tab
17 comments total. Showing first comments.
0 reply
dead_kennedy wrote on March 19 2004, 12:00 am

ok.....

0 reply
guitarloser23 wrote on March 19 2004, 12:00 am

i rated it 5 stars. i didn't play all of it, but if you can get all of their songs, you must be just a little good. better than me at least

0 reply
la bamba wrote on March 19 2004, 12:00 am

holy *** dude this musta taken u so ***ing long!! ill give u a 5 for that..

I want to post or [tab]
guest
You may want to rate the tab now too:
select rating
Please do not post tabs as comments. Select "correction" instead!