Oops, an error
Loading. Please wait.

Aneurysm Tab

ver9
ver9
More versions @911Tabs.com
1,986 views 3 this week
no commentswrite comment
1 2 3 4 5
worth learning
x 1
Autoscroll
+/-
esc
set tempo
stop
Contributor
Hey! There's an official Ultimate Guitar app which is ideal
for learning songs when you're away from computer. Get the app
WARNING: You are trying to view
                                    content from Ultimate-Guitar.com
                                    in an unauthorized application,
                                    which is prohibited.

                                    Please use an official Ultimate
                                    Guitar Tabs application for iPhone,
                                    iPad or Android to access legitimate
                                    chords, guitar, bass, and drum tabs
                                    from Ultimate-Guitar.com database.

                                    Type "ultimate guitar tabs" in Apple
                                    App Store's or Android Market's
                                    search to find the application.
#----------------------------------PLEASE NOTE---------------------------------#
#This file is the author's own work and represents their interpretation of the #
#song. You may only use this file for private study, scholarship, or research. #
#------------------------------------------------------------------------------#

ANEURYSM
As recorded by Nirvana


        



Gtr I (E A D G B E) - 'Guitar 1'
Gtr II (E A D G B E) - 'Guitar 2'

  Q=143
 4/4
  Gtr I
  Q  E E E E E E   E E E E E E E E   Q  E E E E E E   E E E E E E E E
|----------------|-----------------|----------------|------------------|
|----------------|-----------------|----------------|------------------|
|--------5-5-5---|-4-4-4-----------|--------5-5-5---|-4-4-4------------|
|-4--4---5-5-5---|-4-4-4---7-7-7---|-4--4---5-5-5---|-4-4-4---7-7-7----|
|-4--4-0-3-3-3-5-|-2-2-2-5-7-7-7-5-|-4--4-0-3-3-3-5-|-2-2-2-5-7-7-7-5--|
|-2--2-0-------5-|-------5-5-5-5-5-|-2--2-0-------5-|-------5-5-5-5-5--|


  E E E E E E E E     E E E E E E E E
|-------------------|-------------------|
|-------------------|-------------------|
|-3-3-3-3-3-3-3-3---|-3-3-3-3-3-3-3-3---|
|-------------------|-------------------|
|-------------------|-------------------|
|-------------------|-------------------|
|
| Gtr II
| E E E E E E E S S   E E E E E E E S S
|-------------------|-------------------|
|-------------------|-------------------|
|-3-3-3-3-3-3-3-3---|-3-3-3-3-3-3-3-3---|
|-------------------|-------------------|
|-------------------|-------------------|
|-------------------|-------------------|


  E E E E E E E E     E E E E E E E E
|-------------------|-------------------|
|-------------------|-------------------|
|-4-4-4-4-4-4-4-4---|-4-4-4-4-4-4-4-4---|
|-------------------|-------------------|
|-------------------|-------------------|
|-------------------|-------------------|
|
| E E E E E E E S S   E E E E E E E S S
|-------------------|-------------------|
|-------------------|-------------------|
|-4-4-4-4-4-4-4-4---|-4-4-4-4-4-4-4-4---|
|-------------------|-------------------|
|-------------------|-------------------|
|-------------------|-------------------|


  E E E E E E E E     E E E E E E E E
|-------------------|-------------------|
|-------------------|-------------------|
|-5-5-5-5-5-5-5-5---|-5-5-5-5-5-5-5-5---|
|-------------------|-------------------|
|-------------------|-------------------|
|-------------------|-------------------|
|
| E E E E E E E S S   E E E E E E E S S
|-------------------|-------------------|
|-------------------|-------------------|
|-5-5-5-5-5-5-5-5---|-5-5-5-5-5-5-5-5---|
|-------------------|-------------------|
|-------------------|-------------------|
|-------------------|-------------------|


                                            ~~~
  E E E E E E E E     E E   E   E   E   E   E   +S. +T
|-------------------|-----------------------------------|
|-------------------|-----------------------------------|
|-6-6-6-6-7-7-7-7---|-8-8b9-8b9-8b9-8b9-8b9-8b9-(8)-(8)-|
|-------------------|-----------------------------------|
|-------------------|-----------------------------------|
|-------------------|-----------------------------------|
|
|                                           ~~~
| E E E E E E E S S   E E   E   E   E   E   Q
|-------------------|-----------------------------------|
|-------------------|-----------------------------------|
|-6-6-6-6-7-7-7-7---|-8-8b9-8b9-8b9-8b9-8b9-8b9---------|
|-------------------|-----------------------------------|
|-------------------|-----------------------------------|
|-------------------|-----------------------------------|


  Gtrs I, II
  Q  E. S E E E E   E E E E E E E E   Q  E E E E E E   E E E E E E E E
|-----------------|-----------------|----------------|-----------------|
|-----------------|-----------------|----------------|-----------------|
|---------5-5-5-5-|-4-4-4---2-2-2---|--------5-5-5---|-4-4-4-----------|
|-4--4--4-5-5-5-5-|-4-4-4-0-2-2-2-0-|-4--4---5-5-5---|-4-4-4---7-7-7---|
|-4--4--4-3-3-3-3-|-2-2-2-0-0-0-0-0-|-4--4-0-3-3-3-5-|-2-2-2-5-7-7-7-5-|
|-2--2--2---------|-----------------|-2--2-0-------5-|-------5-5-5-5-5-|


  Q  E E E E E E   E E E E E E E E   Q  E E E E E E   E E E E E E E E
|----------------|-----------------|----------------|-----------------|
|----------------|-----------------|----------------|-----------------|
|--------5-5-5---|-4-4-4-----------|--------5-5-5---|-4-4-4-----------|
|-4--4---5-5-5---|-4-4-4---7-7-7---|-4--4---5-5-5---|-4-4-4---7-7-7---|
|-4--4-0-3-3-3-5-|-2-2-2-5-7-7-7-5-|-4--4-0-3-3-3-5-|-2-2-2-5-7-7-7-5-|
|-2--2-0-------5-|-------5-5-5-5-5-|-2--2-0-------5-|-------5-5-5-5-5-|


  Q  E E E E E E   E E E E E E E E   Q  E E E E E E   E E E E E E E E
|----------------|-----------------|----------------|-----------------|
|----------------|-----------------|----------------|-----------------|
|--------5-5-5---|-4-4-4-----------|--------5-5-5---|-4-4-4-----------|
|-4--4---5-5-5---|-4-4-4---7-7-7---|-4--4---5-5-5---|-4-4-4---7-7-7---|
|-4--4-0-3-3-3-5-|-2-2-2-5-7-7-7-5-|-4--4-0-3-3-3-5-|-2-2-2-5-7-7-7-5-|
|-2--2-0-------5-|-------5-5-5-5-5-|-2--2-0-------5-|-------5-5-5-5-5-|


  Q  E E E E E E   E E E E E E E E   Q  E E E E E E   E E E E E E E E
|----------------|-----------------|----------------|-----------------|
|----------------|-----------------|----------------|-----------------|
|--------5-5-5---|-4-4-4-----------|--------5-5-5---|-4-4-4-----------|
|-4--4---5-5-5---|-4-4-4---7-7-7---|-4--4---5-5-5---|-4-4-4---7-7-7---|
|-4--4-0-3-3-3-5-|-2-2-2-5-7-7-7-5-|-4--4-0-3-3-3-5-|-2-2-2-5-7-7-7-5-|
|-2--2-0-------5-|-------5-5-5-5-5-|-2--2-0-------5-|-------5-5-5-5-5-|


  Q=137
  Gtr I
  E E E E E E E E     E E E E E E E E
|-------------------|-------------------|
|-------------------|-------------------|
|-3-3-3-3-3-3-3-3---|-3-4-4-4-4-4-4-4---|
|-------------------|-------------------|
|-------------------|-------------------|
|-------------------|-------------------|
|
| Gtr II
| E E E E E E E S S   E E E E E E E S S
|-------------------|-------------------|
|-------------------|-------------------|
|-3-3-3-3-3-3-3-3---|-3-4-4-4-4-4-4-4---|
|-------------------|-------------------|
|-------------------|-------------------|
|-------------------|-------------------|


  E E E E E E E E     E E E E E E E E
|-------------------|-------------------|
|-------------------|-------------------|
|-4-5-5-5-5-5-5-5---|-5-6-6-6-6-6-6-6---|
|-------------------|-------------------|
|-------------------|-------------------|
|-------------------|-------------------|
|
| E E E E E E E S S   E E E E E E E S S
|-------------------|-------------------|
|-------------------|-------------------|
|-4-5-5-5-5-5-5-5---|-5-6-6-6-6-6-6-6---|
|-------------------|-------------------|
|-------------------|-------------------|
|-------------------|-------------------|


  E E E E E E E E     E E E E E E E E
|-------------------|-------------------|
|-------------------|-------------------|
|-6-7-7-7-7-7-7-7---|-7-8-8-8-8-8-8-8---|
|-------------------|-------------------|
|-------------------|-------------------|
|-------------------|-------------------|
|
| E E E E E E E S S   E E E E E E E S S
|-------------------|-------------------|
|-------------------|-------------------|
|-6-7-7-7-7-7-7-7---|-7-8-8-8-8-8-8-8---|
|-------------------|-------------------|
|-------------------|-------------------|
|-------------------|-------------------|


                      Q=128
  E E E E E E E E     W
|-------------------|---------------------|
|-------------------|-8b9-----------------|
|-8-9-9-9-9-9-9-9---|---------------------|
|-------------------|---------------------|
|-------------------|---------------------|
|-------------------|---------------------|
|
| E E E E E E E S S   S   E.  +Q   +H
|-------------------|---------------------|
|-------------------|-----8b9-(8)--(8)----|
|-8-9-9-9-9-9-9-9---|---------------------|
|-------------------|---------------------|
|-------------------|---------------------|
|-------------------|---------------------|


  Gtrs I, II
  E E E S S E E E S S   E E E S S E E E S S   E E E S S E E E S S
|---------------------|---------------------|---------------------|
|---------------------|---------------------|---------------------|
|---------------------|---------------------|---------------------|
|---------------------|---------------------|---------------------|
|-9-9-9-9-9-9-9-9-9-9-|-9-9-9-9-9-9-9-9-9-9-|-9-9-9-9-9-9-9-9-9-9-|
|-7-7-7-7-7-7-7-7-7-7-|-7-7-7-7-7-7-7-7-7-7-|-7-7-7-7-7-7-7-7-7-7-|


  E E E E E E E E   Q  Q  E E E E   +E  E E E E E Q    E E E S S E E E S S
|-----------------|---------------|------------------|---------------------|
|-----------------|---------------|------------------|---------------------|
|-----------------|-7--7--7-7-7-7-|-(7)-7-7-7-7-7-7--|---------------------|
|---------9-9-9-9-|-7--7--7-7-7-7-|-(7)-7-7-7-7-7-7--|---------------------|
|-9-9-9-9-9-9-9-9-|-5--5--5-5-5-5-|-(5)-5-5-5-5-5-5--|-9-9-9-9-9-9-9-9-9-9-|
|-7-7-7-7-7-7-7-7-|---------------|------------------|-7-7-7-7-7-7-7-7-7-7-|


  E E E S S E E E E   Q  Q  E E E E   +E  E E E E E Q    E E E S S E E E S S
|-------------------|---------------|------------------|----------------------|
|-------------------|---------------|------------------|----------------------|
|-------------------|-7--7--7-7-7-7-|-(7)-7-7-7-7-7-7--|----------------------|
|-----------9-9-9-9-|-7--7--7-7-7-7-|-(7)-7-7-7-7-7-7--|----------------------|
|-9-9-9-9-9-9-9-9-9-|-5--5--5-5-5-5-|-(5)-5-5-5-5-5-5--|-9-9-9-9-9-9-9-9-9-9--|
|-7-7-7-7-7-7-7-7-7-|---------------|------------------|-7-7-7-7-7-7-7-7-7-7--|


  E E E S S E E E E   Q  Q  E E E E   +E  E E E E E Q    E E E S S E E E S S
|-------------------|---------------|------------------|----------------------|
|-------------------|---------------|------------------|----------------------|
|-------------------|-7--7--7-7-7-7-|-(7)-7-7-7-7-7-7--|----------------------|
|-----------9-9-9-9-|-7--7--7-7-7-7-|-(7)-7-7-7-7-7-7--|----------------------|
|-9-9-9-9-9-9-9-9-9-|-5--5--5-5-5-5-|-(5)-5-5-5-5-5-5--|-9-9-9-9-9-9-9-9-9-9--|
|-7-7-7-7-7-7-7-7-7-|---------------|------------------|-7-7-7-7-7-7-7-7-7-7--|


  E E E S S E E E E   Q  Q  E E E E   +E  E E E E E Q    E E E S S E E E S S
|-------------------|---------------|------------------|----------------------|
|-------------------|---------------|------------------|----------------------|
|-------------------|-7--7--7-7-7-7-|-(7)-7-7-7-7-7-7--|----------------------|
|-----------9-9-9-9-|-7--7--7-7-7-7-|-(7)-7-7-7-7-7-7--|----------------------|
|-9-9-9-9-9-9-9-9-9-|-5--5--5-5-5-5-|-(5)-5-5-5-5-5-5--|-9-9-9-9-9-9-9-9-9-9--|
|-7-7-7-7-7-7-7-7-7-|---------------|------------------|-7-7-7-7-7-7-7-7-7-7--|


  E E E S S E E E E   Q  Q  E E E E   +E  E E E E E Q    E E E S S E E E S S
|-------------------|---------------|------------------|----------------------|
|-------------------|---------------|------------------|----------------------|
|-------------------|-7--7--7-7-7-7-|-(7)-7-7-7-7-7-7--|----------------------|
|-----------9-9-9-9-|-7--7--7-7-7-7-|-(7)-7-7-7-7-7-7--|----------------------|
|-9-9-9-9-9-9-9-9-9-|-5--5--5-5-5-5-|-(5)-5-5-5-5-5-5--|-9-9-9-9-9-9-9-9-9-9--|
|-7-7-7-7-7-7-7-7-7-|---------------|------------------|-7-7-7-7-7-7-7-7-7-7--|


  E E E S S E E E E   Q  Q  E E E E   +E  E E E E E E E   E E E E +E  E E E
|-------------------|---------------|-------------------|--------------------|
|-------------------|---------------|-------------------|--------------------|
|-------------------|-7--7--7-7-7-7-|-(7)-7-7-7-7-7-7-7-|--------------------|
|-----------9-9-9-9-|-7--7--7-7-7-7-|-(7)-7-7-7-7-7-7-7-|-4-4-6-7-(7)-7-7-8--|
|-9-9-9-9-9-9-9-9-9-|-5--5--5-5-5-5-|-(5)-5-5-5-5-5-5-5-|-4-4-6-7-(7)-7-7-8--|
|-7-7-7-7-7-7-7-7-7-|---------------|-------------------|-2-2-4-5-(5)-5-5-6--|


  Gtr I
  E E E E E E E    E   E E E E +E  E E E
|--------------------|-------------------|
|--------------------|-------------------|
|--------------------|-------------------|
|-9-9-9-8-7-7-7----7-|-4-4-6-7-(7)-7-7-8-|
|-9-9-9-8-7-7-7----7-|-4-4-6-7-(7)-7-7-8-|
|-7-7-7-6-5-5-5----5-|-2-2-4-5-(5)-5-5-6-|
|
| Gtr II
| E E E E E E Q        E E E E +E  E E E
|--------------------|-------------------|
|--------------------|-------------------|
|--------------------|-------------------|
|-9-9-9-8-7-7--------|-4-4-6-7-(7)-7-7-8-|
|-9-9-9-8-7-7--------|-4-4-6-7-(7)-7-7-8-|
|-7-7-7-6-5-5-9b11---|-2-2-4-5-(5)-5-5-6-|


  E E E E E E E    E   E E E E +E  E E E
|--------------------|-------------------|
|--------------------|-------------------|
|--------------------|-------------------|
|-9-9-9-8-7-7-7----7-|-4-4-6-7-(7)-7-7-8-|
|-9-9-9-8-7-7-7----7-|-4-4-6-7-(7)-7-7-8-|
|-7-7-7-6-5-5-5----5-|-2-2-4-5-(5)-5-5-6-|
|
| E E E E E E Q        E E E E +E  E E E
|--------------------|-------------------|
|--------------------|-------------------|
|--------------------|-------------------|
|-9-9-9-8-7-7--------|-4-4-6-7-(7)-7-7-8-|
|-9-9-9-8-7-7--------|-4-4-6-7-(7)-7-7-8-|
|-7-7-7-6-5-5-9b11---|-2-2-4-5-(5)-5-5-6-|


  E E E E E E E    E   E E E E +E  E E E
|--------------------|-------------------|
|--------------------|-------------------|
|--------------------|-------------------|
|-9-9-9-8-7-7-7----7-|-4-4-6-7-(7)-7-7-8-|
|-9-9-9-8-7-7-7----7-|-4-4-6-7-(7)-7-7-8-|
|-7-7-7-6-5-5-5----5-|-2-2-4-5-(5)-5-5-6-|
|
| E E E E E E Q        E E E E +E  E E E
|--------------------|-------------------|
|--------------------|-------------------|
|--------------------|-------------------|
|-9-9-9-8-7-7--------|-4-4-6-7-(7)-7-7-8-|
|-9-9-9-8-7-7--------|-4-4-6-7-(7)-7-7-8-|
|-7-7-7-6-5-5-9b11---|-2-2-4-5-(5)-5-5-6-|


  E E E E E E E    E   E E E E +E  E E E
|--------------------|-------------------|
|--------------------|-------------------|
|--------------------|-------------------|
|-9-9-9-8-7-7-7----7-|-4-4-6-7-(7)-7-7-8-|
|-9-9-9-8-7-7-7----7-|-4-4-6-7-(7)-7-7-8-|
|-7-7-7-6-5-5-5----5-|-2-2-4-5-(5)-5-5-6-|
|
| E E E E E E Q        E E E E +E  E E E
|--------------------|-------------------|
|--------------------|-------------------|
|--------------------|-------------------|
|-9-9-9-8-7-7--------|-4-4-6-7-(7)-7-7-8-|
|-9-9-9-8-7-7--------|-4-4-6-7-(7)-7-7-8-|
|-7-7-7-6-5-5-9b11---|-2-2-4-5-(5)-5-5-6-|


  E E E E E E E    E   E E E E +E  E E E
|--------------------|-------------------|
|--------------------|-------------------|
|--------------------|-------------------|
|-9-9-9-8-7-7-7----7-|-4-4-6-7-(7)-7-7-8-|
|-9-9-9-8-7-7-7----7-|-4-4-6-7-(7)-7-7-8-|
|-7-7-7-6-5-5-5----5-|-2-2-4-5-(5)-5-5-6-|
|
| E E E E E E Q        E E E E +E  E E E
|--------------------|-------------------|
|--------------------|-------------------|
|--------------------|-------------------|
|-9-9-9-8-7-7--------|-4-4-6-7-(7)-7-7-8-|
|-9-9-9-8-7-7--------|-4-4-6-7-(7)-7-7-8-|
|-7-7-7-6-5-5-9b11---|-2-2-4-5-(5)-5-5-6-|


  E E E E E E E    E   E E E E +E  E E E
|--------------------|-------------------|
|--------------------|-------------------|
|--------------------|-------------------|
|-9-9-9-8-7-7-7----7-|-4-4-6-7-(7)-7-7-8-|
|-9-9-9-8-7-7-7----7-|-4-4-6-7-(7)-7-7-8-|
|-7-7-7-6-5-5-5----5-|-2-2-4-5-(5)-5-5-6-|
|
| E E E E E E Q        E E E E +E  E E E
|--------------------|-------------------|
|--------------------|-------------------|
|--------------------|-------------------|
|-9-9-9-8-7-7--------|-4-4-6-7-(7)-7-7-8-|
|-9-9-9-8-7-7--------|-4-4-6-7-(7)-7-7-8-|
|-7-7-7-6-5-5-9b11---|-2-2-4-5-(5)-5-5-6-|


  E E E E E E E    E   E E E E +E  E E E
|--------------------|-------------------|
|--------------------|-------------------|
|--------------------|-------------------|
|-9-9-9-8-7-7-7----7-|-4-4-6-7-(7)-7-7-8-|
|-9-9-9-8-7-7-7----7-|-4-4-6-7-(7)-7-7-8-|
|-7-7-7-6-5-5-5----5-|-2-2-4-5-(5)-5-5-6-|
|
| E E E E E E Q        E E E E +E  E E E
|--------------------|-------------------|
|--------------------|-------------------|
|--------------------|-------------------|
|-9-9-9-8-7-7--------|-4-4-6-7-(7)-7-7-8-|
|-9-9-9-8-7-7--------|-4-4-6-7-(7)-7-7-8-|
|-7-7-7-6-5-5-9b11---|-2-2-4-5-(5)-5-5-6-|


  E E E E E E E E   E E E S S E E E S S
|-----------------|---------------------|
|-----------------|---------------------|
|-----------------|---------------------|
|-9-9-9-8-7-7-7-7-|---------------------|
|-9-9-9-8-7-7-7-7-|-9-9-9-9-9-9-9-9-9-9-|
|-7-7-7-6-5-5-5-5-|-7-7-7-7-7-7-7-7-7-7-|
|
| E E E E E E E E   E E E S S E E E S S
|-----------------|---------------------|
|-----------------|---------------------|
|-----------------|---------------------|
|-9-9-9-8-7-7-7-7-|---------------------|
|-9-9-9-8-7-7-7-7-|-9-9-9-9-9-9-9-9-9-9-|
|-7-7-7-6-5-5-5-5-|-7-7-7-7-7-7-7-7-7-7-|


  Gtrs I, II
  E E E S S E E E E   Q  Q  E E E E   +E  E E E E E Q    E E E S S E E E S S
|-------------------|---------------|------------------|----------------------|
|-------------------|---------------|------------------|----------------------|
|-------------------|-7--7--7-7-7-7-|-(7)-7-7-7-7-7-7--|----------------------|
|-----------9-9-9-9-|-7--7--7-7-7-7-|-(7)-7-7-7-7-7-7--|----------------------|
|-9-9-9-9-9-9-9-9-9-|-5--5--5-5-5-5-|-(5)-5-5-5-5-5-5--|-9-9-9-9-9-9-9-9-9-9--|
|-7-7-7-7-7-7-7-7-7-|---------------|------------------|-7-7-7-7-7-7-7-7-7-7--|


  E E E S S E E E E   Q  Q  E E E E   +E  E E E E E Q    E E E S S E E E S S
|-------------------|---------------|------------------|----------------------|
|-------------------|---------------|------------------|----------------------|
|-------------------|-7--7--7-7-7-7-|-(7)-7-7-7-7-7-7--|----------------------|
|-----------9-9-9-9-|-7--7--7-7-7-7-|-(7)-7-7-7-7-7-7--|----------------------|
|-9-9-9-9-9-9-9-9-9-|-5--5--5-5-5-5-|-(5)-5-5-5-5-5-5--|-9-9-9-9-9-9-9-9-9-9--|
|-7-7-7-7-7-7-7-7-7-|---------------|------------------|-7-7-7-7-7-7-7-7-7-7--|


  E E E S S E E E E   Q  Q  E E E E   +E  E E E E E Q    E E E S S E E E S S
|-------------------|---------------|------------------|----------------------|
|-------------------|---------------|------------------|----------------------|
|-------------------|-7--7--7-7-7-7-|-(7)-7-7-7-7-7-7--|----------------------|
|-----------9-9-9-9-|-7--7--7-7-7-7-|-(7)-7-7-7-7-7-7--|----------------------|
|-9-9-9-9-9-9-9-9-9-|-5--5--5-5-5-5-|-(5)-5-5-5-5-5-5--|-9-9-9-9-9-9-9-9-9-9--|
|-7-7-7-7-7-7-7-7-7-|---------------|------------------|-7-7-7-7-7-7-7-7-7-7--|


  E E E S S E E E E   Q  Q  E E E E   +E  E E E E E E E   E E E E +E  E E E
|-------------------|---------------|-------------------|--------------------|
|-------------------|---------------|-------------------|--------------------|
|-------------------|-7--7--7-7-7-7-|-(7)-7-7-7-7-7-7-7-|--------------------|
|-----------9-9-9-9-|-7--7--7-7-7-7-|-(7)-7-7-7-7-7-7-7-|-4-4-6-7-(7)-7-7-8--|
|-9-9-9-9-9-9-9-9-9-|-5--5--5-5-5-5-|-(5)-5-5-5-5-5-5-5-|-4-4-6-7-(7)-7-7-8--|
|-7-7-7-7-7-7-7-7-7-|---------------|-------------------|-2-2-4-5-(5)-5-5-6--|


  Gtr I
  E E E E E E E    E   E E E E +E  E E E
|--------------------|-------------------|
|--------------------|-------------------|
|--------------------|-------------------|
|-9-9-9-8-7-7-7----7-|-4-4-6-7-(7)-7-7-8-|
|-9-9-9-8-7-7-7----7-|-4-4-6-7-(7)-7-7-8-|
|-7-7-7-6-5-5-5----5-|-2-2-4-5-(5)-5-5-6-|
|
| Gtr II
| E E E E E E Q        E E E E +E  E E E
|--------------------|-------------------|
|--------------------|-------------------|
|--------------------|-------------------|
|-9-9-9-8-7-7--------|-4-4-6-7-(7)-7-7-8-|
|-9-9-9-8-7-7--------|-4-4-6-7-(7)-7-7-8-|
|-7-7-7-6-5-5-9b11---|-2-2-4-5-(5)-5-5-6-|


  E E E E E E E    E   E E E E +E  E E E
|--------------------|-------------------|
|--------------------|-------------------|
|--------------------|-------------------|
|-9-9-9-8-7-7-7----7-|-4-4-6-7-(7)-7-7-8-|
|-9-9-9-8-7-7-7----7-|-4-4-6-7-(7)-7-7-8-|
|-7-7-7-6-5-5-5----5-|-2-2-4-5-(5)-5-5-6-|
|
| E E E E E E Q        E E E E +E  E E E
|--------------------|-------------------|
|--------------------|-------------------|
|--------------------|-------------------|
|-9-9-9-8-7-7--------|-4-4-6-7-(7)-7-7-8-|
|-9-9-9-8-7-7--------|-4-4-6-7-(7)-7-7-8-|
|-7-7-7-6-5-5-9b11---|-2-2-4-5-(5)-5-5-6-|


  E E E E E E E    E   E E E E +E  E E E
|--------------------|-------------------|
|--------------------|-------------------|
|--------------------|-------------------|
|-9-9-9-8-7-7-7----7-|-4-4-6-7-(7)-7-7-8-|
|-9-9-9-8-7-7-7----7-|-4-4-6-7-(7)-7-7-8-|
|-7-7-7-6-5-5-5----5-|-2-2-4-5-(5)-5-5-6-|
|
| E E E E E E Q        E E E E +E  E E E
|--------------------|-------------------|
|--------------------|-------------------|
|--------------------|-------------------|
|-9-9-9-8-7-7--------|-4-4-6-7-(7)-7-7-8-|
|-9-9-9-8-7-7--------|-4-4-6-7-(7)-7-7-8-|
|-7-7-7-6-5-5-9b11---|-2-2-4-5-(5)-5-5-6-|


  E E E E E E E    E   E E E E +E  E E E
|--------------------|-------------------|
|--------------------|-------------------|
|--------------------|-----1-------------|
|-9-9-9-8-7-7-7----7-|-4-4-1-7-(7)-7-7-8-|
|-9-9-9-8-7-7-7----7-|-4-4---7-(7)-7-7-8-|
|-7-7-7-6-5-5-5----5-|-2-2-4-5-(5)-5-5-6-|
|
| E E E E E E Q        E E E E +E  E E E
|--------------------|-------------------|
|--------------------|-------------------|
|--------------------|-----1-------------|
|-9-9-9-8-7-7--------|-4-4-1-7-(7)-7-7-8-|
|-9-9-9-8-7-7--------|-4-4---7-(7)-7-7-8-|
|-7-7-7-6-5-5-9b11---|-2-2-4-5-(5)-5-5-6-|


  E E E E E E E    E   E E E E +E  E E E
|--------------------|-------------------|
|--------------------|-------------------|
|-4-4-4-3-2-2-2----2-|-----1-2-(2)-2-2-3-|
|-4-4-4-3-2-2-2----2-|-4-4-1-2-(2)-2-2-3-|
|-2-2-2-1-0-0-0----0-|-4-4---0-(0)-0-0-1-|
|--------------------|-2-2-4-------------|
|
| E E E E E E Q        E E E E +E  E E E
|--------------------|-------------------|
|--------------------|-------------------|
|--------------------|-------------------|
|-9-9-9-8-7-7--------|-4-4-6-7-(7)-7-7-8-|
|-9-9-9-8-7-7--------|-4-4-6-7-(7)-7-7-8-|
|-7-7-7-6-5-5-9b11---|-2-2-4-5-(5)-5-5-6-|


  E E E E E E E    E   E E E E +E  E E E
|--------------------|-------------------|
|--------------------|-------------------|
|-4-4-4-3-2-2-2----2-|-----1-2-(2)-2-2-3-|
|-4-4-4-3-2-2-2----2-|-4-4-1-2-(2)-2-2-3-|
|-2-2-2-1-0-0-0----0-|-4-4---0-(0)-0-0-1-|
|--------------------|-2-2-4-------------|
|
| E E E E E E Q        E E E E +E  E E E
|--------------------|-------------------|
|--------------------|-------------------|
|--------------------|-------------------|
|-9-9-9-8-7-7--------|-4-4-6-7-(7)-7-7-8-|
|-9-9-9-8-7-7--------|-4-4-6-7-(7)-7-7-8-|
|-7-7-7-6-5-5-9b11---|-2-2-4-5-(5)-5-5-6-|


  E E E E E E E    E   E E E E +E  E E E
|--------------------|-------------------|
|--------------------|-------------------|
|--------------------|-------------------|
|-9-9-9-8-7-7-7----7-|-4-4-6-7-(7)-7-7-8-|
|-9-9-9-8-7-7-7----7-|-4-4-6-7-(7)-7-7-8-|
|-7-7-7-6-5-5-5----5-|-2-2-4-5-(5)-5-5-6-|
|
| E E E E E E Q        E E E E +E  E E E
|--------------------|-------------------|
|--------------------|-------------------|
|--------------------|-------------------|
|-9-9-9-8-7-7--------|-4-4-6-7-(7)-7-7-8-|
|-9-9-9-8-7-7--------|-4-4-6-7-(7)-7-7-8-|
|-7-7-7-6-5-5-9b11---|-2-2-4-5-(5)-5-5-6-|


                    Q=137
  E E E E E E E E   E E E E E E E E
|-----------------|--------------------|
|-----------------|--------------------|
|-----------------|-3-3-3-3-3-3-3-3----|
|-9-9-9-8-7-7-7-7-|--------------------|
|-9-9-9-8-7-7-7-7-|--------------------|
|-7-7-7-6-5-5-5-5-|--------------------|
|
| E E E E E E E E   E E E E E E E S S
|-----------------|--------------------|
|-----------------|--------------------|
|-----------------|-3-3-3-3-3-3-3-3----|
|-9-9-9-8-7-7-7-7-|--------------------|
|-9-9-9-8-7-7-7-7-|--------------------|
|-7-7-7-6-5-5-5-5-|--------------------|


  E E E E E E E E     E E E E E E E E
|-------------------|-------------------|
|-------------------|-------------------|
|-3-4-4-4-4-4-4-4---|-4-5-5-5-5-5-5-5---|
|-------------------|-------------------|
|-------------------|-------------------|
|-------------------|-------------------|
|
| E E E E E E E S S   E E E E E E E S S
|-------------------|-------------------|
|-------------------|-------------------|
|-3-4-4-4-4-4-4-4---|-4-5-5-5-5-5-5-5---|
|-------------------|-------------------|
|-------------------|-------------------|
|-------------------|-------------------|


  E E E E E E E E     E E E E E E E E
|-------------------|-------------------|
|-------------------|-------------------|
|-5-6-6-6-6-6-6-6---|-6-7-7-7-7-7-7-7---|
|-------------------|-------------------|
|-------------------|-------------------|
|-------------------|-------------------|
|
| E E E E E E E S S   E E E E E E E S S
|-------------------|-------------------|
|-------------------|-------------------|
|-5-6-6-6-6-6-6-6---|-6-7-7-7-7-7-7-7---|
|-------------------|-------------------|
|-------------------|-------------------|
|-------------------|-------------------|


  E E E E E E E E     E E E E E E E E
|-------------------|-------------------|
|-------------------|-------------------|
|-7-8-8-8-8-8-8-8---|-8-9-9-9-9-9-9-9---|
|-------------------|-------------------|
|-------------------|-------------------|
|-------------------|-------------------|
|
| E E E E E E E S S   E E E E E E E S S
|-------------------|-------------------|
|-------------------|-------------------|
|-7-8-8-8-8-8-8-8---|-8-9-9-9-9-9-9-9---|
|-------------------|-------------------|
|-------------------|-------------------|
|-------------------|-------------------|


  E  E  E  E  E  E  E  E    E  E  E  E  E  E  E  E
|------------------------|-------------------------|
|------------------------|-------------------------|
|-9-10-10-10-10-10-10-10-|-10-11-11-11-11-11-11-11-|
|------------------------|-------------------------|
|------------------------|-------------------------|
|------------------------|-------------------------|
|
| E  E  E  E  E  E  E  E    E  E  E  E  E  E  E  E
|------------------------|-------------------------|
|------------------------|-------------------------|
|-9-10-10-10-10-10-10-10-|-10-11-11-11-11-11-11-11-|
|------------------------|-------------------------|
|------------------------|-------------------------|
|------------------------|-------------------------|


   E  E  E  E  E  E  E  E    E  E  E  E  E  E  E  E
|-------------------------|-------------------------|
|-------------------------|-------------------------|
|-11-12-12-12-12-12-12-12-|-12-13-13-13-14-14-14-14-|
|-------------------------|-------------------------|
|-------------------------|-------------------------|
|-------------------------|-------------------------|
|
|  E  E  E  E  E  E  E  E    E  E  E  E  E  E  E  E
|-------------------------|-------------------------|
|-------------------------|-------------------------|
|-11-12-12-12-12-12-12-12-|-12-13-13-13-14-14-14-14-|
|-------------------------|-------------------------|
|-------------------------|-------------------------|
|-------------------------|-------------------------|


                                 Q=143
   E  E   E   E   E   E  Q       Q  E. S E E E E
|------------------------------|-----------------|
|------------------------------|-----------------|
|-15-15--16--16--17--17-17b19--|---------5-5-5-5-|
|------------------------------|-4--4--4-5-5-5-5-|
|------------------------------|-4--4--4-3-3-3-3-|
|------------------------------|-2--2--2---------|
|
|  E  E   E   E   E   E  Q       Q  E. S E E E E
|------------------------------|-----------------|
|------------------------------|-----------------|
|------------------------------|---------5-5-5-5-|
|-15-16-(16)-17-(17)-18-17b19--|-4--4--4-5-5-5-5-|
|------------------------------|-4--4--4-3-3-3-3-|
|------------------------------|-2--2--2---------|


  Gtrs I, II
  E E E E E E E E   Q  E E E E E E   E E E E E E E E   Q  E E E E E E
|-----------------|----------------|-----------------|----------------|
|-----------------|----------------|-----------------|----------------|
|-4-4-4---2-2-2---|--------5-5-5---|-4-4-4-----------|--------5-5-5---|
|-4-4-4-0-2-2-2-0-|-4--4---5-5-5---|-4-4-4---7-7-7---|-4--4---5-5-5---|
|-2-2-2-0-0-0-0-0-|-4--4-0-3-3-3-5-|-2-2-2-5-7-7-7-5-|-4--4-0-3-3-3-5-|
|-----------------|-2--2-0-------5-|-------5-5-5-5-5-|-2--2-0-------5-|


  E E E E E E E E   Q  E E E E E E   E E E E E E E E   Q  E E E E E E
|-----------------|----------------|-----------------|----------------|
|-----------------|----------------|-----------------|----------------|
|-4-4-4-----------|--------5-5-5---|-4-4-4-----------|--------5-5-5---|
|-4-4-4---7-7-7---|-4--4---5-5-5---|-4-4-4---7-7-7---|-4--4---5-5-5---|
|-2-2-2-5-7-7-7-5-|-4--4-0-3-3-3-5-|-2-2-2-5-7-7-7-5-|-4--4-0-3-3-3-5-|
|-------5-5-5-5-5-|-2--2-0-------5-|-------5-5-5-5-5-|-2--2-0-------5-|


  E E E E E E E E   Q  E E E E E E   E E E E E E E E   Q  E E E E E E
|-----------------|----------------|-----------------|----------------|
|-----------------|----------------|-----------------|----------------|
|-4-4-4-----------|--------5-5-5---|-4-4-4-----------|--------5-5-5---|
|-4-4-4---7-7-7---|-4--4---5-5-5---|-4-4-4---7-7-7---|-4--4---5-5-5---|
|-2-2-2-5-7-7-7-5-|-4--4-0-3-3-3-5-|-2-2-2-5-7-7-7-5-|-4--4-0-3-3-3-5-|
|-------5-5-5-5-5-|-2--2-0-------5-|-------5-5-5-5-5-|-2--2-0-------5-|


                                                       Q=137
  Gtr I
  E E E E E E E E   Q  E E E E E E   E E E E E E E E   E E E E E E E E
|-----------------|----------------|-----------------|--------------------|
|-----------------|----------------|-----------------|--------------------|
|-4-4-4-----------|--------5-5-5---|-4-4-4-----------|-3-3-3-3-3-3-3-3----|
|-4-4-4---7-7-7---|-4--4---5-5-5---|-4-4-4---7-7-7---|--------------------|
|-2-2-2-5-7-7-7-5-|-4--4-0-3-3-3-5-|-2-2-2-5-7-7-7-5-|--------------------|
|-------5-5-5-5-5-|-2--2-0-------5-|-------5-5-5-5-5-|--------------------|
|
| Gtr II
| E E E E E E E E   Q  E E E E E E   E E E E E E E E   E E E E E E E S S
|-----------------|----------------|-----------------|--------------------|
|-----------------|----------------|-----------------|--------------------|
|-4-4-4-----------|--------5-5-5---|-4-4-4-----------|-3-3-3-3-3-3-3-3----|
|-4-4-4---7-7-7---|-4--4---5-5-5---|-4-4-4---7-7-7---|--------------------|
|-2-2-2-5-7-7-7-5-|-4--4-0-3-3-3-5-|-2-2-2-5-7-7-7-5-|--------------------|
|-------5-5-5-5-5-|-2--2-0-------5-|-------5-5-5-5-5-|--------------------|


  E E E E E E E E     E E E E E E E E
|-------------------|-------------------|
|-------------------|-------------------|
|-3-4-4-4-4-4-4-4---|-4-5-5-5-5-5-5-5---|
|-------------------|-------------------|
|-------------------|-------------------|
|-------------------|-------------------|
|
| E E E E E E E S S   E E E E E E E S S
|-------------------|-------------------|
|-------------------|-------------------|
|-3-4-4-4-4-4-4-4---|-4-5-5-5-5-5-5-5---|
|-------------------|-------------------|
|-------------------|-------------------|
|-------------------|-------------------|


  E E E E E E E E     E E E E E E E E
|-------------------|-------------------|
|-------------------|-------------------|
|-5-6-6-6-6-6-6-6---|-6-7-7-7-7-7-7-7---|
|-------------------|-------------------|
|-------------------|-------------------|
|-------------------|-------------------|
|
| E E E E E E E S S   E E E E E E E S S
|-------------------|-------------------|
|-------------------|-------------------|
|-5-6-6-6-6-6-6-6---|-6-7-7-7-7-7-7-7---|
|-------------------|-------------------|
|-------------------|-------------------|
|-------------------|-------------------|


  E E E E E E E E     E E E E E E E E
|-------------------|-------------------|
|-------------------|-------------------|
|-7-8-8-8-8-8-8-8---|-8-9-9-9-9-9-9-9---|
|-------------------|-------------------|
|-------------------|-------------------|
|-------------------|-------------------|
|
| E E E E E E E S S   E E E E E E E S S
|-------------------|-------------------|
|-------------------|-------------------|
|-7-8-8-8-8-8-8-8---|-8-9-9-9-9-9-9-9---|
|-------------------|-------------------|
|-------------------|-------------------|
|-------------------|-------------------|


  Q=110
  W                       +Q       Q   +H
|-----------------------|---------------------|
|-8b10------------------|-(8)-----------------|
|-----------------------|---------------------|
|-----------------------|----------9---(9)----|
|-----------------------|---------13--(13)----|
|-----------------------|---------------------|
|
| S    E.   +Q   +H       +S  S E  Q   +H
|-----------------------|---------------------|
|------8b10-(8)--(8)----|-(8)-----------------|
|-----------------------|---------------------|
|-----------------------|----------9---(9)----|
|-----------------------|---------13--(13)----|
|-----------------------|---------------------|


  Gtrs I, II
   +W            +W
|-------------|---------*|
|-------------|---------*|
|-------------|---------*|
|--(9)--------|--(9)----*|
|-(13)--------|-(13)----*|
|-------------|---------*|



Duration Legend
---------------
W - whole; H - half; Q - quarter; E - 8th; S - 16th; T - 32nd; X - 64th; a - acciaccatura
+ - note tied to previous; . - note dotted; .. - note double dotted
Uncapitalized letters represent notes that are staccato (1/2 duration)
Irregular groupings are notated above the duration line
Duration letters will always appear directly above the note/fret number it represents the
duration for.  Duration letters with no fret number below them represent rests.  Multi-
bar rests are notated in the form Wxn, where n is the number of bars to rest for.  Low
melody durations appear below the staff

Tablature Legend
----------------
 h   - hammer-on
 p   - pull-off
 b   - bend
 pb  - pre-bend
 r   - bend release (if no number after the r, then release immediately)
 /\  - slide into or out of (from/to "nowhere")
 s   - legato slide
 S   - shift slide
<n> - natural harmonic
[n]  - artificial harmonic
n(n) - tapped harmonic
 ~   - vibrato
 tr  - trill
 T   - tap
 TP  - trem. picking
 PM  - palm muting
\n/  - tremolo bar dip; n = amount to dip
 \n  - tremolo bar down
 n/  - tremolo bar up
/n\  - tremolo bar inverted dip
 =   - hold bend; also acts as connecting device for hammers/pulls
 <> - volume swell (louder/softer)
 x   - on rhythm slash represents muted slash
 o   - on rhythm slash represents single note slash

Misc Legend
-----------
 |  - bar
||  - double bar
||o - repeat start
o|| - repeat end
*|  - double bar (ending)
 :  - bar (freetime)
 $  - Segno
 &  - Coda
Tempo markers - <E/E./Q/Q./H/H.> = BPM(8/16=s8/s16), where s8 = swing 8ths, s16 = swing 16ths

comments
We did not receive enough feedback on this tab! Please rate:
print report bad tab
1 2 3 4 5
I want to post or [tab]
guest
You may want to rate the tab now too:
select rating
Please do not post tabs as comments. Select "correction" instead!