Oops, an error
Loading. Please wait.

Bleach Bass Tab

ver2
ver2

Album

More versions @911Tabs.com
1,115 views 3 this week
no commentswrite comment
1 2 3 4 5
accurate
x 2
add to favorites launch autoscroll
font size
0
reset
Autoscroll
+/-
esc
set tempo
stop
Contributor
Difficulty
intermediate
WARNING: You are trying to view
                                    content from Ultimate-Guitar.com
                                    in an unauthorized application,
                                    which is prohibited.

                                    Please use an official Ultimate
                                    Guitar Tabs application for iPhone,
                                    iPad or Android to access legitimate
                                    chords, guitar, bass, and drum tabs
                                    from Ultimate-Guitar.com database.

                                    Type "ultimate guitar tabs" in Apple
                                    App Store's or Android Market's
                                    search to find the application.
===============================================================================
                           Nirvana - Bleach (Album)
===============================================================================
Written by: Kannibus
Nirvana. Bleach. Bass Tab.
--
Track 1 - Blew

Tuning: Drop C (C, G, C, F)

Intro:
F|---------------------------------------------------------------------------|
C|---------------------------------------------------------------------------|
G|---------------------------------------------------------------------------|
C|-0-3-5-5^--6-5----0-3-5-5^--6-5----0-3-5-5^--6-5----0-3-5-5^--6-5----------|

Last time end without the last note.

Guitar Comes In:
F|---------------------------------------------------------------------------|
C|---------------------------------------------------------------------------|
G|---------------------------------------------------------------------------|
C|-0-0-3-5-5^----5^-5----3-3-0-3---3-----------------------------------------|

Verse:
F|---------------------------------------------10-------------------10----------|
C|----------------------------------------------9-------------------9-----------| x4
G|---------------------------------------------10-------------------10----------|
C|-0-3-5-5^-6---5^----5-3-5----5-3----5-3-5-5-------0-0-0-5-3-5--5--------------|

(The 10, 9, 10 part is optional.)

Chorus:
F|---------------------------------------------------------------------------|
C|---------------------------------------------------------------------------| x2
G|---------------------------------------------------------------------------|
C|-3-5--5-5-3-0-3----3-5-5-5-3-5^--------------------------------------------|

Chorus Ending:
F|---------------------------------------------------------------------------|
C|---------------------------------------------------------------------------|
G|---------------------------------------------------------------------------|
C|-3-5--5-5-3-0-3----3-5--5-5-3---5^-----------------------------------------|

Repeat Verse
Repeat Chorus

Solo:
F|---------------------------------------------------------------------------|
C|---------------------------------------------------------------------------|
G|---------------------------------------------------------------------------|
C|-0-0-3-5-5^---5^-5----3-3-0-3--3----0-0-3-5-5^---5^-5----5-3-0-0--0--------|

Mini Bass Solo (During Guitar Solo):
F|---------------------------------------------------------------------------|
C|---------------------------------------------------------------------------| x3
G|----------------3-----3-5--5-5---------------------------------------------|
C|-0-0-3-5-5----7-----7------------------------------------------------------|

End on a fourth time with the riff to the guitar solo.

Repeat Chorus

Outro:
F|---------------------------------------------------------------------------|
C|---------------------------------------------------------------------------|x3
G|---------------------------------------------------------------------------|
C|-0-3-5-5-6----0----0-3-5-5-6----0------------------------------------------|

--

Track 2 - Floyd The Barber

Tuning: Standard

Tuning: Drop D# (D#, G#, C#, F#)
Intro: (Come in the second time the guitar plays)
F#|---------------------------------------------------------------------------|
C#|---------------------------------------------------------------------------| x3
G#|---------------------------------------------------------------------------|
D#|-1-1--0-0-0----1-1--0-0-0--------------------------------------------------|

Verse:
Repeat Intro 4 times.

Chorus:
F#|------------------------------------------------------------------------------| x4
C#|------------------------------------------------------------------------------|
G#|---------------4-4-----3-3----------------------------------------------------|
D#|-1-1--0-0-0--------5-5-----4-4------------------------------------------------|

Only the first time do you play the 1 1 0 0 0.

Repeat Intro
Repeat Verse
Repeat Chorus

Solo:
F#|---------------------------------------------------------------------------|
C#|---------------------------------------------------------------------------| x4
G#|------------------------1----1/3-1---0--0-1-0------------------------------|
D#|-0-1----0-1--0--1--0--1----------------------------------------------------|

Repeat Intro
Repeat Verse

Third Chorus (Completely Optional. Repeat Normal Chorus If You Don't.):
F#|---------------------------------------------------------------------------|
C#|---------------------------------------------------------------------------| x2
G#|-------------4-4-0-0-3-3-------------------4-4-----3-3---------------------|
D#|-1-1--0-0-0------5-5-----4-4----1-1--0-0-0-----5-5-----4-4-----------------|

(Like the original chorus, only play the 1 1 0 0 0 the first time.)

Repeat Intro/Verse but only twice.

--

Track 3 - About A Girl

Tuning: Drop D# (D#, G#, C#, F#)

Intro:
F#|-----------------------------------------------------------------------------|
C#|-----------------------------------------------------------------------------|x5
G#|-----------------------------------------------------------------------------|
D#|-0----0-0-3-3-3-3------------------------------------------------------------|

Verse:
F#|------------------------------------------------------------------------------|
C#|------------------------------------------------------------------------------| x4
G#|---------------------7----7-10-10-7-10-7--------------------------------------|
D#|-0----0-0-3-3-3-3-------------------------------------------------------------|

Chorus:
F#|---------------------------------------------------------------------------|x2
C#|---------------------------------------------------------------------------|
G#|-4----4-4------------------------------------------------------------------|
D#|-----------4----4-4----2-2----2----2-2-2-----------------------------------|

Chorus Ending:
F#|-----------------------------------------------------------------------------|
C#|-----------------------------------------------------------------------------|
G#|-----------------------------------------------------------------------------|
D#|-0----0-0-0----0----5-5-5-8----8-8-8-----------------------------------------|

Interlude:
Repeat Intro 4 times.

Repeat Verse
Repeat Chorus
Repeat Interlude

Solo:
Repeat Verse 4 times.

Bridge:
Repeat Chorus

Repeat Interlude
Repeat Verse
Repeat Chorus

Outro:
F#|---------------------------------------------------------------------------|x5
C#|---------------------------------------------------------------------------|
G#|---------------------------------------------------------------------------|
D#|-8-8-8-8-8-8-8-8----0----0-0-3-3-3-3---------------------------------------|

Only include the 8 8 8 8 8 8 8 8 part once, leave it out for the other 4 times.

End on open E string.

--

Track 4 - School

Tuning: Standard

Intro:
G|---------------------------------------------------------------------------|x4
D|---------------------------------------------------------------------------|
A|---------------------------------------------------------------------------|
E|-0-5^----0-0-0-5^-0-0-5^-0-0-0-0-0-0-5^------------------------------------|

Only include the 0 5^ bit when the beginning guitar riff finishes off, do not include it 
for the rest of the intro.

Verse:
Repeat Intro 5 times.

Chorus:
G|---------------------------------------------------------------------------|
D|---------------------------------------------------------------------------|x2
A|-3----3-3--3-3-3--------------7----7-7--7-7----5-5---5-5-5-----------------|
E|-----------------5-5--5-5-5------------------------------------------------|

Only include the 7 7 7 7 7 5 5 5 5 5 part once.

Repeat verse 6 times.
Repeat chorus

Solo:
G|---------------------------------------------------------------------------|x6
D|---------------------------------------------------------------------------|
A|--------------------------5-7----------------------------------------------|
E|-0--0-0-5^--0-5^--0-0-0-7-----0--0-0-0-5^--0-0--0--0-0-5^------------------|


End on the 7 5 7 part.

Repeat verse 8 times.
Repeat chorus 3 times ending on the 3 3 3 3 3 3 3 3 5 5 5 5 5 part.

--

Track 5 - Love Buzz

Tuning: (F, A#, D#, G#)

Intro:
G#|-------------6h7-6---------------------------------------------------------|x24-|
D#|-7-x-x-5-7-8--------------------------------------------------------------------|
A#|--------------------------------------------------------------------------------|
F|---------------------------------------------------------------------------------|

Verse:
Repeat intro 8 times.

Chorus:
G#|-----------------------------------------------------------------------------|x2
D#|-7--------7-7--5-5-5---------------------------------------------------------|
A#|-------0---------------------------------------------------------------------|
F|------------------------------------------------------------------------------|

G#|------6----------------------------------------------------------------------|x2
D#|-7-------7-5-7----5----------------------------------------------------------|
A#|-----------------------------------------------------------------------------|
F|------------------------------------------------------------------------------|

G#|-------6------6--7----9----------6-------------------------------------------|x2
D#|-7-------7-----------------7-------7--5--7----5------------------------------|
A#|-----------------------------------------------------------------------------|
F|------------------------------------------------------------------------------|

Ending on 7 6 7 5 7 5

Repeat Verse 8 times.

Solo:
Repeat verse 12 times.

Repeat verse 8 times.

Chorus:
Repeat first part once.
Repeat second part 3 times.

G#|----------6-7-----------------------------------------------------------------| x3
D#|-7-5-7-8-------7-5------------------------------------------------------------|
A#|------------------------------------------------------------------------------|
F|-------------------------------------------------------------------------------|

G#|----------6-7----------------------------------------------------------------|
D#|-7-5-7-8---------------------------------------------------------------------|
A#|-----------------------------------------------------------------------------|
F|----------------0-3-----------------------------------------------------------|

Bass Solo:
G#|-----------------------------------------------------------------------------|
D#|-----------------------------------------------------------------------------|
A#|----------3--------------------4---------------------------------------------|
F|-5----3-5----5-0-3----5----3-5-----5-0-3--------------------------------------|

G#|-----------------------------------------------------------------------------|
D#|----------------------------------5------------------------------------------|
A#|---4---------------------4---------------------------------------------------|
F|-5-----5-3-5----3----5------5-3-5---------------------------------------------|

G#|----------6--7-------------------------------------------------------------|
D#|-7----5-7------------------------------5-----------------------------------|
A#|--------------------------------4-5-7--------------------------------------|
F|-----------------0-3----5----3-5--------------------------------------------|

G#|----6--7--9----7-------------------------------------------------------------|
D#|-7---------------------------------------------------------------------------|
A#|-----------------------------4-5-7----5----5---------------------------------|
F|--------------------0-3----5--------------0-----------------------------------|

G#|-----------------------------------------------------------------------------|
D#|-----------------------------------------------------------------------------|
A#|-7-5-4-0------0----4----0-4--5----4------------------------------------------|
F|-----------3------------------------------------------------------------------|

G#|-----------------6----7---9---7----7-----------------------------------------|
D#|-----------5-7---------------------------------------------------------------|
A#|-5----7----------------------------------------------------------------------|
F|------------------------------------------------------------------------------|

G#|-9--7--6---------------------------------------------------------------------|x3
D#|----------7----5-------------------------------------------------------------|
A#|---------------------7----5----4----0----------------------------------------|
F|----------------------------------------0---3---------------------------------|

Only include the 9 7 6 7 5 part once, leave it out for the rest.

G#|-----------------------------------------------------------------------------|
D#|-----------------------------------------------------------------------------|
A#|------4---------------------4-------4----4-----------------------------------|
F|-5--------5----3-0-3----5-------5---------------------------------------------|

G#|-------------------6----------6--7----9----7---------------------------------|
D#|----------5-7--------------7-------------------------------------------------|
A#|-5--7------------------------------------------------------------------------|
F|------------------------------------------------------------------------------|

G#|-9-7-6-----------------------------------------------------------------------|
D#|---------7----5--------------------------------------------------------------|
A#|-------------------7------5---5-4-0------------------------------------------|
F|--------------------------------------3-0-------------------------------------|

Repeat verse 16 times.

G#|-----------------------------------------------------------------------------|
D#|-----------------------------------------7-----------------------------------|
A#|-7---------------------------------------------------------------------------|
F|--0-0-0-0-0-0-0-0-0-0-0-0-0-0-0-0---------------------------------------------|

--

Track 6 - Paper Cuts

Tuning: Drop D# (D#, G#, C#, F#)

Intro:
F#|---------------------------------------------------------------------------|
C#|---------------------------------------------------------------------------|x4
G#|---------------------------------------------------------------------------|
D#|--1--1--1--1--1----1---1-1-1-----------------------------------------------|

Verse:
Repeat Intro 8 times.

Pre-Chorus:
F#|---------------------------------------------------------------------------|
C#|---------------------------------------------------------------------------|
G#|------------------7-7-7-7-7-7----------------------------------------------|
D#|-1-1-1--------0------------------------------------------------------------|

F#|---------------------------------------------------------------------------|
C#|---------------------------------------------------------------------------| x6
G#|-7-7-7-7-7-7-7-7--------7-7-7-7-7-7----------------------------------------|
D#|-------------------0-------------------------------------------------------|

F#|---------------------------------------------------------------------------|
C#|-7-7-7-7-7-7-7-7-----------------------------------------------------------|
G#|---------------------------------------------------------------------------|
D#|---------------------------------------------------------------------------|

F#|---------------------------------------------------------------------------|
C#|---------------------------------------------------------------------------| x4
G#|---------------------------------------------------------------------------|
D#|-2-3-3-4-4-5-5-6-7--6-6-6--------------------------------------------------|

Do not include the 7 6 6 6 part on the 4th time.

F#|---------------------------------------------------------------------------|
C#|---------------------------------------------------------------------------|
G#|---------------------------------------------------------------------------|
D#|-2-3-3-4-4-5-5-6----7-6-6-6----6-6-----------------------------------------|

F#|---------------------------------------------------------------------------|
C#|---------------------------------------------------------------------------|x3
G#|---------------------------------------------------------------------------|
D#|--4-3-3-3----3-3-3----7-6-6-6----6-6-6-------------------------------------|

Do not include the 7 6 6 6 6 6 6 part on the 3rd time.

Post-Chorus:
F#|---------------------------------------------------------------------------|
C#|---------------------------------------------------------------------------|
G#|---------------------------------------------------------------------------|
D#|-2-2-2-2-2-2-2-2------------12/--------------------------------------------|

Only include the 12/ part 2nd time around.

Repeat verse 8 times.
Repeat pre-chorus 7 times.

Chorus:
F#|---------------------------------------------------------------------------|
C#|---------------------------------------------------------------------------|x3
G#|---------------------------------------------------------------------------|
D#|-2-3-3-4-4-5-5-6----7-6-6-6------------------------------------------------|

F#|---------------------------------------------------------------------------|
C#|---------------------------------------------------------------------------|
G#|---------------------------------------------------------------------------|
D#|-2-3-3-4-4-5-5-6----7-6-6-6----6-6-----------------------------------------|

Repeat the last riff of the pre-chorus 4 times ending on the 4 3 3 3 3 3 3
Repeat post-chorus twice for outro.

--

Track 7 - Negative Creep

Tuning: Drop D (D, A, D, G)

Intro:
G|---------------------------------------------------------------------------|
D|---------------------------------------------------------------------------|x5
A|---------------------------------------------------------------------------|
D|-0-0-0-0-0-0-0-12----------------------------------------------------------|

Verse:
G|---------------------------------------------------------------------------|
D|---------------------------------------------------------------------------|x14
A|---------------------------------------------------------------------------|
D|-0-0-0-0-0-0-0-12--------0-0-0-0-------------------------------------------|

Only include the 0 0 0 0 on the 4th time.

G|---------------------------------------------------------------------------|
D|---------------------------------------------------------------------------|x5
A|-----------------------------7-7-7-7---------------------------------------|
D|-0-0-0-0-0-0-0-0-0-0-0-0-0-------------------------------------------------|

Chorus:
G|---------------------------------------------------------------------------|x8
D|---------------------------------------------------------------------------|
A|-7-7-5--------------------------5--8-8-8-5---------------------------------|
D|----------4--4--4-4------7--7---------------7------------------------------|

Repeat verse.
Repeat chorus.
Repeat verse.
Repeat chorus.

End on open on D string.

--
Track 8 - Swap Meet

Tuning: Drop #D (#D, #G, #C, #F)

Intro/Verse:
#F|---------------------------------------------------------------------------------|
#C|---------------------------------------------------------------------------| x20-|
#G|------5-------4------------------------------------------------------------------|
#D|-0-4-----0-4----4---0------------------------------------------------------------|

===============================================================================
                           Nirvana - Bleach (Album)
===============================================================================
Written by: Kannibus
Nirvana. Bleach. Bass Tab.
--
Track 1 - Blew

Tuning: Drop C (C, G, C, F)

Intro:
F|---------------------------------------------------------------------------|
C|---------------------------------------------------------------------------|
G|---------------------------------------------------------------------------|
C|-0-3-5-5^--6-5----0-3-5-5^--6-5----0-3-5-5^--6-5----0-3-5-5^--6-5----------|

Last time end without the last note.

Guitar Comes In:
F|---------------------------------------------------------------------------|
C|---------------------------------------------------------------------------|
G|---------------------------------------------------------------------------|
C|-0-0-3-5-5^----5^-5----3-3-0-3---3-----------------------------------------|

Verse:
F|---------------------------------------------10-------------------10----------|
C|----------------------------------------------9-------------------9-----------| x4
G|---------------------------------------------10-------------------10----------|
C|-0-3-5-5^-6---5^----5-3-5----5-3----5-3-5-5-------0-0-0-5-3-5--5--------------|

(The 10, 9, 10 part is optional.)

Chorus:
F|---------------------------------------------------------------------------|
C|---------------------------------------------------------------------------| x2
G|---------------------------------------------------------------------------|
C|-3-5--5-5-3-0-3----3-5-5-5-3-5^--------------------------------------------|

Chorus Ending:
F|---------------------------------------------------------------------------|
C|---------------------------------------------------------------------------|
G|---------------------------------------------------------------------------|
C|-3-5--5-5-3-0-3----3-5--5-5-3---5^-----------------------------------------|

Repeat Verse
Repeat Chorus

Solo:
F|---------------------------------------------------------------------------|
C|---------------------------------------------------------------------------|
G|---------------------------------------------------------------------------|
C|-0-0-3-5-5^---5^-5----3-3-0-3--3----0-0-3-5-5^---5^-5----5-3-0-0--0--------|

Mini Bass Solo (During Guitar Solo):
F|---------------------------------------------------------------------------|
C|---------------------------------------------------------------------------| x3
G|----------------3-----3-5--5-5---------------------------------------------|
C|-0-0-3-5-5----7-----7------------------------------------------------------|

End on a fourth time with the riff to the guitar solo.

Repeat Chorus

Outro:
F|---------------------------------------------------------------------------|
C|---------------------------------------------------------------------------|x3
G|---------------------------------------------------------------------------|
C|-0-3-5-5-6----0----0-3-5-5-6----0------------------------------------------|

--

Track 2 - Floyd The Barber

Tuning: Standard

Tuning: Drop D# (D#, G#, C#, F#)
Intro: (Come in the second time the guitar plays)
F#|---------------------------------------------------------------------------|
C#|---------------------------------------------------------------------------| x3
G#|---------------------------------------------------------------------------|
D#|-1-1--0-0-0----1-1--0-0-0--------------------------------------------------|

Verse:
Repeat Intro 4 times.

Chorus:
F#|------------------------------------------------------------------------------| x4
C#|------------------------------------------------------------------------------|
G#|---------------4-4-----3-3----------------------------------------------------|
D#|-1-1--0-0-0--------5-5-----4-4------------------------------------------------|

Only the first time do you play the 1 1 0 0 0.

Repeat Intro
Repeat Verse
Repeat Chorus

Solo:
F#|---------------------------------------------------------------------------|
C#|---------------------------------------------------------------------------| x4
G#|------------------------1----1/3-1---0--0-1-0------------------------------|
D#|-0-1----0-1--0--1--0--1----------------------------------------------------|

Repeat Intro
Repeat Verse

Third Chorus (Completely Optional. Repeat Normal Chorus If You Don't.):
F#|---------------------------------------------------------------------------|
C#|---------------------------------------------------------------------------| x2
G#|-------------4-4-0-0-3-3-------------------4-4-----3-3---------------------|
D#|-1-1--0-0-0------5-5-----4-4----1-1--0-0-0-----5-5-----4-4-----------------|

(Like the original chorus, only play the 1 1 0 0 0 the first time.)

Repeat Intro/Verse but only twice.

--

Track 3 - About A Girl

Tuning: Drop D# (D#, G#, C#, F#)

Intro:
F#|-----------------------------------------------------------------------------|
C#|-----------------------------------------------------------------------------|x5
G#|-----------------------------------------------------------------------------|
D#|-0----0-0-3-3-3-3------------------------------------------------------------|

Verse:
F#|------------------------------------------------------------------------------|
C#|------------------------------------------------------------------------------| x4
G#|---------------------7----7-10-10-7-10-7--------------------------------------|
D#|-0----0-0-3-3-3-3-------------------------------------------------------------|

Chorus:
F#|---------------------------------------------------------------------------|x2
C#|---------------------------------------------------------------------------|
G#|-4----4-4------------------------------------------------------------------|
D#|-----------4----4-4----2-2----2----2-2-2-----------------------------------|

Chorus Ending:
F#|-----------------------------------------------------------------------------|
C#|-----------------------------------------------------------------------------|
G#|-----------------------------------------------------------------------------|
D#|-0----0-0-0----0----5-5-5-8----8-8-8-----------------------------------------|

Interlude:
Repeat Intro 4 times.

Repeat Verse
Repeat Chorus
Repeat Interlude

Solo:
Repeat Verse 4 times.

Bridge:
Repeat Chorus

Repeat Interlude
Repeat Verse
Repeat Chorus

Outro:
F#|---------------------------------------------------------------------------|x5
C#|---------------------------------------------------------------------------|
G#|---------------------------------------------------------------------------|
D#|-8-8-8-8-8-8-8-8----0----0-0-3-3-3-3---------------------------------------|

Only include the 8 8 8 8 8 8 8 8 part once, leave it out for the other 4 times.

End on open E string.

--

Track 4 - School

Tuning: Standard

Intro:
G|---------------------------------------------------------------------------|x4
D|---------------------------------------------------------------------------|
A|---------------------------------------------------------------------------|
E|-0-5^----0-0-0-5^-0-0-5^-0-0-0-0-0-0-5^------------------------------------|

Only include the 0 5^ bit when the beginning guitar riff finishes off, do not include it 
for the rest of the intro.

Verse:
Repeat Intro 5 times.

Chorus:
G|---------------------------------------------------------------------------|
D|---------------------------------------------------------------------------|x2
A|-3----3-3--3-3-3--------------7----7-7--7-7----5-5---5-5-5-----------------|
E|-----------------5-5--5-5-5------------------------------------------------|

Only include the 7 7 7 7 7 5 5 5 5 5 part once.

Repeat verse 6 times.
Repeat chorus

Solo:
G|---------------------------------------------------------------------------|x6
D|---------------------------------------------------------------------------|
A|--------------------------5-7----------------------------------------------|
E|-0--0-0-5^--0-5^--0-0-0-7-----0--0-0-0-5^--0-0--0--0-0-5^------------------|


End on the 7 5 7 part.

Repeat verse 8 times.
Repeat chorus 3 times ending on the 3 3 3 3 3 3 3 3 5 5 5 5 5 part.

--

Track 5 - Love Buzz

Tuning: (F, A#, D#, G#)

Intro:
G#|-------------6h7-6---------------------------------------------------------|x24-|
D#|-7-x-x-5-7-8--------------------------------------------------------------------|
A#|--------------------------------------------------------------------------------|
F|---------------------------------------------------------------------------------|

Verse:
Repeat intro 8 times.

Chorus:
G#|-----------------------------------------------------------------------------|x2
D#|-7--------7-7--5-5-5---------------------------------------------------------|
A#|-------0---------------------------------------------------------------------|
F|------------------------------------------------------------------------------|

G#|------6----------------------------------------------------------------------|x2
D#|-7-------7-5-7----5----------------------------------------------------------|
A#|-----------------------------------------------------------------------------|
F|------------------------------------------------------------------------------|

G#|-------6------6--7----9----------6-------------------------------------------|x2
D#|-7-------7-----------------7-------7--5--7----5------------------------------|
A#|-----------------------------------------------------------------------------|
F|------------------------------------------------------------------------------|

Ending on 7 6 7 5 7 5

Repeat Verse 8 times.

Solo:
Repeat verse 12 times.

Repeat verse 8 times.

Chorus:
Repeat first part once.
Repeat second part 3 times.

G#|----------6-7-----------------------------------------------------------------| x3
D#|-7-5-7-8-------7-5------------------------------------------------------------|
A#|------------------------------------------------------------------------------|
F|-------------------------------------------------------------------------------|

G#|----------6-7----------------------------------------------------------------|
D#|-7-5-7-8---------------------------------------------------------------------|
A#|-----------------------------------------------------------------------------|
F|----------------0-3-----------------------------------------------------------|

Bass Solo:
G#|-----------------------------------------------------------------------------|
D#|-----------------------------------------------------------------------------|
A#|----------3--------------------4---------------------------------------------|
F|-5----3-5----5-0-3----5----3-5-----5-0-3--------------------------------------|

G#|-----------------------------------------------------------------------------|
D#|----------------------------------5------------------------------------------|
A#|---4---------------------4---------------------------------------------------|
F|-5-----5-3-5----3----5------5-3-5---------------------------------------------|

G#|----------6--7-------------------------------------------------------------|
D#|-7----5-7------------------------------5-----------------------------------|
A#|--------------------------------4-5-7--------------------------------------|
F|-----------------0-3----5----3-5--------------------------------------------|

G#|----6--7--9----7-------------------------------------------------------------|
D#|-7---------------------------------------------------------------------------|
A#|-----------------------------4-5-7----5----5---------------------------------|
F|--------------------0-3----5--------------0-----------------------------------|

G#|-----------------------------------------------------------------------------|
D#|-----------------------------------------------------------------------------|
A#|-7-5-4-0------0----4----0-4--5----4------------------------------------------|
F|-----------3------------------------------------------------------------------|

G#|-----------------6----7---9---7----7-----------------------------------------|
D#|-----------5-7---------------------------------------------------------------|
A#|-5----7----------------------------------------------------------------------|
F|------------------------------------------------------------------------------|

G#|-9--7--6---------------------------------------------------------------------|x3
D#|----------7----5-------------------------------------------------------------|
A#|---------------------7----5----4----0----------------------------------------|
F|----------------------------------------0---3---------------------------------|

Only include the 9 7 6 7 5 part once, leave it out for the rest.

G#|-----------------------------------------------------------------------------|
D#|-----------------------------------------------------------------------------|
A#|------4---------------------4-------4----4-----------------------------------|
F|-5--------5----3-0-3----5-------5---------------------------------------------|

G#|-------------------6----------6--7----9----7---------------------------------|
D#|----------5-7--------------7-------------------------------------------------|
A#|-5--7------------------------------------------------------------------------|
F|------------------------------------------------------------------------------|

G#|-9-7-6-----------------------------------------------------------------------|
D#|---------7----5--------------------------------------------------------------|
A#|-------------------7------5---5-4-0------------------------------------------|
F|--------------------------------------3-0-------------------------------------|

Repeat verse 16 times.

G#|-----------------------------------------------------------------------------|
D#|-----------------------------------------7-----------------------------------|
A#|-7---------------------------------------------------------------------------|
F|--0-0-0-0-0-0-0-0-0-0-0-0-0-0-0-0---------------------------------------------|

--

Track 6 - Paper Cuts

Tuning: Drop D# (D#, G#, C#, F#)

Intro:
F#|---------------------------------------------------------------------------|
C#|---------------------------------------------------------------------------|x4
G#|---------------------------------------------------------------------------|
D#|--1--1--1--1--1----1---1-1-1-----------------------------------------------|

Verse:
Repeat Intro 8 times.

Pre-Chorus:
F#|---------------------------------------------------------------------------|
C#|---------------------------------------------------------------------------|
G#|------------------7-7-7-7-7-7----------------------------------------------|
D#|-1-1-1--------0------------------------------------------------------------|

F#|---------------------------------------------------------------------------|
C#|---------------------------------------------------------------------------| x6
G#|-7-7-7-7-7-7-7-7--------7-7-7-7-7-7----------------------------------------|
D#|-------------------0-------------------------------------------------------|

F#|---------------------------------------------------------------------------|
C#|-7-7-7-7-7-7-7-7-----------------------------------------------------------|
G#|---------------------------------------------------------------------------|
D#|---------------------------------------------------------------------------|

F#|---------------------------------------------------------------------------|
C#|---------------------------------------------------------------------------| x4
G#|---------------------------------------------------------------------------|
D#|-2-3-3-4-4-5-5-6-7--6-6-6--------------------------------------------------|

Do not include the 7 6 6 6 part on the 4th time.

F#|---------------------------------------------------------------------------|
C#|---------------------------------------------------------------------------|
G#|---------------------------------------------------------------------------|
D#|-2-3-3-4-4-5-5-6----7-6-6-6----6-6-----------------------------------------|

F#|---------------------------------------------------------------------------|
C#|---------------------------------------------------------------------------|x3
G#|---------------------------------------------------------------------------|
D#|--4-3-3-3----3-3-3----7-6-6-6----6-6-6-------------------------------------|

Do not include the 7 6 6 6 6 6 6 part on the 3rd time.

Post-Chorus:
F#|---------------------------------------------------------------------------|
C#|---------------------------------------------------------------------------|
G#|---------------------------------------------------------------------------|
D#|-2-2-2-2-2-2-2-2------------12/--------------------------------------------|

Only include the 12/ part 2nd time around.

Repeat verse 8 times.
Repeat pre-chorus 7 times.

Chorus:
F#|---------------------------------------------------------------------------|
C#|---------------------------------------------------------------------------|x3
G#|---------------------------------------------------------------------------|
D#|-2-3-3-4-4-5-5-6----7-6-6-6------------------------------------------------|

F#|---------------------------------------------------------------------------|
C#|---------------------------------------------------------------------------|
G#|---------------------------------------------------------------------------|
D#|-2-3-3-4-4-5-5-6----7-6-6-6----6-6-----------------------------------------|

Repeat the last riff of the pre-chorus 4 times ending on the 4 3 3 3 3 3 3
Repeat post-chorus twice for outro.

--

Track 7 - Negative Creep

Tuning: Drop D (D, A, D, G)

Intro:
G|---------------------------------------------------------------------------|
D|---------------------------------------------------------------------------|x5
A|---------------------------------------------------------------------------|
D|-0-0-0-0-0-0-0-12----------------------------------------------------------|

Verse:
G|---------------------------------------------------------------------------|
D|---------------------------------------------------------------------------|x14
A|---------------------------------------------------------------------------|
D|-0-0-0-0-0-0-0-12--------0-0-0-0-------------------------------------------|

Only include the 0 0 0 0 on the 4th time.

G|---------------------------------------------------------------------------|
D|---------------------------------------------------------------------------|x5
A|-----------------------------7-7-7-7---------------------------------------|
D|-0-0-0-0-0-0-0-0-0-0-0-0-0-------------------------------------------------|

Chorus:
G|---------------------------------------------------------------------------|x8
D|---------------------------------------------------------------------------|
A|-7-7-5--------------------------5--8-8-8-5---------------------------------|
D|----------4--4--4-4------7--7---------------7------------------------------|

Repeat verse.
Repeat chorus.
Repeat verse.
Repeat chorus.

End on open on D string.

--
Track 8 - Swap Meet

Tuning: Drop #D (#D, #G, #C, #F)

Intro/Verse
#F|---------------------------------------------------------------------------------|
#C|---------------------------------------------------------------------------| x20-|
#G|------5-------4------------------------------------------------------------------|
#D|-0-4-----0-4-----4-0-------------------------------------------------------------|

Chorus:
#F|-----------------------------------------------------------------------------|
#C|-----------------------------------------------------------------------------|
#G|--------------3-----3-3-3-3-3-3-3--------------------------------------------|
#D|-5--5---5-5------------------------------------------------------------------|

#F|-----------------------------------------------------------------------------|
#C|-----------------------------------------------------------------------------|
#G|---------------------------0-------------------------------------------------|
#D|-0----3-2-1-0---1-3-----------0-3-2-1-0-1-0----------------------------------|

Repeat 5 times.

#F|-----------------------------------------------------------------------------|
#C|-----------------------------------------------------------------------------|
#G|-----------------------------------------------------------------------------|
#D|-3-3---2-2-------1-1-1-1-----1/12\0------------------------------------------|

Repeat verse.
Repeat chorus.

Solo:
Repeat verse 8 times.

Post-Solo:
Repeat verse 20 times.

Repeat chorus 6 times.

--

Track 9 - Scoff

Tuning: Standard

Intro/Verse:
G|---------------------------------------------------------------------------|
D|---------------------------------------------------------------------------|x16
A|---------------------------------------------------------------------------|
E|-2--2--1--0--2--2--1-------------------------------------------------------|

Pre-Chorus:

G|---------------------------------------------------------------------------|
D|---------------------------------------------------------------------------| x7
A|-------3-0--------3-0------------------------------------------------------|
E|-2--2-------2--2-----------------------------------------------------------|

G|---------------------------------------------------------------------------|
D|---------------------------------------------------------------------------|x8
A|---------------------------3----3-3-------5-5-5----------------------------|
E|-2--3-3--4-4--5-5--x-----------------4------------0--5-5-5--0--------------|

The 2 33 44 55 is the build up to the chorus.

G|---------------------------------------------------------------------------|
D|---------------------------------------------------------------------------| x3
A|--7--7--6--0---------------------------------------------------------------|
E|---------------------------------------------------------------------------|

G|------------------------------------------------------------------------------|
D|------------------------------------------------------------------------------|
A|--7--7--6--0------------------------------------------------------------------|
E|--------------8/--------------------------------------------------------------|

Repeat verse 12 times.
Repeat pre-chorus 7 times.
Repeat chorus 8 times. (Including the build-up but not counted as "times.")
Repeat post-chorus 4 times.

Solo:
Repeat verse 20 times.

Repeat verse 8 times.
Repeat pre-chorus 7 times.
Repeat chorus 8 times. (Same scenario.)
Repeat post-chorus 8 times.

--

Track 10 - Mr Moustache

Tuning: Standard

Intro/Verse:
G|---------------------------------------------------------------------------|x40
D|---------------------------------------------------------------------------|
A|----2----------------------------------------------------------------------|
E|-3----3--2--1--0--1--2-----------------------------------------------------|

Chorus:
G|---------------------------------------------------------------------------|
D|---------------------------------------------------------------------------| x2
A|-2--0--3----3-3-3----------------------2--0--3----3-3-3--------------------|
E|---------------------3-3-3-3-3-2-1-0----------------------3-3-3-3-3--------|

G|---------------------------------------------------------------------------|
D|---------------------------------------------------------------------------|
A|---------------------------------------------------------------------------|
E|--5--5--0-----4--3--0-----5--5--5-----4--3--0------------------------------|

G|---------------------------------------------------------------------------|
D|---------------------------------------------------------------------------|
A|--3-----3--3-----3--3/6-6-6-6-6-6-6-6--------------------------------------|
E|---------------------------------------------------------------------------|

Repeat twice.
Repeat verse.
Repeat chorus.
Repeat verse 10 times.

G|---------------------------------------------------------------------------|
D|---------------------------------------------------------------------------| x3
A|-------2-------------------------------------------------------------------|
E|-3----------3-----2------1-----0----2----3---------------------------------|

G|---------------------------------------------------------------------------|
D|---------------------------------------------------------------------------|
A|-----------2---------------------------------------------------------------|
E|-3--------------------3----------2----------1---------0-------1-----2------|

G|---------------------------------------------------------------------------|
D|---------------------------------------------------------------------------|
A|---------------------------------------------------------------------------|
E|-3-------------------------------------------------------------------------|

--

Track 11 - Sifting

Tuning: Standard

Intro:
G|---------------------------------------------------------------------------|x4
D|---------------------------------------------------------------------------|
A|---------------------------------------------------------------------------|
E|--0---0---0---0------------------------------------------------------------|


G|---------------------------------------------------------------------------|
D|---------------------------------------------------------------------------| x4
A|--------------3-----------------2--1--0------------------------------------|
E|--0---0---0---------0---0---0----------------------------------------------|

Verse:
Repeat Intro Part 2 8 times.

Pre-Chorus:
G|---------------------------------------------------------------------------|
D|---------------------------------------------------------------------------| x8
A|--------------5------------------------------------------------------------|
E|--0---0---0----------------------------------------------------------------|

Chorus:
G|---------------------------------------------------------------------------|
D|---------------------------------------------------------------------------|x7
A|--0---0---0--3---3--3------------------------------------------------------|
E|-----------------------5^5-4^4-3^3-2^2-------------------------------------|

Only play the last bit at the end.

Repeat Verse.
Repeat Pre-Chorus.
Repeat Chorus.

Solo:
G|---------------------------------------------------------------------------|
D|---------------------------------------------------------------------------| x27
A|---------------------------------------------------------------------------|
E|-0--0--0--0----------------------------------------------------------------|

G|---------------------------------------------------------------------------|
D|---------------------------------------------------------------------------|x8
A|-------------3-------------------------------------------------------------|
E|-0--0--0--0----------------------------------------------------------------|

Repeat chorus.

--

Track 12 - Big Cheese

===============================================================================
                           Nirvana - Bleach (Album)
===============================================================================
Written by: Kannibus
Nirvana. Bleach. Bass Tab.
--
Track 1 - Blew

Tuning: Drop C (C, G, C, F)

Intro:
F|---------------------------------------------------------------------------|
C|---------------------------------------------------------------------------|
G|---------------------------------------------------------------------------|
C|-0-3-5-5^--6-5----0-3-5-5^--6-5----0-3-5-5^--6-5----0-3-5-5^--6-5----------|

Last time end without the last note.

Guitar Comes In:
F|---------------------------------------------------------------------------|
C|---------------------------------------------------------------------------|
G|---------------------------------------------------------------------------|
C|-0-0-3-5-5^----5^-5----3-3-0-3---3-----------------------------------------|

Verse:
F|---------------------------------------------10-------------------10----------|
C|----------------------------------------------9-------------------9-----------| x4
G|---------------------------------------------10-------------------10----------|
C|-0-3-5-5^-6---5^----5-3-5----5-3----5-3-5-5-------0-0-0-5-3-5--5--------------|

(The 10, 9, 10 part is optional.)

Chorus:
F|---------------------------------------------------------------------------|
C|---------------------------------------------------------------------------| x2
G|---------------------------------------------------------------------------|
C|-3-5--5-5-3-0-3----3-5-5-5-3-5^--------------------------------------------|

Chorus Ending:
F|---------------------------------------------------------------------------|
C|---------------------------------------------------------------------------|
G|---------------------------------------------------------------------------|
C|-3-5--5-5-3-0-3----3-5--5-5-3---5^-----------------------------------------|

Repeat Verse
Repeat Chorus

Solo:
F|---------------------------------------------------------------------------|
C|---------------------------------------------------------------------------|
G|---------------------------------------------------------------------------|
C|-0-0-3-5-5^---5^-5----3-3-0-3--3----0-0-3-5-5^---5^-5----5-3-0-0--0--------|

Mini Bass Solo (During Guitar Solo):
F|---------------------------------------------------------------------------|
C|---------------------------------------------------------------------------| x3
G|----------------3-----3-5--5-5---------------------------------------------|
C|-0-0-3-5-5----7-----7------------------------------------------------------|

End on a fourth time with the riff to the guitar solo.

Repeat Chorus

Outro:
F|---------------------------------------------------------------------------|
C|---------------------------------------------------------------------------|x3
G|---------------------------------------------------------------------------|
C|-0-3-5-5-6----0----0-3-5-5-6----0------------------------------------------|

--

Track 2 - Floyd The Barber

Tuning: Standard

Tuning: Drop D# (D#, G#, C#, F#)
Intro: (Come in the second time the guitar plays)
F#|---------------------------------------------------------------------------|
C#|---------------------------------------------------------------------------| x3
G#|---------------------------------------------------------------------------|
D#|-1-1--0-0-0----1-1--0-0-0--------------------------------------------------|

Verse:
Repeat Intro 4 times.

Chorus:
F#|------------------------------------------------------------------------------| x4
C#|------------------------------------------------------------------------------|
G#|---------------4-4-----3-3----------------------------------------------------|
D#|-1-1--0-0-0--------5-5-----4-4------------------------------------------------|

Only the first time do you play the 1 1 0 0 0.

Repeat Intro
Repeat Verse
Repeat Chorus

Solo:
F#|---------------------------------------------------------------------------|
C#|---------------------------------------------------------------------------| x4
G#|------------------------1----1/3-1---0--0-1-0------------------------------|
D#|-0-1----0-1--0--1--0--1----------------------------------------------------|

Repeat Intro
Repeat Verse

Third Chorus (Completely Optional. Repeat Normal Chorus If You Don't.):
F#|---------------------------------------------------------------------------|
C#|---------------------------------------------------------------------------| x2
G#|-------------4-4-0-0-3-3-------------------4-4-----3-3---------------------|
D#|-1-1--0-0-0------5-5-----4-4----1-1--0-0-0-----5-5-----4-4-----------------|

(Like the original chorus, only play the 1 1 0 0 0 the first time.)

Repeat Intro/Verse but only twice.

--

Track 3 - About A Girl

Tuning: Drop D# (D#, G#, C#, F#)

Intro:
F#|-----------------------------------------------------------------------------|
C#|-----------------------------------------------------------------------------|x5
G#|-----------------------------------------------------------------------------|
D#|-0----0-0-3-3-3-3------------------------------------------------------------|

Verse:
F#|------------------------------------------------------------------------------|
C#|------------------------------------------------------------------------------| x4
G#|---------------------7----7-10-10-7-10-7--------------------------------------|
D#|-0----0-0-3-3-3-3-------------------------------------------------------------|

Chorus:
F#|---------------------------------------------------------------------------|x2
C#|---------------------------------------------------------------------------|
G#|-4----4-4------------------------------------------------------------------|
D#|-----------4----4-4----2-2----2----2-2-2-----------------------------------|

Chorus Ending:
F#|-----------------------------------------------------------------------------|
C#|-----------------------------------------------------------------------------|
G#|-----------------------------------------------------------------------------|
D#|-0----0-0-0----0----5-5-5-8----8-8-8-----------------------------------------|

Interlude:
Repeat Intro 4 times.

Repeat Verse
Repeat Chorus
Repeat Interlude

Solo:
Repeat Verse 4 times.

Bridge:
Repeat Chorus

Repeat Interlude
Repeat Verse
Repeat Chorus

Outro:
F#|---------------------------------------------------------------------------|x5
C#|---------------------------------------------------------------------------|
G#|---------------------------------------------------------------------------|
D#|-8-8-8-8-8-8-8-8----0----0-0-3-3-3-3---------------------------------------|

Only include the 8 8 8 8 8 8 8 8 part once, leave it out for the other 4 times.

End on open E string.

--

Track 4 - School

Tuning: Standard

Intro:
G|---------------------------------------------------------------------------|x4
D|---------------------------------------------------------------------------|
A|---------------------------------------------------------------------------|
E|-0-5^----0-0-0-5^-0-0-5^-0-0-0-0-0-0-5^------------------------------------|

Only include the 0 5^ bit when the beginning guitar riff finishes off, do not include it 
for the rest of the intro.

Verse:
Repeat Intro 5 times.

Chorus:
G|---------------------------------------------------------------------------|
D|---------------------------------------------------------------------------|x2
A|-3----3-3--3-3-3--------------7----7-7--7-7----5-5---5-5-5-----------------|
E|-----------------5-5--5-5-5------------------------------------------------|

Only include the 7 7 7 7 7 5 5 5 5 5 part once.

Repeat verse 6 times.
Repeat chorus

Solo:
G|---------------------------------------------------------------------------|x6
D|---------------------------------------------------------------------------|
A|--------------------------5-7----------------------------------------------|
E|-0--0-0-5^--0-5^--0-0-0-7-----0--0-0-0-5^--0-0--0--0-0-5^------------------|


End on the 7 5 7 part.

Repeat verse 8 times.
Repeat chorus 3 times ending on the 3 3 3 3 3 3 3 3 5 5 5 5 5 part.

--

Track 5 - Love Buzz

Tuning: (F, A#, D#, G#)

Intro:
G#|-------------6h7-6---------------------------------------------------------|x24-|
D#|-7-x-x-5-7-8--------------------------------------------------------------------|
A#|--------------------------------------------------------------------------------|
F|---------------------------------------------------------------------------------|

Verse:
Repeat intro 8 times.

Chorus:
G#|-----------------------------------------------------------------------------|x2
D#|-7--------7-7--5-5-5---------------------------------------------------------|
A#|-------0---------------------------------------------------------------------|
F|------------------------------------------------------------------------------|

G#|------6----------------------------------------------------------------------|x2
D#|-7-------7-5-7----5----------------------------------------------------------|
A#|-----------------------------------------------------------------------------|
F|------------------------------------------------------------------------------|

G#|-------6------6--7----9----------6-------------------------------------------|x2
D#|-7-------7-----------------7-------7--5--7----5------------------------------|
A#|-----------------------------------------------------------------------------|
F|------------------------------------------------------------------------------|

Ending on 7 6 7 5 7 5

Repeat Verse 8 times.

Solo:
Repeat verse 12 times.

Repeat verse 8 times.

Chorus:
Repeat first part once.
Repeat second part 3 times.

G#|----------6-7-----------------------------------------------------------------| x3
D#|-7-5-7-8-------7-5------------------------------------------------------------|
A#|------------------------------------------------------------------------------|
F|-------------------------------------------------------------------------------|

G#|----------6-7----------------------------------------------------------------|
D#|-7-5-7-8---------------------------------------------------------------------|
A#|-----------------------------------------------------------------------------|
F|----------------0-3-----------------------------------------------------------|

Bass Solo:
G#|-----------------------------------------------------------------------------|
D#|-----------------------------------------------------------------------------|
A#|----------3--------------------4---------------------------------------------|
F|-5----3-5----5-0-3----5----3-5-----5-0-3--------------------------------------|

G#|-----------------------------------------------------------------------------|
D#|----------------------------------5------------------------------------------|
A#|---4---------------------4---------------------------------------------------|
F|-5-----5-3-5----3----5------5-3-5---------------------------------------------|

G#|----------6--7-------------------------------------------------------------|
D#|-7----5-7------------------------------5-----------------------------------|
A#|--------------------------------4-5-7--------------------------------------|
F|-----------------0-3----5----3-5--------------------------------------------|

G#|----6--7--9----7-------------------------------------------------------------|
D#|-7---------------------------------------------------------------------------|
A#|-----------------------------4-5-7----5----5---------------------------------|
F|--------------------0-3----5--------------0-----------------------------------|

G#|-----------------------------------------------------------------------------|
D#|-----------------------------------------------------------------------------|
A#|-7-5-4-0------0----4----0-4--5----4------------------------------------------|
F|-----------3------------------------------------------------------------------|

G#|-----------------6----7---9---7----7-----------------------------------------|
D#|-----------5-7---------------------------------------------------------------|
A#|-5----7----------------------------------------------------------------------|
F|------------------------------------------------------------------------------|

G#|-9--7--6---------------------------------------------------------------------|x3
D#|----------7----5-------------------------------------------------------------|
A#|---------------------7----5----4----0----------------------------------------|
F|----------------------------------------0---3---------------------------------|

Only include the 9 7 6 7 5 part once, leave it out for the rest.

G#|-----------------------------------------------------------------------------|
D#|-----------------------------------------------------------------------------|
A#|------4---------------------4-------4----4-----------------------------------|
F|-5--------5----3-0-3----5-------5---------------------------------------------|

G#|-------------------6----------6--7----9----7---------------------------------|
D#|----------5-7--------------7-------------------------------------------------|
A#|-5--7------------------------------------------------------------------------|
F|------------------------------------------------------------------------------|

G#|-9-7-6-----------------------------------------------------------------------|
D#|---------7----5--------------------------------------------------------------|
A#|-------------------7------5---5-4-0------------------------------------------|
F|--------------------------------------3-0-------------------------------------|

Repeat verse 16 times.

G#|-----------------------------------------------------------------------------|
D#|-----------------------------------------7-----------------------------------|
A#|-7---------------------------------------------------------------------------|
F|--0-0-0-0-0-0-0-0-0-0-0-0-0-0-0-0---------------------------------------------|

--

Track 6 - Paper Cuts

Tuning: Drop D# (D#, G#, C#, F#)

Intro:
F#|---------------------------------------------------------------------------|
C#|---------------------------------------------------------------------------|x4
G#|---------------------------------------------------------------------------|
D#|--1--1--1--1--1----1---1-1-1-----------------------------------------------|

Verse:
Repeat Intro 8 times.

Pre-Chorus:
F#|---------------------------------------------------------------------------|
C#|---------------------------------------------------------------------------|
G#|------------------7-7-7-7-7-7----------------------------------------------|
D#|-1-1-1--------0------------------------------------------------------------|

F#|---------------------------------------------------------------------------|
C#|---------------------------------------------------------------------------| x6
G#|-7-7-7-7-7-7-7-7--------7-7-7-7-7-7----------------------------------------|
D#|-------------------0-------------------------------------------------------|

F#|---------------------------------------------------------------------------|
C#|-7-7-7-7-7-7-7-7-----------------------------------------------------------|
G#|---------------------------------------------------------------------------|
D#|---------------------------------------------------------------------------|

F#|---------------------------------------------------------------------------|
C#|---------------------------------------------------------------------------| x4
G#|---------------------------------------------------------------------------|
D#|-2-3-3-4-4-5-5-6-7--6-6-6--------------------------------------------------|

Do not include the 7 6 6 6 part on the 4th time.

F#|---------------------------------------------------------------------------|
C#|---------------------------------------------------------------------------|
G#|---------------------------------------------------------------------------|
D#|-2-3-3-4-4-5-5-6----7-6-6-6----6-6-----------------------------------------|

F#|---------------------------------------------------------------------------|
C#|---------------------------------------------------------------------------|x3
G#|---------------------------------------------------------------------------|
D#|--4-3-3-3----3-3-3----7-6-6-6----6-6-6-------------------------------------|

Do not include the 7 6 6 6 6 6 6 part on the 3rd time.

Post-Chorus:
F#|---------------------------------------------------------------------------|
C#|---------------------------------------------------------------------------|
G#|---------------------------------------------------------------------------|
D#|-2-2-2-2-2-2-2-2------------12/--------------------------------------------|

Only include the 12/ part 2nd time around.

Repeat verse 8 times.
Repeat pre-chorus 7 times.

Chorus:
F#|---------------------------------------------------------------------------|
C#|---------------------------------------------------------------------------|x3
G#|---------------------------------------------------------------------------|
D#|-2-3-3-4-4-5-5-6----7-6-6-6------------------------------------------------|

F#|---------------------------------------------------------------------------|
C#|---------------------------------------------------------------------------|
G#|---------------------------------------------------------------------------|
D#|-2-3-3-4-4-5-5-6----7-6-6-6----6-6-----------------------------------------|

Repeat the last riff of the pre-chorus 4 times ending on the 4 3 3 3 3 3 3
Repeat post-chorus twice for outro.

--

Track 7 - Negative Creep

Tuning: Drop D (D, A, D, G)

Intro:
G|---------------------------------------------------------------------------|
D|---------------------------------------------------------------------------|x5
A|---------------------------------------------------------------------------|
D|-0-0-0-0-0-0-0-12----------------------------------------------------------|

Verse:
G|---------------------------------------------------------------------------|
D|---------------------------------------------------------------------------|x14
A|---------------------------------------------------------------------------|
D|-0-0-0-0-0-0-0-12--------0-0-0-0-------------------------------------------|

Only include the 0 0 0 0 on the 4th time.

G|---------------------------------------------------------------------------|
D|---------------------------------------------------------------------------|x5
A|-----------------------------7-7-7-7---------------------------------------|
D|-0-0-0-0-0-0-0-0-0-0-0-0-0-------------------------------------------------|

Chorus:
G|---------------------------------------------------------------------------|x8
D|---------------------------------------------------------------------------|
A|-7-7-5--------------------------5--8-8-8-5---------------------------------|
D|----------4--4--4-4------7--7---------------7------------------------------|

Repeat verse.
Repeat chorus.
Repeat verse.
Repeat chorus.

End on open on D string.

--
Track 8 - Swap Meet

Tuning: Drop #D (#D, #G, #C, #F)

Intro/Verse:
#F|---------------------------------------------------------------------------------|
#C|---------------------------------------------------------------------------| x20-|
#G|------5-------4------------------------------------------------------------------|
#D|-0-4-----0-4----4---0------------------------------------------------------------|

===============================================================================
                           Nirvana - Bleach (Album)
===============================================================================
Written by: Kannibus
Nirvana. Bleach. Bass Tab.
--
Track 1 - Blew

Tuning: Drop C (C, G, C, F)

Intro:
F|---------------------------------------------------------------------------|
C|---------------------------------------------------------------------------|
G|---------------------------------------------------------------------------|
C|-0-3-5-5^--6-5----0-3-5-5^--6-5----0-3-5-5^--6-5----0-3-5-5^--6-5----------|

Last time end without the last note.

Guitar Comes In:
F|---------------------------------------------------------------------------|
C|---------------------------------------------------------------------------|
G|---------------------------------------------------------------------------|
C|-0-0-3-5-5^----5^-5----3-3-0-3---3-----------------------------------------|

Verse:
F|---------------------------------------------10-------------------10----------|
C|----------------------------------------------9-------------------9-----------| x4
G|---------------------------------------------10-------------------10----------|
C|-0-3-5-5^-6---5^----5-3-5----5-3----5-3-5-5-------0-0-0-5-3-5--5--------------|

(The 10, 9, 10 part is optional.)

Chorus:
F|---------------------------------------------------------------------------|
C|---------------------------------------------------------------------------| x2
G|---------------------------------------------------------------------------|
C|-3-5--5-5-3-0-3----3-5-5-5-3-5^--------------------------------------------|

Chorus Ending:
F|---------------------------------------------------------------------------|
C|---------------------------------------------------------------------------|
G|---------------------------------------------------------------------------|
C|-3-5--5-5-3-0-3----3-5--5-5-3---5^-----------------------------------------|

Repeat Verse
Repeat Chorus

Solo:
F|---------------------------------------------------------------------------|
C|---------------------------------------------------------------------------|
G|---------------------------------------------------------------------------|
C|-0-0-3-5-5^---5^-5----3-3-0-3--3----0-0-3-5-5^---5^-5----5-3-0-0--0--------|

Mini Bass Solo (During Guitar Solo):
F|---------------------------------------------------------------------------|
C|---------------------------------------------------------------------------| x3
G|----------------3-----3-5--5-5---------------------------------------------|
C|-0-0-3-5-5----7-----7------------------------------------------------------|

End on a fourth time with the riff to the guitar solo.

Repeat Chorus

Outro:
F|---------------------------------------------------------------------------|
C|---------------------------------------------------------------------------|x3
G|---------------------------------------------------------------------------|
C|-0-3-5-5-6----0----0-3-5-5-6----0------------------------------------------|

--

Track 2 - Floyd The Barber

Tuning: Standard

Tuning: Drop D# (D#, G#, C#, F#)
Intro: (Come in the second time the guitar plays)
F#|---------------------------------------------------------------------------|
C#|---------------------------------------------------------------------------| x3
G#|---------------------------------------------------------------------------|
D#|-1-1--0-0-0----1-1--0-0-0--------------------------------------------------|

Verse:
Repeat Intro 4 times.

Chorus:
F#|------------------------------------------------------------------------------| x4
C#|------------------------------------------------------------------------------|
G#|---------------4-4-----3-3----------------------------------------------------|
D#|-1-1--0-0-0--------5-5-----4-4------------------------------------------------|

Only the first time do you play the 1 1 0 0 0.

Repeat Intro
Repeat Verse
Repeat Chorus

Solo:
F#|---------------------------------------------------------------------------|
C#|---------------------------------------------------------------------------| x4
G#|------------------------1----1/3-1---0--0-1-0------------------------------|
D#|-0-1----0-1--0--1--0--1----------------------------------------------------|

Repeat Intro
Repeat Verse

Third Chorus (Completely Optional. Repeat Normal Chorus If You Don't.):
F#|---------------------------------------------------------------------------|
C#|---------------------------------------------------------------------------| x2
G#|-------------4-4-0-0-3-3-------------------4-4-----3-3---------------------|
D#|-1-1--0-0-0------5-5-----4-4----1-1--0-0-0-----5-5-----4-4-----------------|

(Like the original chorus, only play the 1 1 0 0 0 the first time.)

Repeat Intro/Verse but only twice.

--

Track 3 - About A Girl

Tuning: Drop D# (D#, G#, C#, F#)

Intro:
F#|-----------------------------------------------------------------------------|
C#|-----------------------------------------------------------------------------|x5
G#|-----------------------------------------------------------------------------|
D#|-0----0-0-3-3-3-3------------------------------------------------------------|

Verse:
F#|------------------------------------------------------------------------------|
C#|------------------------------------------------------------------------------| x4
G#|---------------------7----7-10-10-7-10-7--------------------------------------|
D#|-0----0-0-3-3-3-3-------------------------------------------------------------|

Chorus:
F#|---------------------------------------------------------------------------|x2
C#|---------------------------------------------------------------------------|
G#|-4----4-4------------------------------------------------------------------|
D#|-----------4----4-4----2-2----2----2-2-2-----------------------------------|

Chorus Ending:
F#|-----------------------------------------------------------------------------|
C#|-----------------------------------------------------------------------------|
G#|-----------------------------------------------------------------------------|
D#|-0----0-0-0----0----5-5-5-8----8-8-8-----------------------------------------|

Interlude:
Repeat Intro 4 times.

Repeat Verse
Repeat Chorus
Repeat Interlude

Solo:
Repeat Verse 4 times.

Bridge:
Repeat Chorus

Repeat Interlude
Repeat Verse
Repeat Chorus

Outro:
F#|---------------------------------------------------------------------------|x5
C#|---------------------------------------------------------------------------|
G#|---------------------------------------------------------------------------|
D#|-8-8-8-8-8-8-8-8----0----0-0-3-3-3-3---------------------------------------|

Only include the 8 8 8 8 8 8 8 8 part once, leave it out for the other 4 times.

End on open E string.

--

Track 4 - School

Tuning: Standard

Intro:
G|---------------------------------------------------------------------------|x4
D|---------------------------------------------------------------------------|
A|---------------------------------------------------------------------------|
E|-0-5^----0-0-0-5^-0-0-5^-0-0-0-0-0-0-5^------------------------------------|

Only include the 0 5^ bit when the beginning guitar riff finishes off, do not include it 
for the rest of the intro.

Verse:
Repeat Intro 5 times.

Chorus:
G|---------------------------------------------------------------------------|
D|---------------------------------------------------------------------------|x2
A|-3----3-3--3-3-3--------------7----7-7--7-7----5-5---5-5-5-----------------|
E|-----------------5-5--5-5-5------------------------------------------------|

Only include the 7 7 7 7 7 5 5 5 5 5 part once.

Repeat verse 6 times.
Repeat chorus

Solo:
G|---------------------------------------------------------------------------|x6
D|---------------------------------------------------------------------------|
A|--------------------------5-7----------------------------------------------|
E|-0--0-0-5^--0-5^--0-0-0-7-----0--0-0-0-5^--0-0--0--0-0-5^------------------|


End on the 7 5 7 part.

Repeat verse 8 times.
Repeat chorus 3 times ending on the 3 3 3 3 3 3 3 3 5 5 5 5 5 part.

--

Track 5 - Love Buzz

Tuning: (F, A#, D#, G#)

Intro:
G#|-------------6h7-6---------------------------------------------------------|x24-|
D#|-7-x-x-5-7-8--------------------------------------------------------------------|
A#|--------------------------------------------------------------------------------|
F|---------------------------------------------------------------------------------|

Verse:
Repeat intro 8 times.

Chorus:
G#|-----------------------------------------------------------------------------|x2
D#|-7--------7-7--5-5-5---------------------------------------------------------|
A#|-------0---------------------------------------------------------------------|
F|------------------------------------------------------------------------------|

G#|------6----------------------------------------------------------------------|x2
D#|-7-------7-5-7----5----------------------------------------------------------|
A#|-----------------------------------------------------------------------------|
F|------------------------------------------------------------------------------|

G#|-------6------6--7----9----------6-------------------------------------------|x2
D#|-7-------7-----------------7-------7--5--7----5------------------------------|
A#|-----------------------------------------------------------------------------|
F|------------------------------------------------------------------------------|

Ending on 7 6 7 5 7 5

Repeat Verse 8 times.

Solo:
Repeat verse 12 times.

Repeat verse 8 times.

Chorus:
Repeat first part once.
Repeat second part 3 times.

G#|----------6-7-----------------------------------------------------------------| x3
D#|-7-5-7-8-------7-5------------------------------------------------------------|
A#|------------------------------------------------------------------------------|
F|-------------------------------------------------------------------------------|

G#|----------6-7----------------------------------------------------------------|
D#|-7-5-7-8---------------------------------------------------------------------|
A#|-----------------------------------------------------------------------------|
F|----------------0-3-----------------------------------------------------------|

Bass Solo:
G#|---------------------------------------------------------------------------|
D#|---------------------------------------------------------------------------|
A#|----------3--------------------4-------------------------------------------|
===============================================================================
                           Nirvana - Bleach (Album)
===============================================================================
Written by: Kannibus
Nirvana. Bleach. Bass Tab.
--
Track 1 - Blew

Tuning: Drop C (C, G, C, F)

Intro:
F|---------------------------------------------------------------------------|
C|---------------------------------------------------------------------------|
G|---------------------------------------------------------------------------|
C|-0-3-5-5^--6-5----0-3-5-5^--6-5----0-3-5-5^--6-5----0-3-5-5^--6-5----------|

Last time end without the last note.

Guitar Comes In:
F|---------------------------------------------------------------------------|
C|---------------------------------------------------------------------------|
G|---------------------------------------------------------------------------|
C|-0-0-3-5-5^----5^-5----3-3-0-3---3-----------------------------------------|

Verse:
F|---------------------------------------------10-------------------10----------|
C|----------------------------------------------9-------------------9-----------| x4
G|---------------------------------------------10-------------------10----------|
C|-0-3-5-5^-6---5^----5-3-5----5-3----5-3-5-5-------0-0-0-5-3-5--5--------------|

(The 10, 9, 10 part is optional.)

Chorus:
F|---------------------------------------------------------------------------|
C|---------------------------------------------------------------------------| x2
G|---------------------------------------------------------------------------|
C|-3-5--5-5-3-0-3----3-5-5-5-3-5^--------------------------------------------|

Chorus Ending:
F|---------------------------------------------------------------------------|
C|---------------------------------------------------------------------------|
G|---------------------------------------------------------------------------|
C|-3-5--5-5-3-0-3----3-5--5-5-3---5^-----------------------------------------|

Repeat Verse
Repeat Chorus

Solo:
F|---------------------------------------------------------------------------|
C|---------------------------------------------------------------------------|
G|---------------------------------------------------------------------------|
C|-0-0-3-5-5^---5^-5----3-3-0-3--3----0-0-3-5-5^---5^-5----5-3-0-0--0--------|

Mini Bass Solo (During Guitar Solo):
F|---------------------------------------------------------------------------|
C|---------------------------------------------------------------------------| x3
G|----------------3-----3-5--5-5---------------------------------------------|
C|-0-0-3-5-5----7-----7------------------------------------------------------|

End on a fourth time with the riff to the guitar solo.

Repeat Chorus

Outro:
F|---------------------------------------------------------------------------|
C|---------------------------------------------------------------------------|x3
G|---------------------------------------------------------------------------|
C|-0-3-5-5-6----0----0-3-5-5-6----0------------------------------------------|

--

Track 2 - Floyd The Barber

Tuning: Standard

Tuning: Drop D# (D#, G#, C#, F#)
Intro: (Come in the second time the guitar plays)
F#|---------------------------------------------------------------------------|
C#|---------------------------------------------------------------------------| x3
G#|---------------------------------------------------------------------------|
D#|-1-1--0-0-0----1-1--0-0-0--------------------------------------------------|

Verse:
Repeat Intro 4 times.

Chorus:
F#|------------------------------------------------------------------------------| x4
C#|------------------------------------------------------------------------------|
G#|---------------4-4-----3-3----------------------------------------------------|
D#|-1-1--0-0-0--------5-5-----4-4------------------------------------------------|

Only the first time do you play the 1 1 0 0 0.

Repeat Intro
Repeat Verse
Repeat Chorus

Solo:
F#|---------------------------------------------------------------------------|
C#|---------------------------------------------------------------------------| x4
G#|------------------------1----1/3-1---0--0-1-0------------------------------|
D#|-0-1----0-1--0--1--0--1----------------------------------------------------|

Repeat Intro
Repeat Verse

Third Chorus (Completely Optional. Repeat Normal Chorus If You Don't.):
F#|---------------------------------------------------------------------------|
C#|---------------------------------------------------------------------------| x2
G#|-------------4-4-0-0-3-3-------------------4-4-----3-3---------------------|
D#|-1-1--0-0-0------5-5-----4-4----1-1--0-0-0-----5-5-----4-4-----------------|

(Like the original chorus, only play the 1 1 0 0 0 the first time.)

Repeat Intro/Verse but only twice.

--

Track 3 - About A Girl

Tuning: Drop D# (D#, G#, C#, F#)

Intro:
F#|-----------------------------------------------------------------------------|
C#|-----------------------------------------------------------------------------|x5
G#|-----------------------------------------------------------------------------|
D#|-0----0-0-3-3-3-3------------------------------------------------------------|

Verse:
F#|------------------------------------------------------------------------------|
C#|------------------------------------------------------------------------------| x4
G#|---------------------7----7-10-10-7-10-7--------------------------------------|
D#|-0----0-0-3-3-3-3-------------------------------------------------------------|

Chorus:
F#|---------------------------------------------------------------------------|x2
C#|---------------------------------------------------------------------------|
G#|-4----4-4------------------------------------------------------------------|
D#|-----------4----4-4----2-2----2----2-2-2-----------------------------------|

Chorus Ending:
F#|-----------------------------------------------------------------------------|
C#|-----------------------------------------------------------------------------|
G#|-----------------------------------------------------------------------------|
D#|-0----0-0-0----0----5-5-5-8----8-8-8-----------------------------------------|

Interlude:
Repeat Intro 4 times.

Repeat Verse
Repeat Chorus
Repeat Interlude

Solo:
Repeat Verse 4 times.

Bridge:
Repeat Chorus

Repeat Interlude
Repeat Verse
Repeat Chorus

Outro:
F#|---------------------------------------------------------------------------|x5
C#|---------------------------------------------------------------------------|
G#|---------------------------------------------------------------------------|
D#|-8-8-8-8-8-8-8-8----0----0-0-3-3-3-3---------------------------------------|

Only include the 8 8 8 8 8 8 8 8 part once, leave it out for the other 4 times.

End on open E string.

--

Track 4 - School

Tuning: Standard

Intro:
G|---------------------------------------------------------------------------|x4
D|---------------------------------------------------------------------------|
A|---------------------------------------------------------------------------|
E|-0-5^----0-0-0-5^-0-0-5^-0-0-0-0-0-0-5^------------------------------------|

Only include the 0 5^ bit when the beginning guitar riff finishes off, do not include it 
for the rest of the intro.

Verse:
Repeat Intro 5 times.

Chorus:
G|---------------------------------------------------------------------------|
D|---------------------------------------------------------------------------|x2
A|-3----3-3--3-3-3--------------7----7-7--7-7----5-5---5-5-5-----------------|
E|-----------------5-5--5-5-5------------------------------------------------|

Only include the 7 7 7 7 7 5 5 5 5 5 part once.

Repeat verse 6 times.
Repeat chorus

Solo:
G|---------------------------------------------------------------------------|x6
D|---------------------------------------------------------------------------|
A|--------------------------5-7----------------------------------------------|
E|-0--0-0-5^--0-5^--0-0-0-7-----0--0-0-0-5^--0-0--0--0-0-5^------------------|


End on the 7 5 7 part.

Repeat verse 8 times.
Repeat chorus 3 times ending on the 3 3 3 3 3 3 3 3 5 5 5 5 5 part.

--

Track 5 - Love Buzz

Tuning: (F, A#, D#, G#)

Intro:
G#|-------------6h7-6---------------------------------------------------------|x24-|
D#|-7-x-x-5-7-8--------------------------------------------------------------------|
A#|--------------------------------------------------------------------------------|
F|---------------------------------------------------------------------------------|

Verse:
Repeat intro 8 times.

Chorus:
G#|-----------------------------------------------------------------------------|x2
D#|-7--------7-7--5-5-5---------------------------------------------------------|
A#|-------0---------------------------------------------------------------------|
F|------------------------------------------------------------------------------|

G#|------6----------------------------------------------------------------------|x2
D#|-7-------7-5-7----5----------------------------------------------------------|
A#|-----------------------------------------------------------------------------|
F|------------------------------------------------------------------------------|

G#|-------6------6--7----9----------6-------------------------------------------|x2
D#|-7-------7-----------------7-------7--5--7----5------------------------------|
A#|-----------------------------------------------------------------------------|
F|------------------------------------------------------------------------------|

Ending on 7 6 7 5 7 5

Repeat Verse 8 times.

Solo:
Repeat verse 12 times.

Repeat verse 8 times.

Chorus:
Repeat first part once.
Repeat second part 3 times.

G#|----------6-7-----------------------------------------------------------------| x3
D#|-7-5-7-8-------7-5------------------------------------------------------------|
A#|------------------------------------------------------------------------------|
F|-------------------------------------------------------------------------------|

G#|----------6-7----------------------------------------------------------------|
D#|-7-5-7-8---------------------------------------------------------------------|
A#|-----------------------------------------------------------------------------|
F|----------------0-3-----------------------------------------------------------|

Bass Solo:
G#|-----------------------------------------------------------------------------|
D#|-----------------------------------------------------------------------------|
A#|----------3--------------------4---------------------------------------------|
F|-5----3-5----5-0-3----5----3-5-----5-0-3--------------------------------------|

G#|-----------------------------------------------------------------------------|
D#|----------------------------------5------------------------------------------|
A#|---4---------------------4---------------------------------------------------|
F|-5-----5-3-5----3----5------5-3-5---------------------------------------------|

G#|----------6--7-------------------------------------------------------------|
D#|-7----5-7------------------------------5-----------------------------------|
A#|--------------------------------4-5-7--------------------------------------|
F|-----------------0-3----5----3-5--------------------------------------------|

G#|----6--7--9----7-------------------------------------------------------------|
D#|-7---------------------------------------------------------------------------|
A#|-----------------------------4-5-7----5----5---------------------------------|
F|--------------------0-3----5--------------0-----------------------------------|

G#|-----------------------------------------------------------------------------|
D#|-----------------------------------------------------------------------------|
A#|-7-5-4-0------0----4----0-4--5----4------------------------------------------|
F|-----------3------------------------------------------------------------------|

G#|-----------------6----7---9---7----7-----------------------------------------|
D#|-----------5-7---------------------------------------------------------------|
A#|-5----7----------------------------------------------------------------------|
F|------------------------------------------------------------------------------|

G#|-9--7--6---------------------------------------------------------------------|x3
D#|----------7----5-------------------------------------------------------------|
A#|---------------------7----5----4----0----------------------------------------|
F|----------------------------------------0---3---------------------------------|

Only include the 9 7 6 7 5 part once, leave it out for the rest.

G#|-----------------------------------------------------------------------------|
D#|-----------------------------------------------------------------------------|
A#|------4---------------------4-------4----4-----------------------------------|
F|-5--------5----3-0-3----5-------5---------------------------------------------|

G#|-------------------6----------6--7----9----7---------------------------------|
D#|----------5-7--------------7-------------------------------------------------|
A#|-5--7------------------------------------------------------------------------|
F|------------------------------------------------------------------------------|

G#|-9-7-6-----------------------------------------------------------------------|
D#|---------7----5--------------------------------------------------------------|
A#|-------------------7------5---5-4-0------------------------------------------|
F|--------------------------------------3-0-------------------------------------|

Repeat verse 16 times.

G#|-----------------------------------------------------------------------------|
D#|-----------------------------------------7-----------------------------------|
A#|-7---------------------------------------------------------------------------|
F|--0-0-0-0-0-0-0-0-0-0-0-0-0-0-0-0---------------------------------------------|

--

Track 6 - Paper Cuts

Tuning: Drop D# (D#, G#, C#, F#)

Intro:
F#|---------------------------------------------------------------------------|
C#|---------------------------------------------------------------------------|x4
G#|---------------------------------------------------------------------------|
D#|--1--1--1--1--1----1---1-1-1-----------------------------------------------|

Verse:
Repeat Intro 8 times.

Pre-Chorus:
F#|---------------------------------------------------------------------------|
C#|---------------------------------------------------------------------------|
G#|------------------7-7-7-7-7-7----------------------------------------------|
D#|-1-1-1--------0------------------------------------------------------------|

F#|---------------------------------------------------------------------------|
C#|---------------------------------------------------------------------------| x6
G#|-7-7-7-7-7-7-7-7--------7-7-7-7-7-7----------------------------------------|
D#|-------------------0-------------------------------------------------------|

F#|---------------------------------------------------------------------------|
C#|-7-7-7-7-7-7-7-7-----------------------------------------------------------|
G#|---------------------------------------------------------------------------|
D#|---------------------------------------------------------------------------|

F#|---------------------------------------------------------------------------|
C#|---------------------------------------------------------------------------| x4
G#|---------------------------------------------------------------------------|
D#|-2-3-3-4-4-5-5-6-7--6-6-6--------------------------------------------------|

Do not include the 7 6 6 6 part on the 4th time.

F#|---------------------------------------------------------------------------|
C#|---------------------------------------------------------------------------|
G#|---------------------------------------------------------------------------|
D#|-2-3-3-4-4-5-5-6----7-6-6-6----6-6-----------------------------------------|

F#|---------------------------------------------------------------------------|
C#|---------------------------------------------------------------------------|x3
G#|---------------------------------------------------------------------------|
D#|--4-3-3-3----3-3-3----7-6-6-6----6-6-6-------------------------------------|

Do not include the 7 6 6 6 6 6 6 part on the 3rd time.

Post-Chorus:
F#|---------------------------------------------------------------------------|
C#|---------------------------------------------------------------------------|
G#|---------------------------------------------------------------------------|
D#|-2-2-2-2-2-2-2-2------------12/--------------------------------------------|

Only include the 12/ part 2nd time around.

Repeat verse 8 times.
Repeat pre-chorus 7 times.

Chorus:
F#|---------------------------------------------------------------------------|
C#|---------------------------------------------------------------------------|x3
G#|---------------------------------------------------------------------------|
D#|-2-3-3-4-4-5-5-6----7-6-6-6------------------------------------------------|

F#|---------------------------------------------------------------------------|
C#|---------------------------------------------------------------------------|
G#|---------------------------------------------------------------------------|
D#|-2-3-3-4-4-5-5-6----7-6-6-6----6-6-----------------------------------------|

Repeat the last riff of the pre-chorus 4 times ending on the 4 3 3 3 3 3 3
Repeat post-chorus twice for outro.

--

Track 7 - Negative Creep

Tuning: Drop D (D, A, D, G)

Intro:
G|---------------------------------------------------------------------------|
D|---------------------------------------------------------------------------|x5
A|---------------------------------------------------------------------------|
D|-0-0-0-0-0-0-0-12----------------------------------------------------------|

Verse:
G|---------------------------------------------------------------------------|
D|---------------------------------------------------------------------------|x14
A|---------------------------------------------------------------------------|
D|-0-0-0-0-0-0-0-12--------0-0-0-0-------------------------------------------|

Only include the 0 0 0 0 on the 4th time.

G|---------------------------------------------------------------------------|
D|---------------------------------------------------------------------------|x5
A|-----------------------------7-7-7-7---------------------------------------|
D|-0-0-0-0-0-0-0-0-0-0-0-0-0-------------------------------------------------|

Chorus:
G|---------------------------------------------------------------------------|x8
D|---------------------------------------------------------------------------|
A|-7-7-5--------------------------5--8-8-8-5---------------------------------|
D|----------4--4--4-4------7--7---------------7------------------------------|

Repeat verse.
Repeat chorus.
Repeat verse.
Repeat chorus.

End on open on D string.

--
Track 8 - Swap Meet

Tuning: Drop #D (#D, #G, #C, #F)

Intro/Verse:
#F|---------------------------------------------------------------------------------|
#C|---------------------------------------------------------------------------| x20-|
#G|------5-------4------------------------------------------------------------------|
#D|-0-4-----0-4----4---0------------------------------------------------------------|

===============================================================================
                           Nirvana - Bleach (Album)
===============================================================================
Written by: Kannibus
Nirvana. Bleach. Bass Tab.
--
Track 1 - Blew

Tuning: Drop C (C, G, C, F)

Intro:
F|---------------------------------------------------------------------------|
C|---------------------------------------------------------------------------|
G|---------------------------------------------------------------------------|
C|-0-3-5-5^--6-5----0-3-5-5^--6-5----0-3-5-5^--6-5----0-3-5-5^--6-5----------|

Last time end without the last note.

Guitar Comes In:
F|---------------------------------------------------------------------------|
C|---------------------------------------------------------------------------|
G|---------------------------------------------------------------------------|
C|-0-0-3-5-5^----5^-5----3-3-0-3---3-----------------------------------------|

Verse:
F|---------------------------------------------10-------------------10----------|
C|----------------------------------------------9-------------------9-----------| x4
G|---------------------------------------------10-------------------10----------|
C|-0-3-5-5^-6---5^----5-3-5----5-3----5-3-5-5-------0-0-0-5-3-5--5--------------|

(The 10, 9, 10 part is optional.)

Chorus:
F|---------------------------------------------------------------------------|
C|---------------------------------------------------------------------------| x2
G|---------------------------------------------------------------------------|
C|-3-5--5-5-3-0-3----3-5-5-5-3-5^--------------------------------------------|

Chorus Ending:
F|---------------------------------------------------------------------------|
C|---------------------------------------------------------------------------|
G|---------------------------------------------------------------------------|
C|-3-5--5-5-3-0-3----3-5--5-5-3---5^-----------------------------------------|

Repeat Verse
Repeat Chorus

Solo:
F|---------------------------------------------------------------------------|
C|---------------------------------------------------------------------------|
G|---------------------------------------------------------------------------|
C|-0-0-3-5-5^---5^-5----3-3-0-3--3----0-0-3-5-5^---5^-5----5-3-0-0--0--------|

Mini Bass Solo (During Guitar Solo):
F|---------------------------------------------------------------------------|
C|---------------------------------------------------------------------------| x3
G|----------------3-----3-5--5-5---------------------------------------------|
C|-0-0-3-5-5----7-----7------------------------------------------------------|

End on a fourth time with the riff to the guitar solo.

Repeat Chorus

Outro:
F|---------------------------------------------------------------------------|
C|---------------------------------------------------------------------------|x3
G|---------------------------------------------------------------------------|
C|-0-3-5-5-6----0----0-3-5-5-6----0------------------------------------------|

--

Track 2 - Floyd The Barber

Tuning: Standard

Tuning: Drop D# (D#, G#, C#, F#)
Intro: (Come in the second time the guitar plays)
F#|---------------------------------------------------------------------------|
C#|---------------------------------------------------------------------------| x3
G#|---------------------------------------------------------------------------|
D#|-1-1--0-0-0----1-1--0-0-0--------------------------------------------------|

Verse:
Repeat Intro 4 times.

Chorus:
F#|------------------------------------------------------------------------------| x4
C#|------------------------------------------------------------------------------|
G#|---------------4-4-----3-3----------------------------------------------------|
D#|-1-1--0-0-0--------5-5-----4-4------------------------------------------------|

Only the first time do you play the 1 1 0 0 0.

Repeat Intro
Repeat Verse
Repeat Chorus

Solo:
F#|---------------------------------------------------------------------------|
C#|---------------------------------------------------------------------------| x4
G#|------------------------1----1/3-1---0--0-1-0------------------------------|
D#|-0-1----0-1--0--1--0--1----------------------------------------------------|

Repeat Intro
Repeat Verse

Third Chorus (Completely Optional. Repeat Normal Chorus If You Don't.):
F#|---------------------------------------------------------------------------|
C#|---------------------------------------------------------------------------| x2
G#|-------------4-4-0-0-3-3-------------------4-4-----3-3---------------------|
D#|-1-1--0-0-0------5-5-----4-4----1-1--0-0-0-----5-5-----4-4-----------------|

(Like the original chorus, only play the 1 1 0 0 0 the first time.)

Repeat Intro/Verse but only twice.

--

Track 3 - About A Girl

Tuning: Drop D# (D#, G#, C#, F#)

Intro:
F#|-----------------------------------------------------------------------------|
C#|-----------------------------------------------------------------------------|x5
G#|-----------------------------------------------------------------------------|
D#|-0----0-0-3-3-3-3------------------------------------------------------------|

Verse:
F#|------------------------------------------------------------------------------|
C#|------------------------------------------------------------------------------| x4
G#|---------------------7----7-10-10-7-10-7--------------------------------------|
D#|-0----0-0-3-3-3-3-------------------------------------------------------------|

Chorus:
F#|---------------------------------------------------------------------------|x2
C#|---------------------------------------------------------------------------|
G#|-4----4-4------------------------------------------------------------------|
D#|-----------4----4-4----2-2----2----2-2-2-----------------------------------|

Chorus Ending:
F#|-----------------------------------------------------------------------------|
C#|-----------------------------------------------------------------------------|
G#|-----------------------------------------------------------------------------|
D#|-0----0-0-0----0----5-5-5-8----8-8-8-----------------------------------------|

Interlude:
Repeat Intro 4 times.

Repeat Verse
Repeat Chorus
Repeat Interlude

Solo:
Repeat Verse 4 times.

Bridge:
Repeat Chorus

Repeat Interlude
Repeat Verse
Repeat Chorus

Outro:
F#|---------------------------------------------------------------------------|x5
C#|---------------------------------------------------------------------------|
G#|---------------------------------------------------------------------------|
D#|-8-8-8-8-8-8-8-8----0----0-0-3-3-3-3---------------------------------------|

Only include the 8 8 8 8 8 8 8 8 part once, leave it out for the other 4 times.

End on open E string.

--

Track 4 - School

Tuning: Standard

Intro:
G|---------------------------------------------------------------------------|x4
D|---------------------------------------------------------------------------|
A|---------------------------------------------------------------------------|
E|-0-5^----0-0-0-5^-0-0-5^-0-0-0-0-0-0-5^------------------------------------|

Only include the 0 5^ bit when the beginning guitar riff finishes off, do not include it 
for the rest of the intro.

Verse:
Repeat Intro 5 times.

Chorus:
G|---------------------------------------------------------------------------|
D|---------------------------------------------------------------------------|x2
A|-3----3-3--3-3-3--------------7----7-7--7-7----5-5---5-5-5-----------------|
E|-----------------5-5--5-5-5------------------------------------------------|

Only include the 7 7 7 7 7 5 5 5 5 5 part once.

Repeat verse 6 times.
Repeat chorus

Solo:
G|---------------------------------------------------------------------------|x6
D|---------------------------------------------------------------------------|
A|--------------------------5-7----------------------------------------------|
E|-0--0-0-5^--0-5^--0-0-0-7-----0--0-0-0-5^--0-0--0--0-0-5^------------------|


End on the 7 5 7 part.

Repeat verse 8 times.
Repeat chorus 3 times ending on the 3 3 3 3 3 3 3 3 5 5 5 5 5 part.

--

Track 5 - Love Buzz

Tuning: (F, A#, D#, G#)

Intro:
G#|-------------6h7-6---------------------------------------------------------|x24-|
D#|-7-x-x-5-7-8--------------------------------------------------------------------|
A#|--------------------------------------------------------------------------------|
F|---------------------------------------------------------------------------------|

Verse:
Repeat intro 8 times.

Chorus:
G#|-----------------------------------------------------------------------------|x2
D#|-7--------7-7--5-5-5---------------------------------------------------------|
A#|-------0---------------------------------------------------------------------|
F|------------------------------------------------------------------------------|

G#|------6----------------------------------------------------------------------|x2
D#|-7-------7-5-7----5----------------------------------------------------------|
A#|-----------------------------------------------------------------------------|
F|------------------------------------------------------------------------------|

G#|-------6------6--7----9----------6-------------------------------------------|x2
D#|-7-------7-----------------7-------7--5--7----5------------------------------|
A#|-----------------------------------------------------------------------------|
F|------------------------------------------------------------------------------|

Ending on 7 6 7 5 7 5

Repeat Verse 8 times.

Solo:
Repeat verse 12 times.

Repeat verse 8 times.

Chorus:
Repeat first part once.
Repeat second part 3 times.

G#|----------6-7-----------------------------------------------------------------| x3
D#|-7-5-7-8-------7-5------------------------------------------------------------|
A#|------------------------------------------------------------------------------|
F|-------------------------------------------------------------------------------|

G#|----------6-7----------------------------------------------------------------|
D#|-7-5-7-8---------------------------------------------------------------------|
A#|-----------------------------------------------------------------------------|
F|----------------0-3-----------------------------------------------------------|

Bass Solo:
G#|-----------------------------------------------------------------------------|
D#|-----------------------------------------------------------------------------|
A#|----------3--------------------4---------------------------------------------|
F|-5----3-5----5-0-3----5----3-5-----5-0-3--------------------------------------|

G#|-----------------------------------------------------------------------------|
D#|----------------------------------5------------------------------------------|
A#|---4---------------------4---------------------------------------------------|
F|-5-----5-3-5----3----5------5-3-5---------------------------------------------|

G#|----------6--7-------------------------------------------------------------|
D#|-7----5-7------------------------------5-----------------------------------|
A#|--------------------------------4-5-7--------------------------------------|
F|-----------------0-3----5----3-5--------------------------------------------|

G#|----6--7--9----7-------------------------------------------------------------|
D#|-7---------------------------------------------------------------------------|
A#|-----------------------------4-5-7----5----5---------------------------------|
F|--------------------0-3----5--------------0-----------------------------------|

G#|-----------------------------------------------------------------------------|
D#|-----------------------------------------------------------------------------|
A#|-7-5-4-0------0----4----0-4--5----4------------------------------------------|
F|-----------3------------------------------------------------------------------|

G#|-----------------6----7---9---7----7-----------------------------------------|
D#|-----------5-7---------------------------------------------------------------|
A#|-5----7----------------------------------------------------------------------|
F|------------------------------------------------------------------------------|

G#|-9--7--6---------------------------------------------------------------------|x3
D#|----------7----5-------------------------------------------------------------|
A#|---------------------7----5----4----0----------------------------------------|
F|----------------------------------------0---3---------------------------------|

Only include the 9 7 6 7 5 part once, leave it out for the rest.

G#|-----------------------------------------------------------------------------|
D#|-----------------------------------------------------------------------------|
A#|------4---------------------4-------4----4-----------------------------------|
F|-5--------5----3-0-3----5-------5---------------------------------------------|

G#|-------------------6----------6--7----9----7---------------------------------|
D#|----------5-7--------------7-------------------------------------------------|
A#|-5--7------------------------------------------------------------------------|
F|------------------------------------------------------------------------------|

G#|-9-7-6-----------------------------------------------------------------------|
D#|---------7----5--------------------------------------------------------------|
A#|-------------------7------5---5-4-0------------------------------------------|
F|--------------------------------------3-0-------------------------------------|

Repeat verse 16 times.

G#|-----------------------------------------------------------------------------|
D#|-----------------------------------------7-----------------------------------|
A#|-7---------------------------------------------------------------------------|
F|--0-0-0-0-0-0-0-0-0-0-0-0-0-0-0-0---------------------------------------------|

--

Track 6 - Paper Cuts

Tuning: Drop D# (D#, G#, C#, F#)

Intro:
F#|---------------------------------------------------------------------------|
C#|---------------------------------------------------------------------------|x4
G#|---------------------------------------------------------------------------|
D#|--1--1--1--1--1----1---1-1-1-----------------------------------------------|

Verse:
Repeat Intro 8 times.

Pre-Chorus:
F#|---------------------------------------------------------------------------|
C#|---------------------------------------------------------------------------|
G#|------------------7-7-7-7-7-7----------------------------------------------|
D#|-1-1-1--------0------------------------------------------------------------|

F#|---------------------------------------------------------------------------|
C#|---------------------------------------------------------------------------| x6
G#|-7-7-7-7-7-7-7-7--------7-7-7-7-7-7----------------------------------------|
D#|-------------------0-------------------------------------------------------|

F#|---------------------------------------------------------------------------|
C#|-7-7-7-7-7-7-7-7-----------------------------------------------------------|
G#|---------------------------------------------------------------------------|
D#|---------------------------------------------------------------------------|

F#|---------------------------------------------------------------------------|
C#|---------------------------------------------------------------------------| x4
G#|---------------------------------------------------------------------------|
D#|-2-3-3-4-4-5-5-6-7--6-6-6--------------------------------------------------|

Do not include the 7 6 6 6 part on the 4th time.

F#|---------------------------------------------------------------------------|
C#|---------------------------------------------------------------------------|
G#|---------------------------------------------------------------------------|
D#|-2-3-3-4-4-5-5-6----7-6-6-6----6-6-----------------------------------------|

F#|---------------------------------------------------------------------------|
C#|---------------------------------------------------------------------------|x3
G#|---------------------------------------------------------------------------|
D#|--4-3-3-3----3-3-3----7-6-6-6----6-6-6-------------------------------------|

Do not include the 7 6 6 6 6 6 6 part on the 3rd time.

Post-Chorus:
F#|---------------------------------------------------------------------------|
C#|---------------------------------------------------------------------------|
G#|---------------------------------------------------------------------------|
D#|-2-2-2-2-2-2-2-2------------12/--------------------------------------------|

Only include the 12/ part 2nd time around.

Repeat verse 8 times.
Repeat pre-chorus 7 times.

Chorus:
F#|---------------------------------------------------------------------------|
C#|---------------------------------------------------------------------------|x3
G#|---------------------------------------------------------------------------|
D#|-2-3-3-4-4-5-5-6----7-6-6-6------------------------------------------------|

F#|---------------------------------------------------------------------------|
C#|---------------------------------------------------------------------------|
G#|---------------------------------------------------------------------------|
D#|-2-3-3-4-4-5-5-6----7-6-6-6----6-6-----------------------------------------|

Repeat the last riff of the pre-chorus 4 times ending on the 4 3 3 3 3 3 3
Repeat post-chorus twice for outro.

--

Track 7 - Negative Creep

Tuning: Drop D (D, A, D, G)

Intro:
G|---------------------------------------------------------------------------|
D|---------------------------------------------------------------------------|x5
A|---------------------------------------------------------------------------|
D|-0-0-0-0-0-0-0-12----------------------------------------------------------|

Verse:
G|---------------------------------------------------------------------------|
D|---------------------------------------------------------------------------|x14
A|---------------------------------------------------------------------------|
D|-0-0-0-0-0-0-0-12--------0-0-0-0-------------------------------------------|

Only include the 0 0 0 0 on the 4th time.

G|---------------------------------------------------------------------------|
D|---------------------------------------------------------------------------|x5
A|-----------------------------7-7-7-7---------------------------------------|
D|-0-0-0-0-0-0-0-0-0-0-0-0-0-------------------------------------------------|

Chorus:
G|---------------------------------------------------------------------------|x8
D|---------------------------------------------------------------------------|
A|-7-7-5--------------------------5--8-8-8-5---------------------------------|
D|----------4--4--4-4------7--7---------------7------------------------------|

Repeat verse.
Repeat chorus.
Repeat verse.
Repeat chorus.

End on open on D string.

--
Track 8 - Swap Meet

Tuning: Drop #D (#D, #G, #C, #F)

Intro/Verse
#F|---------------------------------------------------------------------------------|
#C|---------------------------------------------------------------------------| x20-|
#G|------5-------4------------------------------------------------------------------|
#D|-0-4-----0-4-----4-0-------------------------------------------------------------|

Chorus:
#F|-----------------------------------------------------------------------------|
#C|-----------------------------------------------------------------------------|
#G|--------------3-----3-3-3-3-3-3-3--------------------------------------------|
#D|-5--5---5-5------------------------------------------------------------------|

#F|-----------------------------------------------------------------------------|
#C|-----------------------------------------------------------------------------|
#G|---------------------------0-------------------------------------------------|
#D|-0----3-2-1-0---1-3-----------0-3-2-1-0-1-0----------------------------------|

Repeat 5 times.

#F|-----------------------------------------------------------------------------|
#C|-----------------------------------------------------------------------------|
#G|-----------------------------------------------------------------------------|
#D|-3-3---2-2-------1-1-1-1-----1/12\0------------------------------------------|

Repeat verse.
Repeat chorus.

Solo:
Repeat verse 8 times.

Post-Solo:
Repeat verse 20 times.

Repeat chorus 6 times.

--

Track 9 - Scoff

Tuning: Standard

Intro/Verse:
G|---------------------------------------------------------------------------|
D|---------------------------------------------------------------------------|x16
A|---------------------------------------------------------------------------|
E|-2--2--1--0--2--2--1-------------------------------------------------------|

Pre-Chorus:

G|---------------------------------------------------------------------------|
D|---------------------------------------------------------------------------| x7
A|-------3-0--------3-0------------------------------------------------------|
E|-2--2-------2--2-----------------------------------------------------------|

G|---------------------------------------------------------------------------|
D|---------------------------------------------------------------------------|x8
A|---------------------------3----3-3-------5-5-5----------------------------|
E|-2--3-3--4-4--5-5--x-----------------4------------0--5-5-5--0--------------|

The 2 33 44 55 is the build up to the chorus.

G|---------------------------------------------------------------------------|
D|---------------------------------------------------------------------------| x3
A|--7--7--6--0---------------------------------------------------------------|
E|---------------------------------------------------------------------------|

G|------------------------------------------------------------------------------|
D|------------------------------------------------------------------------------|
A|--7--7--6--0------------------------------------------------------------------|
E|--------------8/--------------------------------------------------------------|

Repeat verse 12 times.
Repeat pre-chorus 7 times.
Repeat chorus 8 times. (Including the build-up but not counted as "times.")
Repeat post-chorus 4 times.

Solo:
Repeat verse 20 times.

Repeat verse 8 times.
Repeat pre-chorus 7 times.
Repeat chorus 8 times. (Same scenario.)
Repeat post-chorus 8 times.

--

Track 10 - Mr Moustache

Tuning: Standard

Intro/Verse:
G|---------------------------------------------------------------------------|x40
D|---------------------------------------------------------------------------|
A|----2----------------------------------------------------------------------|
E|-3----3--2--1--0--1--2-----------------------------------------------------|

Chorus:
G|---------------------------------------------------------------------------|
D|---------------------------------------------------------------------------| x2
A|-2--0--3----3-3-3----------------------2--0--3----3-3-3--------------------|
E|---------------------3-3-3-3-3-2-1-0----------------------3-3-3-3-3--------|

G|---------------------------------------------------------------------------|
D|---------------------------------------------------------------------------|
A|---------------------------------------------------------------------------|
E|--5--5--0-----4--3--0-----5--5--5-----4--3--0------------------------------|

G|---------------------------------------------------------------------------|
D|---------------------------------------------------------------------------|
A|--3-----3--3-----3--3/6-6-6-6-6-6-6-6--------------------------------------|
E|---------------------------------------------------------------------------|

Repeat twice.
Repeat verse.
Repeat chorus.
Repeat verse 10 times.

G|---------------------------------------------------------------------------|
D|---------------------------------------------------------------------------| x3
A|-------2-------------------------------------------------------------------|
E|-3----------3-----2------1-----0----2----3---------------------------------|

G|---------------------------------------------------------------------------|
D|---------------------------------------------------------------------------|
A|-----------2---------------------------------------------------------------|
E|-3--------------------3----------2----------1---------0-------1-----2------|

G|---------------------------------------------------------------------------|
D|---------------------------------------------------------------------------|
A|---------------------------------------------------------------------------|
E|-3-------------------------------------------------------------------------|

--

Track 11 - Sifting

Tuning: Standard

Intro:
G|---------------------------------------------------------------------------|x4
D|---------------------------------------------------------------------------|
A|---------------------------------------------------------------------------|
E|--0---0---0---0------------------------------------------------------------|


G|---------------------------------------------------------------------------|
D|---------------------------------------------------------------------------| x4
A|--------------3-----------------2--1--0------------------------------------|
E|--0---0---0---------0---0---0----------------------------------------------|

Verse:
Repeat Intro Part 2 8 times.

Pre-Chorus:
G|---------------------------------------------------------------------------|
D|---------------------------------------------------------------------------| x8
A|--------------5------------------------------------------------------------|
E|--0---0---0----------------------------------------------------------------|

Chorus:
G|---------------------------------------------------------------------------|
D|---------------------------------------------------------------------------|x7
A|--0---0---0--3---3--3------------------------------------------------------|
E|-----------------------5^5-4^4-3^3-2^2-------------------------------------|

Only play the last bit at the end.

Repeat Verse.
Repeat Pre-Chorus.
Repeat Chorus.

Solo:
G|---------------------------------------------------------------------------|
D|---------------------------------------------------------------------------| x27
A|---------------------------------------------------------------------------|
E|-0--0--0--0----------------------------------------------------------------|

G|---------------------------------------------------------------------------|
D|---------------------------------------------------------------------------|x8
A|-------------3-------------------------------------------------------------|
E|-0--0--0--0----------------------------------------------------------------|

Repeat chorus.

--

Track 12 - Big Cheese

Tuning: Standard

Intro:
G|-------------------------------------------------------------------------------|
D|--10-----9---------------------------------------------------------------------| x4
A|-------------------------------------------------------------------------------|
E|-------------------------------------------------------------------------------|

Intro Continued/Verse
G|---------------------------------------------------------------------------|
D|---------------------------------------------------------------------------|x11
A|-----3-----------2---------------------------------------------------------|
E|---------------------------------------------------------------------------|

Chorus:
G|---------------------------------------------------------------------------|
D|---------------------------------------------------------------------------| x2
A|---------------------------------------------------------------------------|
E|--2-----2-------2---2-----2------2--2--2---3-------3----0------------------|

G|---------------------------------------------------------------------------|x2
D|--4--4--4--4--4--4--4--4--4--4--4--4--5--5--2------------------------------|
A|---------------------------------------------------------------------------|
E|---------------------------------------------------------------------------|

Repeat Verse 8 times.
Repeat Chorus.

Solo:
G|---------------------------------------------------------------------------|
D|-----------5---------------------------------------------------------------|x12
A|--2------------6---------5---3---0-----------------------------------------|
E|---------------------------------------------------------------------------|

Repeat Verse 8 times.
Repeat Chorus.
Repeat Solo Part.
Repeat first part of Chorus 8 times.
Repeat second part of Chorus 8 times.
Repeat Solo Part.

G|---------------------------------------------------------------------------|
D|---------------------------------------------------------------------------| x6
A|---------------------------------------------------------------------------|
E|-7-7-7-7-7-7-7-7-----------------------------------------------------------|

End on ringing 7.

--

Track 13 - Downer

Tuning: Drop D#

Intro/Verse:
F#|---------------------------------------------------------------------------| x17
C#|---------------------------------------------------------------------------|
G#|-----------------3--3--3---------------------------------------------------|
D#|-0--0--0--0--0-------------------------------------------------------------|

Chorus:
F#-------------------------------------------------------------------------------|
C#|------------------------------------------------------------------------------| x8
G#|------------------------------------------------------------------------------|
D#|-5------5--6--7------6--------------------------------------------------------|

Repeat Intro/Verse 4 times.

Interlude:
F#-------------------------------------------------------------------------------|
C#|------------------------------------------------------------------------------| x2
G#|------------------------------------------------------------------------------|
D#|-5----------6---------6-----------7----8-8-8-8-8-8-8-8------------------------|

Repeat Verse 16 times.
Repeat Chorus 5 times.
Repeat Verse 4 times.
Repeat Interlude twice.
Repeat Verse 8 times.

End on open E string.

==

The End.
Any questions or comments? twistedjayy@live.com
comments
We did not receive enough feedback on this tab! Please rate:
print report bad tab
1 2 3 4 5
I want to post or [tab]
guest
You may want to rate the tab now too:
select rating
Please do not post tabs as comments. Select "correction" instead!