Oops, an error
Loading. Please wait.

Bleach Tab

ver2
ver2

Album

More versions @911Tabs.com
52,712 views 117 this week
7 commentsread comments
1 2 3 4 5
excellent!
x 9
Autoscroll
+/-
esc
set tempo
stop
Hey! There's an official Ultimate Guitar app which is ideal
for learning songs when you're away from computer. Get the app
WARNING: You are trying to view
                                    content from Ultimate-Guitar.com
                                    in an unauthorized application,
                                    which is prohibited.

                                    Please use an official Ultimate
                                    Guitar Tabs application for iPhone,
                                    iPad or Android to access legitimate
                                    chords, guitar, bass, and drum tabs
                                    from Ultimate-Guitar.com database.

                                    Type "ultimate guitar tabs" in Apple
                                    App Store's or Android Market's
                                    search to find the application.
Artist:nirvana
Album:bleach
Songs:Blew
      Floyd The Barber
      About A Girl
      School
      Love Buzz
      Paper Cuts
      Negative Creep
      Scoff
      Swap Meet
      Mr. Moustache
      Sifting
      Big Cheese
      Downer
Tabber:james silver
Email:tool_rockboy@msn.com

  key
~ vibrato
h hammer on
p pull off
\ slide down
/ slide up
^ (same as h/p)
b bend
r release
( bend
) release
_______________________________________________________________________

TUNINGS: (low to high)
Unless stated-(e a d g b e)
half step down-(eb ab db gb bb eb)
whole step down-(d g c f a d)
Drop-D-(just tune top string one step)

1.BLEW (whole step down and Drop D)
intro
e---------------------------------------------------------|
b---------------------------------------------------------|
g---------------------------------------------------------|
d-0-0-3-5-6--6-5--3-3-0-5--5--0-0-3-5-6--6-5--3-3-0-5--5--|
a-0-0-3-5-6--6-5--3-3-0-5--5--0-0-3-5-6--6-5--3-3-0-5--5--|
e-0-0-3-5-6--6-5--3-3-0-5--5--0-0-3-5-6--6-5--3-3-0-5--5--|

verse
e-------------------------------------------------------------|
b----------------------------------------6--------------6-----|
g----------------------------------------4--------------4-----|
d-0-3-5-5-5-5br5-5-3-3/5-5-3~~--5\3/5--5---5---5\3/5--5---5---|
a-------------------------------------------------------------|
e--------------------------------------------0--------------0-|

e--------------------------------------------------------------------------|
b----------------------------------------------------6---------------6-----|
g------------------)-(-------------------------------4---------------4-----|
d-----3--5--5--5--5--(5)--3--3/5--5--3-----5\3/5--5--5-----5\3/5--5--5-----|
a--5------------------------------------5----------------------------------|
e-------------------------------------------------------0---------------0--|

chorus
e-------------------------------------|
b-------------------------------------|
g-------------------------------------|
d--3--5--5--5--3--3-3--3--5--5--3--6--|
a--3--5--5--5--3--3-3--3--5--5--3--6--|
e--3--5--5--5--3--3-3--3--5--5--3--6--|
play that twice then
e-------------------------------------------------------------------------|
b----------------------------------2-2-2-2-2-2-2-2-2-2-2-2-2-2-2-2--------|
g----------------------------------2-2-2-2-2-2-2-2-2-2-2-2-2-2-2-2--------|
d--3--5--5--5--3--3-3--3--5--5--3--2-2-2-2-2-2-2-2-2-2-2-2-2-2-2-2--------|
a--3--5--5--5--3--3-3--3--5--5--3--0-0-0-0-0-0-0-0-0-0-0-0-0-0-0-0--------|
e--3--5--5--5--3--3-3--3--5--5--3-----------------------------------------|

solo
e--)---)(---------------------------------)---------)--------)---------------|
b-10--10--(10)--10--10--10--10--8--0--8--10--(10)--10~~10--10--10--10--8--0--|
g----------------------------------------------------------------------------|
d----------------------------------------------------------------------------|
a----------------------------------------------------------------------------|
e----------------------------------------------------------------------------|

e---------------------------------------------------------------------------|
b-----------------8--10--10/13--12~~-(12)--12/15--15--15/17--17--15---------|
g--8--10--8--10------------------------------------------------------15--15-|
d---------------------------------------------------------------------------|
a---------------------------------------------------------------------------|
e---------------------------------------------------------------------------|

e----------------------------------------------------------------------------|
b--18-(18)-18--18--18--18--18---(18)--18~~~~18~~~~18--16--16\15--15\13--15---|
g-----------------(18)----(18)--(18)-----------------------------------------|
d----------------------------------------------------------------------------|
a----------------------------------------------------------------------------|
e----------------------------------------------------------------------------|

e------------------------------------------------------------------------|
b--13^15^13^0--11/12--13--13~--11----------------------------------------|
g---------------------------------12\11--11--9-10--10--10--8--10-10-10-8-|
d------------------------------------------------------------------------|
a------------------------------------------------------------------------|
e------------------------------------------------------------------------|

e-------------------------------------------------------------------------|
b--------------------------------------------------------------11--11--11-|
g-----------------8--8--10--10--8----------------8--10--10--10------------|
d-10\8--0--8--10------------------10--8--10--10---------------------------|
a-------------------------------------------------------------------------|
e-------------------------------------------------------------------------|

e--------------------------|
b--11--11--11--11--11--11\-|
g--------------------------|
d--------------------------|
a--------------------------|
e--------------------------|

outro
e--------------------------------------|
b--------------------------------------|
g--------------------------------------|
d--0--3--5--6--6--0---0--3--5--6--6--0-|
a--0--3--5--6--6--0---0--3--5--6--6--0-|
e--0--3--5--6--6--0---0--3--5--6--6--0-|

play that 7 times
e------------------|
b------------------|
g------------------|
d--0--3--5--6--6/0-|
a--0--3--5--6--6/0-|
e--0--3--5--6--6/0-|

2.Floyd The Barber
Tune Down 1/2 a step
 intro/verse
e-----------------------------------------------------------------|
b-----------------------------------------------------------------|
g-----------------------------------------------------------------|
d--3--3--2-2-2-----3--3--2-2-2----3--3--2-2-2----3--3--2-2-2------|
a--3--3--2-2-2-----3--3--2-2-2----3--3--2-2-2----3--3--2-2-2------|
e--1--1--0-0-0-----1--1--0-0-0----1--1--0-0-0----1--1--0-0-0------|
         PM---           PM---          PM------------------------|

e------------------------------------------------------------------|
b------------------------------------------------------------------|
g------------------------------------------------------------------|
d--3--3--2-2-2-----3--3--2-2-2----3--3--2-2-2----3--3--2-2-2-------|
a--3--3--2-2-2-----3--3--2-2-2----3--3--2-2-2----3--3--2-2-2-------|
e--1--1--0-0-0-----1--1--0-0-0----1--1--0-0-0----1--1--0-0-0-------|
         PM---           PM---          PM-------------------------|

play that twice
 chorus
e-----------------------------------------------------------------|
b-----------------------------------------------------------------|
g--6--6--------5--5-------------6--6--------5--5------------------|
d--6--6--7--7--5--5--6--6-------6--6--7--7--5--5--6--6------------|
a--4--4--7--7--3--3--6--6-------4--4--7--7--3--3--6--6------------|
e--------5--5--------4--4-------------5--5--------4--4------------|

e-----------------------------------------------------------------|
b-----------------------------------------------------------------|
g--6--6--------5--5-------------6--6--------5--5------------------|
d--6--6--7--7--5--5--6--6-------6--6--7--7--5--5--6--6------------|
a--4--4--7--7--3--3--6--6-------4--4--7--7--3--3--6--6------------|
e--------5--5--------4--4-------------5--5--------4--4------------|


 solo
e------------------------------------------------------------------|
b------------------------------------------------------------------|
g------------------------------------------------------------------|
d------------------------------------------------------------------|
a---------------------0--1--3~~--3--1--0--1--3---------------------|
e--1~~--1--0--1--3-------------------------------------------------|


e------------------------------------------------------------------|
b------------------------------------------------------------------|
g------------------------------------------------------------------|
d------------------------------------------------------------------|
a-------------------------3/5--5/6--6/7--7-------------------------|
e--1~~--1-0-1--3--3--0---------------------------------------------|

3.About A Girl
main riff
e-0--0--3--3-3-3-0-0-0-3--3-3-3-|
b-0--0--0--0-0-0-0-0-0-0--0-0-0-|
g-x--x--0--0-0-0-x-x-x-0--0-0-0-|
d-2--2--0--0-0-0-2-2-2-0--0-0-0-|
a-2--2--2--2-2-2-2-2-2-2--2-2-2-|
e-0--0--3--3-3-3-0-0-0-3--3-3-3-|

e-----------------------------|
b-----------------------------|
g-6--6------------------------|
d-6--6--6--6--4-4--4--4-4-4-4-|
a-4--4--6--6--4-4--4--4-4-4---|
e-------4--4--2-2--2--2-2-2---|   x2
then
e-----------------------------|
b-----------------------------|
g--------9-9-9----------------|
d-2--2--/9-9-9-7-7--10-101010-|
a-2--2--/7-7-7-7-7--10-101010-|
e-0--0---------5-5--8--8-8-8--|

solo
e--------------------------------------|
b--------------------------------------|
g-----------------------------12----12-|
d---------5-7-7-7/9--9-9-9/12-12-12-12-|
a-----5-7------------------------------|
e-0------------------------------------|   x4

4.SCHOOL
intro
e------------------------------------------------------------|
b------------------------------------------------------------|
g------------------------------------------------------------|
d------------------------------------------------------------|
a------------------------------------------------------------|
e--0~~~~~----------0~~~~~~-----------------------------------|

verse
e-------------------------------------------------|
b-------------------------------------------------|
g-------------------------------------------------|
d-------------------------------------------------|
a-------------------------------------------------|
e--0----0--0--5b--0--0--5b--0--0--0--0--0--0--5b~-|

chorus
e---------------------------------------------------------------------------|
b----------------------------------------------------------------3--3--3--3-|
g--5----5----5-5--5---2--2--2---2---2--2-------------------------2--2--2--2-|
d--5----5----5-5--5---2--2--2---2---2--2--2---2--2---2--2--2--2--0--0--0--0-|
a--3----3----3-3--3---0--0--0---0---0--0--2---2--2---2--2--2--2--0--0--0--0-|
e-----------------------------------------0---0--0---0--0--0--0-------------|

e------------------------------------------|
b------------------------------------------|
g--5----5-5---5-5-5--2--2--2--2--2--2--2---|
d--5----5-5---5-5-5--2--2--2--2--2--2--2---|
a--3----3-3---3-3-3--0--0--0--0--0--0--0---|
e------------------------------------------|


bridge
e-----------------------------------|
b-------------------------13-13/----|
g-------------------12----12-12/----|
d-------------11--x-11--------------|
a-------------10--x-----------------|
e--0--0--0--------------------------|

solo
e---------------------------------------------------------------------------|
b--2b-2-2b-2--2-----------------------------------7-------------------------|
g--2b-2-2b-2--2--0------------2-0-2--2--0-2/7-7-7-7-7-9--11-----0-----------|
d-------------------2-0-2--------------------------------------/9---9^7^0---|
a---------------------------------------------------------------------------|
e-------------------------3/0-----------------------------------------------|

e---------------------------------------------------------------------------|
b---------------------------------------------------------------------------|
g--------2-2-2b-2-2-2~~~~~-----0-2-0-0-2--0--------------2---2/7-7-7-7-9-7--|
d--9^7^0------------------0-0---------------2-------2-5---5-----------------|
a-------------------------------------------------5-------------------------|
e---------------------------------------------5-0---------------------------|

e------------------------10-10-10p9p7----7-----------------------------------|
b--11-8---8h10-8h10--10---------------10---10-10-10p8------------------------|
g-------0---------------------------------------------9-7-7-9-7-7-9-9-9~~~~~-|
d----------------------------------------------------------------------------|
a----------------------------------------------------------------------------|
e----------------------------------------------------------------------------|

e---------------------------------------------------------------------------|
b---------------------------------------------------------------------------|
g--9-7-7-7\6-6-6\4-4--2-2p0-2~~~~~~~~~~~------------------------------------|
d---------------------------------------------------------------------------|
a---------------------------------------------------------------------------|
e------------------------------------------12-\\\---------------------------|

5.Love Buzz
 intro (bass tabbed for guitar)
e-------------------------------------------------------------------------|
b-------------------------------------------------------------------------|
g-------------------------------------------------------------------------|
d-------------------------------------------------------------------------|
a----------------4^5^4-----------------4^5^4---------------4^5^4----------|
e--5--x--3--5--6----------5--x--3--5--6---------5---3--5--6---------5-----|

e-------------------------------------------------------------------------|
b-------------------------------------------------------------------------|
g-------------------------------------------------------------------------|
d-------------------------------------------------------------------------|
a------------4^5^4--------------------------------------------------------|
e--3--5--6----------------------------------------------------------------|


e------------------------------------------------------------------------|
b--2-----------------2---------------2-2-2-----------------2-2-2---------|
g--2-----------------2---------------2-2-2-----------------2-2-2---------|
d--2-----------------2---------------2-2-2-----------------2-2-2---------|
a--0-----------------0---------------0-0-0-----------------0-0-0---------|
e------------------------------------------------------------------------|


e-----0--0--5^3^0-------------------------0--0--5^3^0---------------------|
b--2----------------5^3^0--------------2----------------5^3^0-------------|
g--2-----------------------4^2^0-------2------------------------4^2^0-----|
d--2-----------------------------------2----------------------------------|
a--0-----------------------------------0----------------------------------|
e-------------------------------------------------------------------------|

e-----0--0--5^3^0-------------------------0--0--5^3^0---------------------|
b--2----------------5^3^0--------------2----------------5^3^0-------------|
g--2-----------------------4^2^0-------2------------------------4^2^0-----|
d--2-----------------------------------2----------------------------------|
a--0-----------------------------------0----------------------------------|
e-------------------------------------------------------------------------|


e---------------------------------------------------------------------------|
b---------------------------------------------------------------------------|
g-------------6^7^6--------------6^7^6--------------6^7^6-------------6^7^6-|
d-7--5--7--8---------7--5--7--8---------7--5--7--8---------7--5--7--8-------|
a---------------------------------------------------------------------------|
e---------------------------------------------------------------------------|

e-----0--0--5^3^0-------------------------0--0--5^3^0-----------------------|
b--2----------------5^3^0--------------2----------------5^3^0---------------|
g--2-----------------------4^2^0-------2------------------------4^2^0-------|
d--2-----------------------------------2------------------------------------|
a--0-----------------------------------0------------------------------------|
e---------------------------------------------------------------------------|

e-----0--0--5^3^0-----------------------------------------------------------|
b--2----------------5^3^0--------------2------------------------------------|
g--2-----------------------4^2^0-------2------------------------------------|
d--2-----------------------------------2------------------------------------|
a--0-----------------------------------0------------------------------------|
e-------------------------------------------(5)/17--------------------------|

 chorus
e------------------------------------------------------------------------|
b--2-----------------2---------------2-2-2-2------------------2----------|
g--2-----------------2---------------2-2-2-2------------------2----------|
d--2-----------------2---------------2-2-2-2------------------2----------|
a--0-----------------0---------------0-0-0-0------------------0----------|
e------------------------------------------------------------------------|

 1st solo
e----------------------------)----------------------------------------------|
b--/8--8--7--7--7--7--5--7--7--7--7--7--7--5--5---------)--3--0-------------|
g------------------------------------------------7--7--5----------)-----)---|
d----------------------------------------------------------------7--7--7----|
a---------------------------------------------------------------------------|
e---------------------------------------------------------------------------|

e---------------------------------------------------------------------------|
b-----------------------------)---------------------------------------------|
g--9\7--6--5--0-----0-----5--7--7--6----------------------------------------|
d----------------0-----7--------------5--7---------------)------------------|
a----------------------7--------------------6--3--0--3--7~~--7--5--3--------|
e---------------------------------------------------------------------5--3--|

e---------------------------------------------------------------------------|
b------------------------------6/8--8/10--10\8------------------------------|
g-------------------2--4--4/5--5/7--7/-9---9\7------------------------------|
d-----------2--2/4----------------------------------------------------------|
a------)--------------------------------------------------------------------|
e--5--5--5------------------------------------------------------------------|

 2nd solo                                                 )
e----------------------------------12-12-12-12-12-12-12-12-12-12-12-12------|
b---------)-------------------13/--13-13-13-13-13-13-13-13-13-13-13-13------|
g-----5--7--7--5------------------------------------------------------------|
d--7--------------7--5--7--7------------------------------------------------|
a---------------------------------------------------------------------------|
e---------------------------------------------------------------------------|

e---------------------------------------------------------------------------|
b---------------------------------------------------------------------------|
g---------------------------------------------------------------------------|
d------------)--)-----------------------------------------9--9-10-10-10-12--|
a--3--5--3--5--5--5--------------------0--0------5--7--7--9--9-10-10-10-12--|
e--------------------3--3--2--0--2--3--------/7-----------------------------|

e---------------------------------------------------------------------------|
b--(3)----------------------------------------------------------------------|
g--(2)----------------------------------------------------------------------|
d------12-12-14-15-15-15-15-17\---------------------------------------------|
a------12-12-14-15-15-15-17-17\---------------------------------------------|
e---------------------------------------------------------------------------|

e---------------------------------------------------------------------------|
b--2--2-2-2-2-2-2-2-2-2-2-2-2-2-2-2-2--2------------------------------------|
g--2--2-2-2-2-2-2-2-2-2-2-2-2-2-2-2-2--2------------------------------------|
d--2--2-2-2-2-2-2-2-2-2-2-2-2-2-2-2-2--2------------------------------------|
a--0--0-0-0-0-0-0-0-0-0-0-0-0-0-0-0-0--0------------------------------------|
e---------------------------------------------------------------------------|

6.Paper Cuts
Intro
A|-2-2-2-2-2-2--2--2-2-2--X\\\\\\\\-----|
E|-1-1-1-1-1-1--1--1-1-1--X\\\\\\\\\----|
 Pm-------------------------------------| ^ turn flanger on for pik scrape

Intro 2
A|-2-2-2-2-2-2--2--2-2-2--X\\\\\\\\----|
E|-1-1-1-1-1-1--1--1-1-1--X\\\\\\\\\---|
 Pm------------------------------------|

Intro 2 (cont.)
E|------------------------------------0-----|
B|---------------------------------0--------|
G|-----------------------------0------------|
D|------------------------------------------|
A|-2-2-2-2-2-2--2--2-2-2--------------------|
E|-1-1-1-1-1-1--1--1-1-1--------------------|
  Pm---------------------|  let ring--------|

Verse ("At feeding time....")
E|--------------------------------0------0------|
B|-----------------------------0----------------|
G|-------------------------3---------3----------|
D|----------------------------------------------|
A|-2-2-2-2-2-2--2--2-2-2------------------------|
E|-1-1-1-1-1-1--1--1-1-1------------------------|
  Pm--------------------|let ring---------------|

Fill 1 (Just after "A good hosing down...")
A|-2-2-2-2-2-2--2--2-2-2----------------|
E|-1-1-1-1-1-1--1--1-1-1--(feedback)----|
 pm-------------------------------------|

Pre-Chorus (let all notes ring)
E|---------0----0------0-----------0--------0-----------0--|
B|-----0---0----0------0--------0----------0---------------|
G|------------------3---------3--------------------3-------|
D|---------------------------------------------------------|
A|-2-------------------------------------------------------|

Pre-Chorus (cont.)
E|-----------0-------0---------------0----------0----------------------|
B|-----------0-------0---------0------------0----------------0---------|
G|------3------------------3-------------3----------3---3--------------|
D|---------------------------------------------------------------------|
A|---------------------------------------------------------------------|
E|-0-------------------------------------------------------------------|

Pre-Chorus (cont.)
E|--------0------------------0------------0-------------0------------|
B|-----0---------------------0---0----0---0-------------0-------0----|
G|--3------------------------------------------3-----------3---------|
D|-------------------------------------------------------------------|
A|-------------------------------------------------------------------|
E|-------------0-----------------------------------------------------|

Pre-Chorus (cont.)
E|------------0----------------------------------------0-----------0------|
B|------------0---------------------------0------0---------------0--------|
G|------------1--------------3----1------------------------------------1--|
D|------------------------------------------------------------------------|
A|------------------------------------------------------------------------|
E|-0------0---------------------------------------------------------------|

Pre-Chorus (cont.)
E|----------0-------------0------------------0------------0-----------|
B|----------0---------------------------0---------0-------------------|
G|----------1---------3-------3--------------------------------3------|
D|--------------------------------------------------------------------|
A|--------------------------------------------------------------------|
E|-0----0-------------------------------------------------------------|

Pre-Chorus (cont.)
E|------------0-----------0---0----------------0---------0---0------|
B|------------0-----------0---0----------------0---------0---0------|
G|------------------------------------------------------------------|
D|------------------------------------------------------------------|
A|------------------------------------------------------------------|
E|-0-----0--------------------------0-----0-------------------------|

Chorus ("Ow..............")
E|----------------------------------0--0---0--------|
B|----------------------------------0--0---0--------|
G|--------------------------4\3--3--3--3---3--------|
D|-3--4--4--5--5--6--6------4\3--3--3--3---3--------|
A|-3--4--4--5--5--6--6------2\1--1--1--1---1--------|
E|-1--2--2--3--3--4--4--0---------------------0-----|
  Pm------------------------------------------------|

Post-Chorus ("Nirvana, nirvana, nirvana...")
E|-------------0--0-------------------0--0----------|-%-|
B|-------------0--0-------------------0--0----------|-%-|
G|-------------0--0--------3--4\3--3--3--3--3--3----|-%-|
D|--6\5--5--5--5--5--5--5--3--4\3--3--3--3--3--3----|-%-|
A|--6\5--5--5--5--5--5--5--1--2\1--1--1--1--1--1----|-%-|
E|--4\3--3--3--3--3--3--3-------------------------0-|-%-|
                    Pm---|

Post-Chorus (cont.)
E|----------0--0-------------|
B|----------0--0-------------|
G|----------0--0-------------|
D|--6\5--5--5--5--5--5-------|
A|--6\5--5--5--5--5--5-------|
E|--4\3--3--3--3--3--3--0----|
                 Pm---|

Fill 2
E|----------------3---|-%-|
B|----------------3---|-%-|
G|--------------------|-%-|
D|--------------------|-%-|
A|-3-3-3-3-3-3-3--3---|-%-|
E|-1-1-1-1-1-1-1--1---|-%-|

Outro
E|-------------------0--0----------------0---------------------|
B|-------------------0--0----------------0---------------------|
G|--------4\3--3--3--3--3--3-------------0---------------------|
D|--------4\3--3--3--3--3--3-------6--5--5--5--5--5--5--5------|
A|--------2\1--1--1--1--1--1-------6--5--5--5--5--5--5--5------|
E|--2--1----------------------0----4--3--3--3--3--3--3--3--0---|

Outro 2
G|---------4------4------------4---------4--------------------|
D|--4-4-4-4-4-4-4-4--------4-4-4-4-4-4-4-4--------------------|
A|--4-4-4-4-4-4-4-4--------4-4-4-4-4-4-4-4--------------------|
E|--2-2-2-2-2-2-2-2--------2-2-2-2-2-2-2-2--------(feedback)--|

7.NEGATIVE CREEP (drop-d)
main riff
e----------------------------------------------------------------------------|
b----------------------------------------------------------------------------|
g----------------------------------------------------------------------------|
d----------------------------------------------------------------------------|
a--0-0-0-0-12/0-0-0-0/12-0-0-0-0-12/0-0-0-0/12-0-0-0-0-12/0-0-0-0/12---------|
e--0-0-0-0-12/0-0-0-0/12-0-0-0-0-12/0-0-0-0/12-0-0-0-0-12/0-0-0-0/12---------|
pm. . .    . . . .    . . . .    . . . .    . . . .    . . . .    . . . .

Verse
e----------------------------------------------------------------------------|
b----------------------------------------------------------------------------|
g----------------------------------------------------------------------------|
d--0-0-0-0-12/0-0-0-0/12-0-0-0-0-12/0-0-0-0/12-0-0-0-0-12/0-0-0-0/12-0-------|
a--0-0-0-0-12/0-0-0-0/12-0-0-0-0-12/0-0-0-0/12-0-0-0-0-12/0-0-0-0/12-0-------|
e--0-0-0-0-12/0-0-0-0/12-0-0-0-0-12/0-0-0-0/12-0-0-0-0-12/0-0-0-0/12-0-7^----|
pm. . .    . . . .    . . . .    . . . .    . . . .    . . . .    . . . .    .

chorus
e
b-------------------------------------------------|
g-------------------------------------------------|
d-7--3-4-4-4--2-----------7--5-4-4-4--2-----------|
a-5--3-4-4-4--0-3-6-6-3-0-5--3-4-4-4--0-3-6-6-3-0-|
e------4-4-4-------------------4-4-4--------------|

8.Scoff
 intro/verse
e---------------------------------------------------------------------------|
b---------------------------------------------------------------------------|
g---------------------------------------------------------------------------|
d---------------------------------------------------------------------------|
a--4--4--3--2--4--4--3---4--4--3--2--4--4--3--------------------------------|
e--2--2--1--0--2--2--1---2--2--1--0--2--2--1--------------------------------|


e---------------------------------------------------------------------------|
b---------------------------------------------------------------------------|
g---------------------------------------------------------------------------|
d---------------------------------------------------------------------------|
a--4--4--3--0---4--4--3--0---4--4--3--0---4--4--3--0---4--4--3--0-----------|
e--2--2---------2--2---------2--2---------2--2---------2--2-----------------|

e---------------------------------------------------------------------------|
b---------------------------------------------------------------------------|
g---------------------------------------------------------------------------|
d---------------------------------------------------------------------------|
a--4--4--3--0---4--4--3--0---4--4--3--0---4--4--3--0---4--4--3--0-----------|
e--2--2---------2--2---------2--2---------2--2---------2--2-----------------|

e----------------------------------------------------------------------------|
b----------------------------------------------------------------------------|
g----------------------------------------------------------------------------|
d----------------------------------------------------------------------------|
a--4--4--3--0---4--4--3--0---4--4--3--0---4--4--3--0---4--4--5--5--6--6--7-7-|
e--2--2---------2--2---------2--2---------2--2---------2--2--3--3--4--4--5-5-|

e---------------------------------------------------------------------------|
b---------------------------------------------------------------------------|
g--5--5--5-5-5--7--7-7-7----------------------------------------------------|
d--5--5--5-5-5--7--7-7-7----------------------------------------------------|
a--3--3--3-3-3--5--5-5-5----------------------------------------------------|
e--------------------------5--6--5--3---------------------------------------|


e---------------------------------------------------------------------------|
b---------------------------------------------------------------------------|
g---------------------------------------------------------------------------|
d--9--9--8--7--9--9--8---9--9--8--7--9--9--8---9--9--8--7--9--9--8----------|
a--7--7--6--5--7--7--6---7--7--6--5--7--7--6---7--7--6--5--7--7--6----------|
e---------------------------------------------------------------------------|

e---------------------------------------------------------------------------|
b---------------------------------------------------------------------------|
g---------------------------------------------------------------------------|
d--9--9--8--7---------------------------------------------------------------|
a--7--7--6--5---------------------------------------------------------------|
e--------------12\----------------------------------------------------------|

 solo
e-----------5------------5------------5------------5-------------------------|
b-----------5------------5------------5------------5-------------------------|
g---------5------------5------------5------------5---------------------------|
d----------------------------------------------------------------------------|
a-----3------------3------------3------------3-------------------------------|
e--2------------2------------2------------2----------------------------------|

e----------------------------------------------------------------------------|
b----------------------------------------------------------------------------|
g--7-6-7-6-7-6-7/9-9-8-9-8-9-8-9/11-11---------------------------------------|
d--7-6-7-6-7-6-7/9-9-8-9-8-9-8-9/11-11---------------------------------------|
a----------------------------------------------------------------------------|
e----------------------------------------------------------------------------|

e---------------------------------------------------------------------------|
b---------------------------------------------------------------------------|
g--7-6-7-6-7-6-7/9-9-8-9-8-9-8-9/11-11--------------------------------------|
d--7-6-7-6-7-6-7/9-9-8-9-8-9-8-9/11-11--------------------------------------|
a---------------------------------------------------------------------------|
e---------------------------------------------------------------------------|

10.Mr Moustache
 intro
e------------------------------------------------------------------|
b------------------------------------------------------------------|
g------------------------------------------------------------------|
d------------------------------------------------------------------|
a-----2-----------------------1------------------------------------|
e--3-----3--2--1--0--1--2--3-----3--2--1--0--1--2------------------|

play that 4 times, then
 verse
e------------------------------------------------------------|
b------------------------------------------------------------|
g--0--0---------------0--0---------------0--0----------------|
d--0--0---------------0--0---------------0--0----------------|
a--x--x---------------x--x---------------x--x----------------|
e--3--3--0--1--2--2---3--3--0--1--2--2---3--3--0--1--2--2----|
         PM--------         PM--------         PM------------|

 play that 3 times, then
e------------------------------------------------------|
b------------------------------------------------------|
g------------------------------------------------------|
d------------------------------------------------------|
a-----2-----------------------1------------------------|
e--3-----3--2--1--0--1--2--3-----3--2--1--0--1--2------|

e--------------------------------------------------------------|
b--------------------------------------------------------------|
g--------------------------------------------------------------|
d--------------------------------------------------------------|
a-----2-----------------------1--------------------------------|
e--3-----3--2--1--0--1--2--3-----3--2--1--0--1--2--------------|

e-----------------------------------------------------------|
b-----------------------------------------------------------|
g--0--0---------------0--0---------------0--0---------------|
d--0--0---------------0--0---------------0--0---------------|
a--x--x---------------x--x---------------x--x---------------|
e--3--3--0--1--2--2---3--3--0--1--2--2---3--3--0--1--2--2---|
         PM--------         PM--------         PM-----------|

e-----------------------------------------------------------|
b-----------------------------------------------------------|
g--0--0---------------0--0---------------0--0---------------|
d--0--0---------------0--0---------------0--0---------------|
a--x--x---------------x--x---------------x--x---------------|
e--3--3--0--1--2--2---3--3--0--1--2--2---3--3--0--1--2--2---|
         PM--------         PM--------         PM-----------|

 chorus
e--------------------------------------------------------------|
b--------5--5--5------------------------5--5--5----------------|
g--4--x--5--5--5------------------4--x--5--5--5----------------|
d--4--x--5--5--5---5-5-5-5-5-5-5--4--x--5--5--5---5-5-5-5-5----|
a--2--x--3--3--3---5-5-5-5-5-5-5--2--x--3--3--3---5-5-5-5-5----|
e------------------3-3-3-3-3-3-3------------------3-3-3-3-3----|

e---------------------------------------------------------------|
b--------5--5--5------------------------5--5--5-----------------|
g--4--x--5--5--5------------------4--x--5--5--5-----------------|
d--4--x--5--5--5---5-5-5-5-5-5-5--4--x--5--5--5---5-5-5-5-5-----|
a--2--x--3--3--3---5-5-5-5-5-5-5--2--x--3--3--3---5-5-5-5-5-----|
e------------------3-3-3-3-3-3-3------------------3-3-3-3-3-----|

e---------------------------------------------------------------|
b---------------------------------------------------------------|
g--------------------------------5-5-5-5-5/8-8-8-8-8-8-8-8------|
d--------------------------------5-5-5-5-5/8-8-8-8-8-8-8-8------|
a--5--7-7--5/7--7--7-7--5/7--7---3-3-3-3-3/6-6-6-6-6-6-6-6------|
e--3--5-5--3/5--5--5-5--3/5--5----------------------------------|

e---------------------------------------------------------------|
b---------------------------------------------------------------|
g--------------------------------5-5-5-5-5/8-8-8-8-8-8-8-8------|
d--------------------------------5-5-5-5-5/8-8-8-8-8-8-8-8------|
a--5--7-7--5/7--7--7-7--5/7--7---3-3-3-3-3/6-6-6-6-6-6-6-6------|
e--3--5-5--3/5--5--5-5--3/5--5----------------------------------|

11.Sifting

 intro
e----------------------------------------------------------------------------|
b----------------------------------------------------------------------------|
g----------------------------------------------------------------------------|
d----------------------------------------------------------------------------|
a----------------------------------------------------------------------------|
e--0--0--0--0----0--0--0--0----0--0--0--0----0--0--0--0----------------------|
   PM--------    PM--------    PM--------    PM------------------------------|


e----------------------------------------------------------------------------|
b----------------------------------------------------------------------------|
g----------------------------------------------------------------------------|
d-------------3--------------2--1--0-----------------3-----------------------|
a-------------3--------------2--1--0-----------------3-----------------------|
e--0--0--0--------0--0--0------------------0--0--0---------0--0--0--0--------|
   PM-----        PM-----                  PM-----         PM----------------|

e----------------------------------------------------------------------------|
b----------------------------------------------------------------------------|
g----------------------------------------------------------------------------|
d-------------3--------------2--1--0-----------------3-----------------------|
a-------------3--------------2--1--0-----------------3-----------------------|
e--0--0--0--------0--0--0------------------0--0--0---------0--0--0--0--------|
   PM-----        PM-----                  PM-----         PM----------------|

 verse
e----------------------------------------------------------------------------|
b----------------------------------------------------------------------------|
g----------------------------------------------------------------------------|
d-----------3------------2--1--0-------------3------------2--1--0------------|
a-----------3------------2--1--0-------------3------------2--1--0------------|
e--0--0--0-----0--0--0--------------0--0--0-----0--0--0----------------------|
   PM-----     PM-----              PM-----     PM---------------------------|

 then
e----------------------------------------------------------------------------|
b----------------------------------------------------------------------------|
g----------------------------------------------------------------------------|
d-------------5~~~~~\-------------5~~~~~\------------------------------------|
a-------------5~~~~~\-------------5~~~~~\------------------------------------|
e--0--0--0-------------0--0--0-----------------------------------------------|
   PM-----             PM----------------------------------------------------|

play that 4 times, then
 chorus
e---------------------------------------------------------------------------|
b---------------------------------------------------------------------------|
g--5--5-5--5-----------------------5--5-5--5--------------------------------|
d--5--5-5--5-0---)--)-----------0--5--5-5--5-0---)--)-----------0-----------|
a--3--3-3--3-0--7--7--7\5--5--5-0--3--3-3--3-0--7--7--7\5--5--5-0-----------|
e---------------5--5--5\3--3--3-----------------5--5--5\3--3--3-------------|

 play that 3 times, then
e---------------------------------------------------------------------------|
b---------------------------------------------------------------------------|
g--5--5-5--5-----------------------5--5-5--5----4---------------------------|
d--5--5-5--5-0---)--)-----------0--5--5-5--5-0--4---------------------------|
a--3--3-3--3-0--7--7--7\5--5--5-0--3--3-3--3-0--2---------------------------|
e---------------5--5--5\3--3--3---------------------------------------------|


 solo
e----------------------------------------------------------------------------|
b--------------)~~~----------------------------------------------------------|
g-------------11-------------------------------------------------------------|
d-----------------------------------)-12-(----------------------)~~~---------|
a---------------------------------12------12------------------12-------------|
e--0--0--0-------------0--0--0-------------------0--0--0---------------------|

e----------------------------------------------------------------------------|
b----------------------------------------------------------------------------|
g----------------------------------------------------------------------------|
d--------------)-12-(----------------)~~~--------------)-12-(----------------|
a------------12------12------------12----------------12------12--------------|
e--0--0--0---------------0--0--0-----------0--0--0---------------------------|


e---------------------------------------------------------------------------|
b---------------------------------------------------------------------------|
g---------------------------------------------------------------------------|
d--------------)-12-(-------------------)-12-(------------------------------|
a------------12------12---------------12------12----------------------------|
e--0--0--0------------------0--0--0------------------0--0--0----------------|

e----------------------------------------------------------------------------|
b----)-----------------------------------------------------------------------|
g--11---11-------------------------------------------------------------------|
d---------------12----------)--------12----)------------12---------)--12-----|
a-----------12-----(12)---12---(12)------12---(12)---12----(12)--12------12\-|
e----------------------------------------------------------------------------|

e---------------------------------------------------------------------------|
b----)---------------------------------------------------0---2--x-----------|
g--11---(11)--(11)\--0--2--3--4--5--6--7--9--9--9--7--0----2--------------0-|
d----------------------------------------------------------------2--2\0-----|
a---------------------------------------------------------------------------|
e---------------------------------------------------------------------------|

e---------------------------------------------------------------------------|
b--5--5--5---5--(5)\4--4\2--0------)--------------)---0--0------------------|
g--5--5--5---5--(5)\4--4-------1--2---(2)--2--2--2/3--0---------------------|
d---------------------------------------------------------------------------|
a---------------------------------------------------------------------------|
e---------------------------------------------------------------------------|

e--------)-----------------------------------)------------------------------|
b--12--14--14--12--0--------------------)--17-------0------------------)----|
g---------------------12--12--14--12--14---17---14--0--7--7--9--9----(9)----|
d------------------------------------------------------------------0--------|
a---------------------------------------------------------------------------|
e---------------------------------------------------------------------------|

e---------------------------------------------------------------------------|
b-------------)------------0------------------------------------------------|
g-----0--5--14--14--12--9--0--7--9--10--10--10\7--2-------------------------|
d--x-----5-----------------------------------------------)------------------|
a------------------------------------------------------12----(12)-----------|
e---------------------------------------------------------------------------|

e---------------------------------------------------------------------------|
b---------------------------------------------------------------------------|
g---------------------------------------------------------------------------|
d----)----------------)-------------12----------------------12--------------|
a--12---12--(12)----12---(12)---12------(12)--12--(12)--12------(12)--------|
e---------------------------------------------------------------------------|

e---------------------------------------------------------------------------|
b------------------------------------------------0--------------------------|
g------------------------------------------------0--------------------------|
d----)--12------------------)--------------------0--------------------------|
a--12-------(12)----------12------------------------------------------------|
e---------------------------------------------------------------------------|

12.Big Cheese
 intro
e-------------------------------------------------------|
b-------------------------------------------------------|
g-------------------------------------------------------|
d-------------------------------------------------------|
a-------------------------------------------------------|
e--8--\7------8--\7------8--\7------8--\7-----8--\7-----|

e-----------------------------------------------------------|
b---------------------------0------------------0------------|
g---------------------------0------------------0------------|
d-------------10--9-----------0---10--9----------0----------|
a-------------10--9---------------10--9---------------------|
e--8--\7-------8--7--7--7----------8--7--7--7---------------|
                     NH--                NH--

e--------------------------------------------------------|
b----------------0------------------0--------------------|
g----------------0------------------0--------------------|
d--10--9-----------0---10--9----------0------------------|
a--10--9---------------10--9-----------------------------|
e---8--7--7--7----------8--7--7--7-----------------------|
          NH--                NH--

 verse
e----------------------------------------------|
b----------------0------------------0----------|
g----------------0------------------0----------|
d--10--9-----------0---10--9----------0--------|
a--10--9---------------10--9-------------------|
e---8--7--7--7----------8--7--7--7-------------|
         NH--                NH--

play that 4 times, then
 chorus
e------------------------------------------------------------------|
a------------------------------------------------------------------|
d------------------------------------------------------------------|
g--4--4--4--4-4-4--4--4--4--5--5--4--4--4--4-4-4--4--4--4--5--5----|
b--4--4--4--4-4-4--4--4--4--5--5--4--4--4--4-4-4--4--4--4--5--5----|
e--2--2--2--2-2-2--2--2--2--3--3--2--2--2--2-2-2--2--2--2--3--3----|

 play that 2 times, then after the second time chorus is played,
e-------------------------------------------------|
b-------------------------------------------------|
g-----0------------------0------------------------|
d--4----1~~-0---------4----1~~-0------------------|
a--2-----------3--0---2-----------3--0------------|
e-------------------------------------------------|

 play that 2 times, then
e---------------------------------------------------------------|
b--12--12--13-13-13-13-10--12\10--10--12-12\10--10--7-----------|
g--11--11--12-12-12-12--9--11\-9---9--10-10\-9---9--6-----------|
d---9---9--10-10-10-10--7---9\-7---7---8--8\-7---7--4-----------|
a---------------------------------------------------------------|
e---------------------------------------------------------------|

 play that 3 times, then
e-------------------------------------------------------|
b--12--12--13-13-13-13-10--13-12-13-12-13-12-12-0-------|
g--11--11--12-12-12-12--9--12-11-12-11-12-11-11-0-------|
d---9---9--10-10-10-10--7--10--9-10--9-10--9--9---------|
a-------------------------------------------------------|
e-------------------------------------------------------|

 ending
e-----------------------------------------------------------|
b-----------------------------------------------------------|
g-----------------------------------------------------------|
d--9--9--9--9---9--9--9--9---9--9--9--9---9--9--9-----------|
a--9--9--9--9---9--9--9--9---9--9--9--9---9--9--9-----------|
e--7--7--7--7---7--7--7--7---7--7--7--7---7--7--7-----------|
   PM-----      PM-----      PM----       PM----------------|

 play that 4 times, and end with
e----------------------------------------------|
b----------------------------------------------|
g----------------------------------------------|
d--9\--8\-7\-6\--------------------------------|
a--9\--8\-7\-6\--------------------------------|
e--7\--6\-5\-4\--------------------------------|

13.Downer
 intro
e----------------------------------------------------------------|
b----------------------------------------------------------------|
g----------------------------------------------------------------|
d---------------5--5--5---------------5--5--5--------------------|
a---------------3--3--3---------------3--3--3--------------------|
e--0-0-0-0-0--------------0-0-0-0-0------------------------------|

e------------------------------------------------------------|
b------------------------------------------------------------|
g------------------------------------------------------------|
d---------------5--5--5---------------5--5--5----------------|
a---------------3--3--3---------------3--3--3----------------|
e--0-0-0-0-0--------------0-0-0-0-0--------------------------|

e-------------------------------------------------------|
b-------------------------------------------------------|
g-------------------------------------------------------|
d---------------5--5--5---------------5--5--5-----------|
a---------------3--3--3---------------3--3--3-----------|
e--0-0-0-0-0--------------0-0-0-0-0---------------------|

e----------------------------------------------------------------|
b----------------------------------------------------------------|
g----------------------------------------------------------------|
d----------------------------------------------------------------|
a--7-x-8-8-8-8-7-x-9-9-9-9--7-x-8-8-8-8-7-x-9-9-9-9--------------|
e--5-x-6-6-6-6-5-x-7-7-7-7--5-x-6-6-6-6-5-x-7-7-7-7--------------|


e----------------------------------------------------|
b----------------------------------------------------|
g----------------------------------------------------|
d---------------5--5--5---------------5--5--5--------|
a---------------3--3--3---------------3--3--3--------|
e--0-0-0-0-0--------------0-0-0-0-0------------------|

 play that 2 times, then
e-----------------------------------------------------------------------|
b-----------------------------------------------------------------------|
g-----------------------------------9--9--9--9-9-9--10-10-10-10-10-10---|
d--7--7--7--7-7-7--8--8--8--8-8-8---9--9--9--9-9-9--10-10-10-10-10-10---|
a--7--7--7--7-7-7--8--8--8--8-8-8---7--7--7--7-7-7---8--8--8--8--8--8---|
e--5--5--5--5-5-5--6--6--6--6-6-6---------------------------------------|

e------------------------------------------------------------------------|
b------------------------------------------------------------------------|
g-----------------------------------9--9--9--9-9-9--10-10-10-10-10-10----|
d--7--7--7--7-7-7--8--8--8--8-8-8---9--9--9--9-9-9--10-10-10-10-10-10----|
a--7--7--7--7-7-7--8--8--8--8-8-8---7--7--7--7-7-7---8--8--8--8--8--8----|
e--5--5--5--5-5-5--6--6--6--6-6-6----------------------------------------|

 outro
e--------------------------------------------------------------------------|
b--------------------------------------------------------------------------|
g--------------------------------------------------------------------------|
d--------------5-5----------------5-5--------------5-5--------------5-5----|
a--------------3-3----------------3-3--------------3-3--------------3-3----|
e--0-0-0-0-0----------0-0-0-0-0---------0-0-0-0-0--------0-0-0-0-0---------|
   PM-------          PM-------         PM-------        PM----------------|

e---------------------------------------------|
b---------------------------------------------|
g---------------------------------------------|
d---------------------------------------------|
a---------------------------------------------|
e--0------------------------------------------|
comments
print report bad tab
7 comments total. Showing first comments.
+1 reply
_futurerockstar wrote on April 4 2006, 02:00 pm

thats pretty damn gd actually

+1 reply
str84ever wrote on August 24 2007, 04:52 pm

Where is swap meet?

0 reply
Rooster666 wrote on November 20 2007, 03:47 pm

you skipped track 9

I want to post or [tab]
guest
You may want to rate the tab now too:
select rating
Please do not post tabs as comments. Select "correction" instead!