Oops, an error
Loading. Please wait.

Incesticide Tab

ver2
ver2

Album

More versions @911Tabs.com
13,863 views 31 this week
2 commentsread comments
1 2 3 4 5
excellent!
x 5
add to favorites launch autoscroll
font size
0
reset
Autoscroll
+/-
esc
set tempo
stop
Contributor
Difficulty
intermediate
WARNING: You are trying to view
                                    content from Ultimate-Guitar.com
                                    in an unauthorized application,
                                    which is prohibited.

                                    Please use an official Ultimate
                                    Guitar Tabs application for iPhone,
                                    iPad or Android to access legitimate
                                    chords, guitar, bass, and drum tabs
                                    from Ultimate-Guitar.com database.

                                    Type "ultimate guitar tabs" in Apple
                                    App Store's or Android Market's
                                    search to find the application.
Dive
_____________________________________________________________________________

TUNING:

Normal tuning

INTRO
e----------------------------------------------------------------------------|
b----------------------------------------------------------------------------|
g------------------------/9-9-9-0--------------------------------------------|
d------------------2-2---/9-9-9-0--------------------------------------------|
a--4--0-4-4--0--4--2-2---/7-7-7-0--------------------------------------------|
e--2--0-2-2--0--2--0-0-------------------------------------------------------|

play that 3 times, then
e----------------------------------------------------------------------------|
b----------------------------------------------------------------------------|
g----------------------------------------------------------------------------|
d-------------------2-2---2/7------------------------------------------------|
a--4--0--4-4--0--4--2-2------------------------------------------------------|
e--2--0--2-2--0--2--0-0---------5\0------------------------------------------|

VERSE
e------------------------0--0------------------------------------------------|
b------------------------0--0------------------------------------------------|
g------------------------x--x------------------------------------------------|
d-----------2--(2)-------2--2------------------------------------------------|
a--------0---------------2--2------------------------------------------------|
e--2--2------------------0--0------------------------------------------------|

CHORUS
e--------------------------0--0----------------------0--0--0--0--------------|
b--------------------------0--0----------------------0--0--0--0--------------|
g--4----4-6----6-----------x--x----------------------x--x--x--x--------------|
d--4--0-4-6--0-6-5----5-2--2--2----------------------2--2--2--2--------------|
a--2--0-2-4--0-4-5--0-5-2--2--2--4--0-4-4--0--4-2-2--2--2--2--2--------------|
e----------------3--0-3-0--0--0--2--0-2-2--0--2-0-0--0--0--0--0--------------|

play that 2 times, then
e--------------------------0--0----------------------------------------------|
b--------------------------0--0----------------------------------------------|
g--4----4-6----6-----------x--x-----------------------/9-9-9-0---------------|
d--4--0-4-6--0-6-5----5-2--2--2-----------------------/9-9-9-0---------------|
a--2--0-2-4--0-4-5--0-5-2--2--2--4--0-4-4--0--4-2-2---/7-7-7-0---------------|
e----------------3--0-3-0--0--0--2--0-2-2--0--2-0-0--------------------------|

then
e----------------------------------------------------------------------------|
b----------------------------------------------------------------------------|
g------------------------/9-9-9-0--------------------------------------------|
d------------------2-2---/9-9-9-0--------------------------------------------|
a--4--0-4-4--0--4--2-2---/7-7-7-0--------------------------------------------|
e--2--0-2-2--0--2--0-0-------------------------------------------------------|

play that 2 times, then
e----------------------------------------------------------------------------|
b----------------------------------------------------------------------------|
g----------------------------------------------------------------------------|
d-------------------2-2---2/7------------------------------------------------|
a--4--0--4-4--0--4--2-2------------------------------------------------------|
e--2--0--2-2--0--2--0-0---------5\0------------------------------------------|

INTERLUDE
e--------------------------0--0--0--0----------------------------------------|
b--------------------------0--0--0--0----------------------------------------|
g--------------------------x--x--x--x----------------------------------------|
d-----------2--x--2-----2--2--2--2--2----------------------------------------|
a--------0--------------2----------------------------------------------------|
e--2--2--------------0--0----------------------------------------------------|
play that 4 times

SOLO
e----------------------------------------------------------------------------|
b----------------------------------------------------------------------------|
g----------------------------------------------------------------------------|
d--8--6--8-8--6--8-----------------------------------------------------------|
a-------------------7-7------------------------------------------------------|
e----------------------------------------------------------------------------|
play that 4 times

OUTRO
e----------------------------------------------------------------------------|
b----------------------------------------------------------------------------|
g------------------------/9--------------------------------------------------|
d------------------2-2---/9-------------------2-2--/-\-----------------------|
a--4--0--4-4--0--4-2-2---/7---4--0--4-4--0--4-2-2--/-\---4-------------------|
e--2--0--2-2--0--2-0-0--------2--0--2-2--0--2-0-0--------2-------------------|

_____________________________________________________________________________

Sliver
_____________________________________________________________________________

TUNING:

Normal tuning

BASS INTRO
g----------------------------------------------------------------------------|
d----------------------------------------------------------------------------|
a--3--3-3-----------3--3-0-----0-1--3--3-3---------3--1-0-----0-1------------|
e----------1--1-1-----------3---------------1--1-1---------3-----------------|

CHORUS
e----------------------------------------------------------------------------|
b----------------------------------------------------------------------------|
g----------0--5--5-5--0------------------------------------------------------|
d--7--7--7-0--5--5-5--0------------------------------------------------------|
a--7--7--7-0--3--3-3--0------------------------------------------------------|
e--5--5--5-------------------------------------------------------------------|
play that 8 times

VERSE
e----------------------------------------------------------------------------|
b----------------------------------------------------------------------------|
g--5--5-0-------0--5--0---------0--5--5-0--------0--5--0----------0--5--5-0--|
d--5--5-0--3--3-0--5--0--7--7-7-0--5--5-0--3-3-3-0--5--0--7--7-7--0--5--5-0--|
a--3--3-0--3--3-0--3--0--7--7-7-0--3--3-0--3-3-3-0--3--0--7--7-7--0--3--3-0--|
e----------1--1----------5--5-5------------1-1-1----------5--5-5-------------|


e----------------------------------------------------------------------------|
b----------------------------------------------------------------------------|
g--------0--5--0----------0--------------------------------------------------|
d--3-3-3-0--5--0--7--7-7--0--------------------------------------------------|
a--3-3-3-0--3--0--7--7-7--0--------------------------------------------------|
e--1-1-1----------5--5-5-----------------------------------------------------|
then play the chorus and then verse with distortion, then the chorus again,

then
e----------------------------------------------------------------------------|
b----------------------------------------------------------------------------|
g--5---------------------------5-5-5-------------------------5---------------|
d--5---------------------------5-5-5-------------------------5---------------|
a--3---------------------------3-3-3-------------------------3---------------|
e----------------------------------------------------------------------------|

END
e----------------------------------------------------------------------------|
b----------------------------------------------------------------------------|
g--5-------------------------------------------------------------------------|
d--5-------------------------------------------------------------------------|
a--3-------------------------------------------------------------------------|
e----------------------------------------------------------------------------|

_____________________________________________________________________________

Stain
_____________________________________________________________________________

TUNING:

Drop D tuning

INTRO
e----------------------------------------------------------------------------|
b----------------------------------------------------------------------------|
g----------------------------------------------------------------------------|
d--0-----1----2-2-x-2--2-0-1-2-2-x-2--2-0-1-2-2-x-2--2-0-1-2-2-x-2--2-0-1----|
a--0-----1----2-2-x-2--2-0-1-2-2-x-2--2-0-1-2-2-x-2--2-0-1-2-2-x-2--2-0-1----|
e--0-----1----2-2-x-2--2-0-1-2-2-x-2--2-0-1-2-2-x-2--2-0-1-2-2-x-2--2-0-1----|

VERSE
e----------------------------------------------------------------------------|
b----------------------------------------------------------------------------|
g----------------------------------------------------------------------------|
d--2-2-x-2--2-0-1------------------------------------------------------------|
a--2-2-x-2--2-0-1------------------------------------------------------------|
e--2-2-x-2--2-0-1------------------------------------------------------------|
play that 12 times, then

CHORUS
e----------------------------------------------------------------------------|
b--------------3-3-3-3-3-3-3-3-----------------------------------------------|
g--3--x--2--2--2-2-2-2-2-2-2-2-----------------------------------------------|
d--3--x--2--2--0-0-0-0-0-0-0-0-----------------------------------------------|
a--1--x--0--0--0-0-0-0-0-0-0-0-----------------------------------------------|
e--------------0-0-0-0-0-0-0-0-----------------------------------------------|

play that 3 times, then
e----------------------------------------------------------------------------|
b--------------3-3-3-3-------------------------------------------------------|
g--3--x--2--2--2-2-2-2-------------------------------------------------------|
d--3--x--2--2--0-0-0-0-------1-----------------------------------------------|
a--1--x--0--0--0-0-0-0-------1-----------------------------------------------|
e--------------0-0-0-0-------1-----------------------------------------------|

SOLO
e------------4--3-------------------4--3-------------4--3--3-----5--5--5--5--|
b---------5--------5-------------5--------5\------------------5--------------|
g--/4--3------------------4--3-----------------------------------------------|
d---------------------5------------------------5-----------------------------|
a-------------------------------------------------7--------------------------|
e----------------------------------------------------------------------------|

e--5--5\---------------------------------------------------------------------|
b----------------------------------------------------------------------------|
g----------------------------------------------------------------------------|
d----------------------------------------------------------------------------|
a----------------------------------------------------------------------------|
e----------------------------------------------------------------------------|

e---------4--3--------------4--4--3------10-10-12-12-12-10-12-12-12----------|
b---------------5\-------------------5\--------------------------------------|
g--3-----------------3-------------------------------------------------------|
d-----5-----------------5----------------------------------------------------|
a----------------------------------------------------------------------------|
e----------------------------------------------------------------------------|

e----------------------------------------------------------------------------|
b------------)-----)---------------------------------------------------------|
g--x--4--4--4--3--2-------4--4--4--3--2-------x--4--4--4--3--3--4\5----------|
d--------------------5-------------------5-----------------------------------|
a----------------------------------------------------------------------------|
e----------------------------------------------------------------------------|

e----------------------------------------------------------------------------|
b----------------------------------------------------------------------------|
g--8--7--8--9--9--9----x--4--4--4--3--3--------4--4--4--3--3-----------------|
d----------------------------------------5--x-----------------5--x-----------|
a----------------------------------------------------------------------------|
e----------------------------------------------------------------------------|


e--------------------------12------12--12------------------------------------|
b----------------------12------12--12--12------------------------------------|
g----4--4--4--3--3/12----------------------0---------------------------------|
d------------------------------------------0---------------------------------|
a----------------------------------------------------------------------------|
e----------------------------------------------------------------------------|

_____________________________________________________________________________

Been A Son
_____________________________________________________________________________

TUNING:

Drop D tuning

INTRO/VERSE
e----------------------------------------------------------------------------|
b--3--3------------3--3------------3--3------------3--3----------------------|
g--2--2------------2--2------------2--2------------2--2----------------------|
d--0--0------------0--0------------0--0------------0--0----------------------|
a--------3--2--0---------3--2--0---------3--2--0---------3--2--0-------------|
e----------------------------------------------------------------------------|

play that 3 times, then
e----------------------------------------------------------------------------|
b--3--3----------------------------------------------------------------------|
g--2--2----------------------------------------------------------------------|
d--0--0----------------------------------------------------------------------|
a--------3--2--0-------------------------------------------------------------|
e----------------------------------------------------------------------------|

CHORUS
e----------------------------------------------------------------------------|
b----------------------------------------------------------------------------|
g----------------------------------------------------------------------------|
d--5--5--5--3--3--2--2--2------------5--5--5--3--3--2--2--2------------------|
a--5--5--5--3--3--2--2--2--3--2--0---5--5--5--3--3--2--2--2--3--2--0---------|
e--5--5--5--3--3--2--2--2------------5--5--5--3--3--2--2--2------------------|
play that 2 times.

_____________________________________________________________________________

Turnaround
_____________________________________________________________________________

TUNING:

Normal tuning

INTRO/VERSE
e----------------------------------------------------------------------------|
b----------------------------)-----------------------------------------------|
g---------------------------7--7--7--7--7--(7)-------------------------------|
d----------------------------------------------------------------------------|
a----------------------------------------------------------------------------|
e--0--0--0--0--0--0--0--0----------------------------------------------------|
play that 5 times, then

CHORUS
e----------------------------------------------------------------------------|
b----------------------------------------------------------------------------|
g---7--7-----5--5--5---2---2--2--2---2--2--2--2------------------------------|
d---7--7-----5--5--5---2---2--2--2---2--2--2--2------------------------------|
a---5--5--0--3--3--3---0---0--0--0---0--0--0--0------------------------------|
e----------------------------------------------------------------------------|

e----------------------------------------------------------------------------|
b----------------------------------------------------------------------------|
g---7--7---5--5--5-----------------------------------2---2--2--2--2--2--2--2-|
d---7--7---5--5--5--5--5--5--5--5-----3--3--5--5--5--2---2--2--2--2--2--2--2-|
a---5--5---3--3--3--5--5--5--5--5-----3--3--5--5--5--0---0--0--0--0--0--0--0-|
e-------------------3--3--3--3--3--0--1--1--3--3--3--------------------------|

e----------------------------------------------------------------------------|
b----------------------------------------------------------------------------|
g--------------------7--7--7--7--7--7--7--7----------------------------------|
d--3--3--3--5--5--5--7--7--7--7--7--7--7--7----------------------------------|
a--3--3--3--5--5--5--5--5--5--5--5--5--5--5----------------------------------|
e--1--1--1--3--3--3----------------------------------------------------------|

e----------------------------------------------------------------------------|
b----------------------------------------------------------------------------|
g-----------------------5--5--5---5--5--5------------------------------------|
d--3--3--3--3--5--5--5--5--5--5---5--5--5------------------------------------|
a--3--3--3--3--5--5--5--3--3--3---3--3--3------------------------------------|
e--1--1--1--1--3--3--3-------------------------------------------------------|

then verse, then
e----------------------------------------------------------------------------|
b----------------------------------------------------------------------------|
g--7--7--5--5-----2--2--2--2--2--2--2----------------------------------------|
d--7--7--5--5-----2--2--2--2--2--2--2----------------------------------------|
a--5--5--3--3-----0--0--0--0--0--0--0----------------------------------------|
e----------------------------------------------------------------------------|

e----------------------------------------------------------------------------|
b----------------------------------------------------------------------------|
g--7--7--5--5----------------------------------------------------------------|
d--7--7--5--5-----5--5--5--5--5--5--5----------------------------------------|
a--5--5--3--3-----5--5--5--5--5--5--5----------------------------------------|
e-----------------3--3--3--3--3--3--3----------------------------------------|

e----------------------------------------------------------------------------|
b----------------------------------------------------------------------------|
g-----------------2--2--2--2--2--2--2----------------------------------------|
d--3--3--5--5-----2--2--2--2--2--2--2----------------------------------------|
a--3--3--5--5-----0--0--0--0--0--0--0----------------------------------------|
e--1--1--3--3----------------------------------------------------------------|

e----------------------------------------------------------------------------|
b----------------------------------------------------------------------------|
g-----------------7--7--7--7--7--7--7----------------------------------------|
d--3--3--5--5-----7--7--7--7--7--7--7----------------------------------------|
a--3--3--5--5-----5--5--5--5--5--5--5----------------------------------------|
e--1--1--3--3----------------------------------------------------------------|

e----------------------------------------------------------------------------|
b----------------------------------------------------------------------------|
g-----------------5--5--5--5--5--5--5----------------------------------------|
d--3--3--5--5-----5--5--5--5--5--5--5----------------------------------------|
a--3--3--5--5-----3--3--3--3--3--3--3----------------------------------------|
e--1--1--3--3----------------------------------------------------------------|

_____________________________________________________________________________

Molly's Lips
_____________________________________________________________________________

TUNING:

Normal tuning

INTRO
e----------------------------------------------------------------------------|
b----------------------------------------------------------------------------|
g-----------5--5--------------5--5--5--------------5--5--5-------------------|
d--5--5--0--5--5--0--5--5--0--5--5--5--0--5--5--0--5--5--5--0----------------|
a--5--5--0--3--3--0--5--5--0--3--3--3--0--5--5--0--3--3--3--0----------------|
e--3--3--------------3--3-----------------3--3-------------------------------|

e----------------------------------------------------------------------------|
b----------------------------------------------------------------------------|
g-----------5--5--5----------------------------------------------------------|
d--5--5--0--5--5--5--0-------------------------------------------------------|
a--5--5--0--3--3--3--0-------------------------------------------------------|
e--3--3----------------------------------------------------------------------|

rest of song
e----------------------------------------------------------------------------|
b----------------------------------------------------------------------------|
g-----------5--5--5--------------5--5--5-------------------------------------|
d--5--5--0--5--5--5--0--5--5--0--5--5--5--0----------------------------------|
a--5--5--0--3--3--3--0--5--5--0--3--3--3--0----------------------------------|
e--3--3-----------------3--3-------------------------------------------------|

END
e-------------3-----3--------------------------------------------------------|
b----------5-----5-----5\3---------------------------------------------------|
g----------------------------------------------------------------------------|
d--5\------------------------------------------------------------------------|
a--5\------------------------------------------------------------------------|
e--3\------------------------------------------------------------------------|

_____________________________________________________________________________

Son of A Gun
_____________________________________________________________________________

TUNING:

Normal tuning

INTRO
e----------------------------------------------------------------------------|
b--------------------3--2----------------------------------------------------|
g--2--2--------------2--2----------------------------------------------------|
d--2--2--0--2--2--0--0--0--0--2--2--2--0-------------------------------------|
a--0--0--0--2--2--0--------0--2--2--2--0-------------------------------------|
e-----------0--0--------------0--0--0----------------------------------------|

VERSE
e----------------------------------------------------------------------------|
b--------------------3--2----------------------------------------------------|
g--2--2--------------2--2----------------------------------------------------|
d--2--2--0--2--2--0--0--0--0--2--2--2--0-------------------------------------|
a--0--0--0--2--2--0--------0--2--2--2--0-------------------------------------|
e-----------0--0--------------0--0--0----------------------------------------|
play that 8 times, then

CHORUS
e----------------------------------------------------------------------------|
b----------------------------------------------------------------------------|
g-----------------------5--5--5--5--5--5--5--7--7--7--7--7--7--7-------------|
d--5--5--5--5--5--5--0--5--5--5--5--5--5--5--7--7--7--7--7--7--7-------------|
a--5--5--5--5--5--5--0--3--3--3--3--3--3--3--5--5--5--5--5--5--5-------------|
e--3--3--3--3--3--3----------------------------------------------------------|

e----------------------------------------------------------------------------|
b----------------------------------------------------------------------------|
g--5--5--5--5--5--5--5-------------------------------------------------------|
d--5--5--5--5--5--5--5-------------------------------------------------------|
a--3--3--3--3--3--3--3-------------------------------------------------------|
e----------------------------------------------------------------------------|

INTERLUDE
e----------------------------------------------------------------------------|
b----------------------------------------------------------------------------|
g-----------------------7--7--7--7--7--7--7----------------------------------|
d--5--5--5--5--5--5--0--7--7--7--7--7--7--7--0-------------------------------|
a--5--5--5--5--5--5--0--5--5--5--5--5--5--5--0-------------------------------|
e--3--3--3--3--3--3----------------------------------------------------------|

e----------------------------------------------------------------------------|
b----------------------------------------------------------------------------|
g-----------------------7--7--7--7--7--7--7----------------------------------|
d--5--5--5--5--5--5--0--7--7--7--7--7--7--7--0-------------------------------|
a--5--5--5--5--5--5--0--5--5--5--5--5--5--5--0-------------------------------|
e--3--3--3--3--3--3----------------------------------------------------------|

e----------------------------------------------------------------------------|
b----------------------------------------------------------------------------|
g-----------------------9--9--9--9--9--9--9----------------------------------|
d--7--7--7--7--7--7--0--9--9--9--9--9--9--9--0-------------------------------|
a--7--7--7--7--7--7--0--7--7--7--7--7--7--7--0-------------------------------|
e--5--5--5--5--5--5----------------------------------------------------------|
play that 2 times.

_____________________________________________________________________________

(New Wave) Polly
_____________________________________________________________________________

TUNING:

Normal tuning

INTRO/VERSE
e----------------------------------------------------------------------------|
b-----------------------3--3-------------------------------------------------|
g-----------------------2--2--x--5--5--5-------------------------------------|
d--2--x-----5--5--x--0--0--0--x--5--5--5--0----------------------------------|
a--2--x--0--5--5--x--0--------x--3--3--3--0----------------------------------|
e--0--x--0--3--3--x----------------------------------------------------------|
play that 6 times, then

CHORUS
e----------------------------------------------------------------------------|
b--3-----------------------------------3-------------------------------------|
g--2--x--5--5--5-----0--0-----3--3--3--2--x--5--5--5-----0--0-----3--3--3----|
d--0--x--5--5--5--0--0--0--x--3--3--3--0--x--5--5--5--0--0--0--x--3--3--3----|
a-----x--3--3--3--0--x--x--x--1--1--1-----x--3--3--3--0--x--x--x--1--1--1----|
e--------------------3--3--x-----------------------------3--3--x-------------|
play that 4 times

_____________________________________________________________________________

Beeswax
_____________________________________________________________________________

TUNING:

Normal tuning

INTRO
e----------------------------------------------------------------------------|
b----------------------------------------------------------------------------|
g------------------------------10\-6-----------------------------------------|
d------------------------------10\-6-----------------------------------------|
a--9\8--8--8--7--7--7\6--6\5------------9\8--8--8--7--7--7\6--6\5---1--(1)^--|
e--7\6--6--6--5--5--5\4--4\3------------7\6--6--6--5--5--5\4--4\3------------|

e----------------------------------------------------------------------------|
b------------------------------*------------------------------------*--------|
g----------------------------------*-----------------------------------------|
d----------------------------------------------------------------------------|
a--9\8--8--8--7--7--7\6--6\5-----------9\8--8--8--7--7--7\6--6\5-------------|
e--7\6--6--6--5--5--5\4--4\3-----------7\6--6--6--5--5--5\4--4\3-------------|

VERSE
e----------------------------------------------------------------------------|
b----------------------------------------------------------------------------|
g-------------------------------/10---------------------------------/8/9-----|
d-------------------------------/10---------------------------------/8/9-----|
a--9\8--8--8--7--7--7\6--6\5-----------9\8--8--8--7--7--7\6--6\5-------------|
e--7\6--6--6--5--5--5\4--4\3-----------7\6--6--6--5--5--5\4--4\3-------------|

e----------------------------------------------------------------------------|
b----------------------------------------------------------------------------|
g-------------------------------/7--------------------------------7--7--7----|
d-------------------------------/7--------------------------5--5--7--7--7--0-|
a--9\8--8--8--7--7--7\6--6\5----------9\8--8--8--7--7--7----5--5--5--5--5--0-|
e--7\6--6--6--5--5--5\4--4\3----------7\6--6--6--5--5--5/0--3--3-------------|

CHORUS
e----------------------------------------------------------------------------|
b----------------------------------------------------------------------------|
g----------------------------------------------------------------------------|
d--2----------------------------------2--------------------------------------|
a--2------/7-----------------4--------2------/7-----------5------------------|
e--0--3/------0--(0)--6---5-----3--0--0--3/------0--6--5-----3--0------------|


e--------------------------------------------------------0-------------------|
b--------------------------------------------------------0-------------------|
g--------------------------------------------------------0-------------------|
d--2--------------------------2--------------------------2-------------------|
a--2-----/7-------------------2-----/7-------------------2-------------------|
e--0--3------0--6--5--4--3/0--0--3------0--(0)--6--5--4--0-------------------|


BRIDGE
e----------------------------------------------------------------------------|
b--------------------------------------------------------------------)--)----|
g---------------------------)--)---------------------------2--2--2--2--2-----|
d--3--3--3--3--x--2--2--2--2--2--2--2----3--3--3--3--2--2--------------------|
a--3--3--3--3--x-------------------------3--3--3--3--------------------------|
e--1--1--1--1--x-------------------------1--1--1--1--------------------------|

e----------------------------------------------------------------------------|
b----------------------------------------------------------------------------|
g----------------------------------------------------------------------------|
d--3\1-----------------------------------------------------------------------|
a-------1--------------------------------------------------------------------|
e----------3--2--------------------------------------------------------------|

e----------------------------------------------------------------------------|
b---------------------)--)---------------------------------------------------|
g-----------------2--2--2--2------------------------------7--7--0------------|
d--3--3--3--3--x---------------3--3--3--3--2--------5--5--7--7--0------------|
a--3--3--3--3--x---------------3--3--3--3-----x--2--5--5--5--5--0------------|
e--1--1--1--1--x---------------1--1--1--1-----------3--3--------0------------|


_____________________________________________________________________________

Downer
_____________________________________________________________________________

TUNING:

Normal tuning

INTRO
e----------------------------------------------------------------------------|
b----------------------------------------------------------------------------|
g----------------------------------------------------------------------------|
d---------------5--5--5---------------5--5--5--------------------------------|
a---------------3--3--3---------------3--3--3--------------------------------|
e--0-0-0-0-0--------------0-0-0-0-0------------------------------------------|

play that 2 times, then after verse play
e----------------------------------------------------------------------------|
b----------------------------------------------------------------------------|
g----------------------------------------------------------------------------|
d---------------5--5--5---------------5--5--5--------------------------------|
a---------------3--3--3---------------3--3--3--------------------------------|
e--0-0-0-0-0--------------0-0-0-0-0------------------------------------------|

e----------------------------------------------------------------------------|
b----------------------------------------------------------------------------|
g----------------------------------------------------------------------------|
d---------------5--5--5---------------5--5--5--------------------------------|
a---------------3--3--3---------------3--3--3--------------------------------|
e--0-0-0-0-0--------------0-0-0-0-0------------------------------------------|

e----------------------------------------------------------------------------|
b----------------------------------------------------------------------------|
g----------------------------------------------------------------------------|
d----------------------------------------------------------------------------|
a--7-x-8-8-8-8-7-x-9-9-9-9--7-x-8-8-8-8-7-x-9-9-9-9--------------------------|
e--5-x-6-6-6-6-5-x-7-7-7-7--5-x-6-6-6-6-5-x-7-7-7-7--------------------------|

play that 2 times, then
e----------------------------------------------------------------------------|
b----------------------------------------------------------------------------|
g----------------------------------------------------------------------------|
d---------------5--5--5---------------5--5--5--------------------------------|
a---------------3--3--3---------------3--3--3--------------------------------|
e--0-0-0-0-0--------------0-0-0-0-0------------------------------------------|

play that 2 times, then
e----------------------------------------------------------------------------|
b----------------------------------------------------------------------------|
g-----------------------------------9--9--9--9-9-9--10-10-10-10-10-10--------|
d--7--7--7--7-7-7--8--8--8--8-8-8---9--9--9--9-9-9--10-10-10-10-10-10--------|
a--7--7--7--7-7-7--8--8--8--8-8-8---7--7--7--7-7-7---8--8--8--8--8--8--------|
e--5--5--5--5-5-5--6--6--6--6-6-6--------------------------------------------|

e----------------------------------------------------------------------------|
b----------------------------------------------------------------------------|
g-----------------------------------9--9--9--9-9-9--10-10-10-10-10-10--------|
d--7--7--7--7-7-7--8--8--8--8-8-8---9--9--9--9-9-9--10-10-10-10-10-10--------|
a--7--7--7--7-7-7--8--8--8--8-8-8---7--7--7--7-7-7---8--8--8--8--8--8--------|
e--5--5--5--5-5-5--6--6--6--6-6-6--------------------------------------------|

OUTRO
e----------------------------------------------------------------------------|
b----------------------------------------------------------------------------|
g----------------------------------------------------------------------------|
d--------------5-5----------------5-5--------------5-5--------------5-5------|
a--PM.......---3-3----PM.......---3-3---PM.......--3-3---PM.......--3-3------|
e--0-0-0-0-0----------0-0-0-0-0---------0-0-0-0-0--------0-0-0-0-0-----------|

e----------------------------------------------------------------------------|
b----------------------------------------------------------------------------|
g----------------------------------------------------------------------------|
d----------------------------------------------------------------------------|
a----------------------------------------------------------------------------|
e--0-------------------------------------------------------------------------|

_____________________________________________________________________________

Mexican Seafood
_____________________________________________________________________________

TUNING:

Tune down 1/2 a step

INTRO
e-----5----------------------------------------------------------------------|
b-----5--------0--0----------------------------------------------------------|
g--------0-------------------------------------------------------------------|
d----------------------------------------------------------------------------|
a--0-----------------4--4--4--5--4--5--4-------------------------------------|
e-----------3--------2--2--2---------------3--5--3---------------------------|

e-----5----------------------------------------------------------------------|
b-----5--0-----0--0----------------------------------------------------------|
g----------------------------------------------------------------------------|
d------------------------------)---------------------------------------------|
a--0-----------------4--4--4--5--5--4\0--------------------------------------|
e-----------3--------2--2--2-------------------------------------------------|

e-----5----------------------------------------------------------------------|
b-----5--------0-------------------------------------------------------------|
g--------0-------------------------------------------------------------------|
d--------0-------------------------------------------------------------------|
a--0-----------------4--4--4--4--5--4--4--2--0-------------------------------|
e-----------3--------2--2--2--2-----------------3--2--0----------------------|

e-----5----------------------------------------------------------------------|
b-----5--------0--0----------------------------------------------------------|
g----------------------------------------------------------------------------|
d---------------------------)------------------------------------------------|
a--0-----0-----------4--4--5--5--4--0----------------------------------------|
e-----------3--------2--2----------------------------------------------------|

VERSE
e----------------------------------------------------------------------------|
b----------------------------------------------------------------------------|
g----------------------------------------------------------------------------|
d--2--2-----------2--2-----------2-------------------------------------------|
a--1-----0--1--0--1-----0--1--0--1-------------------------------------------|
e-----------------------------------3----------------------------------------|

e----------------------------------------------------------------------------|
b----------------------------------------------------------------------------|
g----------------------------------------------------------------------------|
d--2--2-----------2--2-----------2-------------------------------------------|
a--1-----0--1--0--1-----0--1--0--1-------------------------------------------|
e-----------------------------------3----------------------------------------|

e----------------------------------------------------------------------------|
b----------------------------------------------------------------------------|
g----------------------------------------------------------------------------|
d--2--2-----------2--2-----------2-------------------------------------------|
a--1-----0--1--0--1-----0--1--0--1-------------------------------------------|
e-----------------------------------3----------------------------------------|

e----------------------------------------------------------------------------|
b----------------------------------------------------------------------------|
g----------------------------------------------------------------------------|
d--2--2-----------2--2-----------2-------------------------------------------|
a--1-----0--1--0--1-----0--1--0--1-------------------------------------------|
e-----------------------------------3----------------------------------------|

then, play everything through again, then intro again, then
e----------------------------------------------------------------------------|
b---------------14--13--12---------------------------------------------------|
g-----11-10--9--14--13--12--11--12--0------11-10--9--14-13-12-11-------------|
d--2--11-10--9--14--13--12--11--12--0---2--11-10--9--14-13-12-11--10\-/11----|
a--0------------------------------------0---------------------------------0--|
e----------------------------------------------------------------------------|

e----------------------------------------------------------------------------|
b------------------/14------------------------------------/14----------------|
g--------11-10--9--/14-13-12-11\----------------11-10--9--/14----------------|
d--2--2--11-10--9--/14-13-12-11\-10/11-----2----11-10--9--/14-13-12----------|
a--0--0---------------------------------0--0-------------------------5-------|
e---------------------------------------------0-------------------------5/14-|

then
e----------------------------------------------------------------------------|
b----------------------------------------------------------------------------|
g----------------------------------------------------------------------------|
d--------------------------2--1--0-------------------------------------------|
a--------------0--1--2--------------2--1--0---)------------------------------|
e--0--3--4--0-----------0--------------------3--4----------------------------|
play that 4 times, then play verse once, then

OUTRO
e----------------------------------------------------------------------------|
b----------------------------------------------------------------------------|
g----------------------------------------------------------------------------|
d--2-------------------------------------------------------------------------|
a--1--1--0--1--0--1---1--0--1--0--1------------------------------------------|
e------------------------------------3---------------------------------------|
play that 4 times, then

END
e----------------------------------------------------------------------------|
b--5-------------------------------------------------------------------------|
g--3-------------------------------------------------------------------------|
d--2-------------------------------------------------------------------------|
a----------------------------------------------------------------------------|
e----------------------------------------------------------------------------|

_____________________________________________________________________________

Hairspray Queen
_____________________________________________________________________________

TUNING:

Tune down 1/2 a step

INTRO
e-----------5--x--x-----5--5---------x--x--5--5--5--5--x--x-----------5------|
b-----------5--x--x-----5--5---------x--x--5--5--5--5--x--x-----------5------|
g--2--------5--x--x--x--5--5---------x--x--5--5--5--5--x--x--5--5--5--5------|
d--1--2-----4--x--x--x--4--4---------x--x--4--4--4--4--------4--4--4--4------|
a--0--2--4-----------------4---4--4--------4-----4--4--------4--4--4--4------|
e-----0--2---------------------2--2--------------2--2--------2--2--2--2------|

e--------x--x--5--x--5--x-----5--5-----------5-----5--x--x-------------------|
b--------x--x--5--x--5--x-----5--5-----------5-----5--x--x-------------------|
g--------x--x--5--x--5--x-----5--5-----------------5--x--x--5--5-------------|
d--------x--x--4--x--4--x-----4--4-----------------4--x--x--4--4-------------|
a--4--4--------------------4--4--4--------------4--4--------4--4-------------|
e--2--2--------------------2--2--2--x--x--2-----2--2--------2--2-------------|

e--5--5--5--------------5--5-------------------------------------------------|
b--5--5--5--------------5--5-------------------------------------------------|
g--5--5--5--------x--5--5--5--5--5--5----------------------------------------|
d--4--4--4-----------4--4--4--4--4--4--4--4--4--4----------------------------|
a--------------------4--4--4--4--4--4--4--4--4--4----------------------------|
e-----------2--x-----2--2--2--2--2--2--2--2--2--2----------------------------|

e--/5---)--6--)--7----8-------9--------10/12--7--8--8\7--7\5--5/7------------|
b--/5--5-----6-----7----8--8-----8--9--10/12--7--8--8\7--7\4--4/7------------|
g---------------------------------------------7--------------------0---------|
d----------------------------------------------------------------------------|
a----------------------------------------------------------------------------|
e----------------------------------------------------------------------------|

e--4--)-5--)-6---7-----8----9/12\8--8~~--8\7--7\5--5/-7-/8-------------------|
b----4----5----6---7/8---9--9/12\8--8~~--8\7--7\5--5/-7-/8--0----------------|
g---------------------------------------------x----x-----x-------------------|
d---------------------------------------------0----0-----0-------------------|
a----------------------------------------------------------------------------|
e----------------------------------------------------------------------------|

e----------------------------------------------------------------------------|
b-----------------0----------------------------------------------------------|
g-----------------0--------0-------------------------------------------------|
d--------9-----7--0----------------------------------------------------------|
a-----7-----7-----------0-----5---)--)--)---)--------------------------------|
e--7-----------------4-----------3--5--5--(5)--------------------------------|

1st SOLO
e--/5---)--6--)-7---8-----9----------10/13\9--8--8\7-----5/7-----------------|
b--/5--5-----6----7---8/9----10--10--10/13\9--8--8\7-----5/7-----------------|
g-----------------------------9---9------------------------------------------|
d-----------------------------------------------------0----------------------|
a----------------------------------------------------------------------------|
e----------------------------------------------------------------------------|

e--7-----5--)-6--)-7---9------9----10/13\8--8~~--8\7--7\--5/7----------------|
b--7-------5----6----7---9--9---10----13\8--8~~--8\7--7\---------------------|
g-----0------------------------------------------8\7-------------------------|
d----------------------------------------------------------------------------|
a----------------------------------------------------------------------------|
e----------------------------------------------------------------------------|

e--7-------------------------------------------------------------------------|
b--5-------------------------------------------------------------------------|
g-----0----------------------------------------------------------------------|
d-----0---)-----------------------)--------------------------5--5--4---------|
a--------2---2--2\0--0--2--2-----2--2--(2)--2\0--0--2--2-----3--3--2---------|
e-----------------------------0---------------------------0------------------|

e----------------------------------------------------------------------------|
b----------------------------------------------------------------------------|
g----------------------------------------------------------------------------|
d--4--2--2--4--4-----4/5--5\--4--4-----2--4--4--4----------------------------|
a--2--0--0--2--2-----2/3--3\--2--2--0--0--2--2--2----------------------------|
e-----------------0----------------------------------------------------------|

CHORUS
e----------------------------------------------------------------------------|
b----------------------------------------------------------------------------|
g----------------------------------------------------------------------------|
d--3------3------3------3------3------3-----3--x--x--x--x--------------------|
a--3------3------3------3------3------3-----3--x--x--x--x--------------------|
e--1------1------1------1------1------1-----1--x--x--x--x--------------------|

2nd SOLO             )
e---)---------2----x--x--8---)-------2---------------------------------------|
b--4--(4)-(4)---0--x--x--8--8-----------3\-----------------------------------|
g-----------------------------------------------)----------------------------|
d------------------------------4--4---------x--1-----------------------------|
a-------------------------------------------------5-----/10--0--0------------|
e----------------------------------------------------4-------0--0------------|

e---------------------------------------------------------------------)------|
b-----------------x--5--5--5--5--4--3-------------------------------15-------|
g-----------------x--5--5--5--5--4--1-----2---------------------14-----------|
d--------8--7-----------5--5--------------2-----4--5\4--3-------11-----------|
a--5--9--------0-----------------------------2--4--5\4-----------------------|
e--------------------------------------2-------------------5/13--------------|

e---------------------11-----------------------------------------------------|
b------------------0--11--11-11-11-11----------------------------------------|
g---------7--------0-------9--9--9--9----------------------------------------|
d---------7--7-----0---------------------------------------------------------|
a--12-12--------7--0---------------------------------------------------------|
e----------------------------------------------------------------------------|

3rd SOLO
e--23----------12-12-(12)-(12)-10/12-----------------------------------------|
b-------)------12--------------10----x--5--5--3--2---------------------------|
g-----10-----7----------------------------------------1-------2---0--x-7--7--|
d---------9----------------------------------------x--0--2--0---2----x-6--6--|
a----------------------------------------------------------------------------|
e----------------------------------------------------------------------------|

e--7-7-7--7--7--7------------------------------------------------------------|
b--7-7-7--7--7--7------------------------------5-----------------------------|
g--7-7-7--7--7--7------------------------------5--5/--11-11-11\5--5--5--5----|
d--6-6-6--6--6--6----------------4--3----------4--4/--11-11-11\4--4--4--4----|
a-----------------------------5--------0--3/4--------------------------------|
e------------------0--0--3/4-------------------------------------------------|

4th SOLO
e------------10-11--11-11--11-14\11--14\11--14\11--14------------------------|
b---)------------------11------------------------------9--12\----------------|
g--8--8--(8)---------------------------------------------------5--6--6--6----|
d----------------------------------------------------------------------------|
a----------------------------------------------------------------------------|
e----------------------------------------------------------------------------|
                                                    )   )
e---------------------------------------------12--12--12-(12)----------------|
b--7------------------------------------------12--12--12-(12)--0--6----------|
g-----4-11-6--4--6--4--6--4--6--4\-----------------------------0--6----------|
d----------------------------------------------------------------------------|
a-----------------------------------7/11--10---------------------------------|
e----------------------------------------------------------------------------|

e-------------------------------------------)--------------------------------|
b--5--4-------------------------------10--10~~~~-----0--0--------------------|
g--5--4--4-----------------------)----10--10~~~~--8--0--0--------------------|
d-----------1---------4--6\-----3--------------------0--0--------------------|
a-----------------/7---------------5-----------------0--0--------------------|
e--------------3-------------4-----------------------------------------------|

OUTRO
e----------------------------------------------------------------------------|
b---------------------------------------4--2---------------------------------|
g---------------------------------------4--2---------------------------------|
d---------------------------------------4--2---------------------------------|
a----------------------------------------------------------------------------|
e--7/6--0--6/5--0--5/4--0--4/3--0--3/2--------6/5--0--5/4--0--4/3--0--3/2--0-|

e----------------------------------------------------------------------------|
b------3--1------------------------------------------------------------------|
g------3--1------------------------------------------------------------------|
d------3--1------------------------------------------------------------------|
a----------------------------------------------------------------------------|
e--2/1------6/5--0--5/4--0--4/3--0--3/2--0--1--1--1--1--5/4--0--4/3--0--3/2--|

e----------------------------------------------------------------------------|
b----------------------------------------------------------------------------|
g----------------------------------------------------------------------------|
d-----------------------------------3----------------------------------------|
a-----2--2--2--2--4--4--4--4--------3----------------------------------------|
e--0--------------------------1--1--1----------------------------------------|

_____________________________________________________________________________

Aero Zeppelin
_____________________________________________________________________________

TUNING:

Tune down 1/2 a step

INTRO
e-----0--0-----------------------0-----------0-----0--0----------------------|
b-----------3-----3-----------3-----3-----3--------------3-----3-------------|
g--------------3-----3--------3--------3--------------------3-----3----------|
d----------------------------------------------------------------------------|
a--2--------------------2--2--------------------2----------------------------|
e--0--------------------0--0--------------------0----------------------------|

e--------0--0----------------------------------------------------------------|
b--------------3-----3-------------------------------------------------------|
g-----------------3----------------------------------------------------------|
d----------------------------------------------------------------------------|
a--2--2----------------------------------------------------------------------|
e--0--0----------------------------------------------------------------------|

VERSE
e--------0--0-----------0-----------0-------0--------------------------------|
b--------------3-----3-----------3-----3----3--------------------------------|
g-----------------3--------------3--------3---3------------------------------|
d----------------------------------------------------------------------------|
a--2--2--------------------2--2----------------------------------------------|
e--0--0--------------------0--0----------------------------------------------|

e-----------0--------0--------------0--------0-------------------------------|
b--------3-----3--3--3--3--------3--------3--3--3----------------------------|
g--------3--------3-----3--------------3--3-----3----------------------------|
d----------------------------------------------------------------------------|
a--2--2--------------------2--2----------------------------------------------|
e--0--0--------------------0--0----------------------------------------------|

e-----------0--------0--------------0--------0-------------------------------|
b--------3--3--3--3--3--3--------3--------3----------------------------------|
g--------3-----3--3-----3--------3-----3--------3----------------------------|
d----------------------------------------------------------------------------|
a--2--2--------------------2--2----------------------------------------------|
e--0--0--------------------0--0----------------------------------------------|

e--------0--------0----------------------------------------------------------|
b-----3--------3-----------3--3--------3--3--------3--3--------3--3--3-------|
g-----3-----3--------3-----------3-----------3-----------3-----3-----3-------|
d----------------------------------------------------------------------------|
a--2--------------------2-----------2-----------2-----------2-----------0----|
e--0--------------------0-----------0-----------0-----------0-----------0----|

then
e----------------------------------------------------------------------------|
b----------------------------------------------------------------------------|
g----------------------------------------------------------------------------|
d-----2----------------------------------------------------------------------|
a--2-----2--2--2/5--5\--2--2\1-----1-----2--2--2--2/5--5\--2--1--1-----1-----|
e--0--------------------0-------3-----3--0-----------------0--------3-----3--|

e----------------------------------------------------------------------------|
b----------------------------------------------------------------------------|
g----------------------------------------------------------------------------|
d----------------------------------------------------------------------------|
a--2--2--2--2/5--5\--2--2--1--1-----1-----2--2--2--2/5--5\-----2--1-----1----|
e--0-----------------0-----------3-----3--0-----------------0--------3-----3-|

then
e----------------------------------------------------------------------------|
b----------------------------------------------------------------------------|
g---------------------7--7--7--9--9\5----------------------------------------|
d--7/9--9--9--9\7--x--7--7--7--9--9\5----------------------------------------|
a--7/9--9--9--9\7--x--5--5--5--7--7\5--3--------2--------1/2------)----------|
e--5/7--7--7--7\5--x----------------------4--0-----3--3-------0--1-----------|

play that 4 times, then
e----------------------------------------------------------------------------|
b----------------------------------------------------------------------------|
g----------------------------------------------------------------------------|
d----------------------------------------------------------------------------|
a--3--------2--3--------1---------)--3--------2--------1/2-------------------|
e-----4--0--------3--0-----2--0--1------4--0-----3--0-------0--1--1--0-------|

e----------------------------------------------------------------------------|
b----------------------------------------------------------------------------|
g----------------------------------------------------------------------------|
d----------------------------------------------------------------------------|
a--3--------2/3-----1---------)----------------------------------------------|
e-----4--0-------0-----2--0--1-----------------------------------------------|

e----------------------------------------------------------------------------|
b----------------------------------------------------------------------------|
g----------------------------------------------------------------------------|
d----------------------------1-----------------------------------------------|
a--------1---)---)-----------------1---)--)----------1-----1---)--)----------|
e--0--0-----4---4---0--0--4-----0-----4--4--0--0--4-----0-----4--4--0--0-----|

e----------------------------------------------------------------------------|
b----------------------------------------------------------------------------|
g--1-----1-------------------------------------------------------------------|
d--1-----1------------------------1------------------------------------------|
a-----2--------1---)--)------------------------------------------------------|
e-----------0-----4--4---0--0--4---------------------------------------------|

then
e----------------------------------------------------------------------------|
b----------------------------------------------------------------------------|
g-------3--3-------------1----3--3--1--1----------1----3--3--1--1------------|
d--2----3--3--2----5--5--2----3--3--2--2----5--5--2----3--3--2--2----5--5----|
a--2----1--1--2----5--5--2----1--1--2--2----5--5--2----1--1--2--2----5--5----|
e--0----------0----3--3--0----------0--0----3--3--0----------0--0----3--3----|

e----------------------------------------------------------------------------|
b----------------------------------------------------------------------------|
g--1----3--3--1--------------1------(1)----------(1)-------------------------|
d--2----3--3--2----5---------2------(2)----------(2)-------------------------|
a--2----1--1--2----5---------2------(2)----------(2)-----\11------0--0-------|
e--0----------0----3---0-----0------(0)----------(0)--------------0--0-------|

SOLO
e----)-----------------------------------------------------------------------|
b--11-11-(11)-(11)-11---------)----------------------------------------------|
g----------------------3--3--3--1--3--1-----------0--------------------------|
d----------------------------------------2--0--2-----2/0---------------------|
a---------------------------------------------------------0------------------|
e------------------------------------------------------------4--(4)/-0--4--4-|

e-------------------x/--x--x--x--x-------------------------------------------|
b-------------------x/-------------------------------------------------------|
g----------------------------------------------------------------------------|
d----------------------------------------------------------------------------|
a---)-------------------------------7--7/9--9--9--9\7--9/10--9--10-10/12-----|
e--4--(4)--4--4--0-----------------------------------------------------------|

e------------------------------------)-------------0-----0--0-10--0--3-------|
b-----------------12-14---------12-15~~~~-(15)-16-----0-----------------2--2-|
g-----------------12------------12-15~~~~-(15)-16----------------------------|
d-----------12-14-------14-x-14----------------------------------------------|
a--10-12/14-12-14------------------------------------------------------------|
e----------------------------------------------------------------------------|

e--------4\0-----3/0--0--5--3--0--0------------------------------------------|
b--0--1-------0----------------------3/0--3--x---)---------------------------|
g-----------------------------------------------2----------------------------|
d--------------------------------------------------2-------------------------|
a------------------------------------------------------)--------------5------|
e-----------------------------------------------------3--0--(0)--4/5---------|

e--------------------------------------------------------------------)---)---|
b------------------------------------------------7-----------------10--10----|
g---------------------------------------------7--7-(7)\9--9--9--9------10----|
d----------------------------7/9--9--9--9--9---------------------------------|
a------------5--4--5/7--7/9--------------------------------------------------|
e--5/7--5/7------------------------------------------------------------------|

e----------------------------------------------------------------------------|
b--(10)-(10)---(12)----------------------------------------------------------|
g--(10)------10-10-10\-------------------------------------------------------|
d----------------------------------------------------------------------------|
a----------------------------------------------------------------------------|
e----------------------------------------------------------------------------|

OUTRO
e--------0-----------------0--0-----------0-----0--0-------------------------|
b-----0-----0-----3--------3-----3-----3--------3-----3--3-------------------|
g--------------3-----3--------------3-----------------------3----------------|
d----------------------------------------------------------------------------|
a--2--------------------2--------------------2-------------------------------|
e--0--------------------0--------------------0-------------------------------|

e-----0--0-----------(0)-----------------------------------------------------|
b-----------3-----3----------------------------------------------------------|
g--------------3-------------------------------------------------------------|
d----------------------------------------------------------------------------|
a--2-------------------------------------------------------------------------|
e--0-------------------------------------------------------------------------|

_____________________________________________________________________________

Big Long Now
_____________________________________________________________________________

TUNING:

Normal tuning

INTRO (palm muted throughout)
e----------------------------------------------------------------------------|
b----------------------------------------------------------------------------|
g--------------------0-----------------------0-------------------------------|
d-----3-----3-----3-----3-----3-----3-----3-----3----------------------------|
a--4-----5-----4-----------4-----5-----4-------------------------------------|
e----------------------------------------------------------------------------|

e----------------------------------------------------------------------------|
b----------------------------------------------------------------------------|
g--------------------0-----------------------0-------------------------------|
d-----3-----3-----3-----3-----3-----3-----3-----3----------------------------|
a--4-----5-----4-----------4-----5-----4-------------------------------------|
e----------------------------------------------------------------------------|

e----------------------------------------------------------------------------|
b--------------------0--0--0----------------------0--0--0--------------------|
g--------------------0--0--0----------------------0--0--0--------------------|
d-----3-----3-----3--------------3-----3------3------------------------------|
a--4-----5-----4--------------4-----5-----4----------------------------------|
e----------------------------------------------------------------------------|

VERSE
e----------------------------------------------------------------------------|
b----------------------------------------------------------------------------|
g--------------------0-------------------------------------------------------|
d-----3-----3-----3-----3----------------------------------------------------|
a--4-----5-----4-------------------------------------------------------------|
e----------------------------------------------------------------------------|

play that 10 times, then
e----------------------------------------------------------------------------|
b----------------------------------------------------------------------------|
g--------0----------0-----------0--------0-----------------------------------|
d-----0----0-----0-----0-----2-----------------------------------------------|
a--1----------1-----------0--------6--6-----6--------------------------------|
e----------------------------------4--4-----4--------------------------------|

after 2nd time this is played, play
e----------------------------------------------------------------------------|
b----------------------------------------------------------------------------|
g--------------------0-----------------------0-------------------------------|
d-----3-----3-----3-----3-----3-----3-----3-----3----------------------------|
a--4-----5-----4-----------4-----5-----4-------------------------------------|
e----------------------------------------------------------------------------|

CHORUS
e----------------------------------------------------------------------------|
b----------------------------------------------------------------------------|
g--7--7--7--6--6--6--6--6--6--6--6--6--6--6--6-------------------------------|
d--7--7--7--6--6--6--6--6--6--6--6--6--6--6--6-------------------------------|
a--5--5--5--4--4--4--4--4--4--4--4--4--4--4--4-------------------------------|
e----------------------------------------------------------------------------|

e----------------------------------------------------------------------------|
b----------------------------------------------------------------------------|
g--7--7--7--6--6--6--6--6--6--6--6-------------------------------------------|
d--7--7--7--6--6--6--6--6--6--6--6--5--5--5--5-------------------------------|
a--5--5--5--4--4--4--4--4--4--4--4--5--5--5--5-------------------------------|
e-----------------------------------3--3--3--3-------------------------------|

e----------------------------------------------------------------------------|
b----------------------------------------------------------------------------|
g--7--7--7--6--6--6--6--6--6--6--6--6--6--6--6-------------------------------|
d--7--7--7--6--6--6--6--6--6--6--6--6--6--6--6-------------------------------|
a--5--5--5--4--4--4--4--4--4--4--4--4--4--4--4-------------------------------|
e----------------------------------------------------------------------------|

e----------------------------------------------------------------------------|
b----------------------------------------------------------------------------|
g--7--7--7--6--6--6--6--6--6--6--6-------------------------------------------|
d--7--7--7--6--6--6--6--6--6--6--6--5--5--5--5-------------------------------|
a--5--5--5--4--4--4--4--4--4--4--4--5--5--5--5-------------------------------|
e-----------------------------------3--3--3--3-------------------------------|

play that 2 times, then
e----------------------------------------------------------------------------|
b----------------------------------------------------------------------------|
g----------------------------------------------------------------------------|
d--5--5--5--5--4--4--4--4--4--4--4--4----------------------------------------|
a--5--5--5--5--4--4--4--4--4--4--4--4----------------------------------------|
e--3--3--3--3--2--2--2--2--2--2--2--2----------------------------------------|

e----------------------------------------------------------------------------|
b----------------------------------------------------------------------------|
g----------------------------------------------------------------------------|
d--3--3--3--3--3--3--3--3--3--3--3--3--3--3--3--3----------------------------|
a--3--3--3--3--3--3--3--3--3--3--3--3--3--3--3--3----------------------------|
e--1--1--1--1--1--1--1--1--1--1--1--1--1--1--1--1----------------------------|

OUTRO
e----------------------------------------------------------------------------|
b----------------------------------------------------------------------------|
g--------------------------------------------0-------------------------------|
d-----3-----3-----3-----3-----3-----3-----3-----3----------------------------|
a--4-----5-----4-----5-----4-----5-----4-------------------------------------|
e----------------------------------------------------------------------------|

e----------------------------------------------------------------------------|
b----------------------------------------------------------------------------|
g--------------------------------------------0-------------------------------|
d-----3-----3-----3-----3-----3-----3-----3-----3----------------------------|
a--4-----5-----4-----5-----4-----5-----4-----------4-------------------------|
e----------------------------------------------------------------------------|

_____________________________________________________________________________

Aneurysm
_____________________________________________________________________________

TUNING:

Normal tuning

INTRO
e----------------------------------------------------------------------------|
b----------------------------------------------------------------------------|
g-----------------5--------4--------2-----0----------------------------------|
d-----4--------5--------4--4-----2--2--2--0----------------------------------|
a--4--4--0--3--------0--2-----0--0-----0-------------------------------------|
e--2-------------------------------------------------------------------------|

e----------------------------------------------------------------------------|
b----------------------------------------------------------------------------|
g--------------5-----------4-----------2-----0-------------------------------|
d-----4-----5--5--5-----4--4--4-----2--2--2--0-------------------------------|
a--4--4--0--3-----3--0--2-----2--0--0-----0----------------------------------|
e--2-------------------------------------------------------------------------|

then
e----------------------------------------------------------------------------|
b----------------------------------------------------------------------------|
g--3~~~-3---3---3---3/4~~-(4)/5--5--5--5--5/7--7/9/10-10/11--14--14--14--14--|
d----------------------------------------------------------------------------|
a----------------------------------------------------------------------------|
e----------------------------------------------------------------------------|

e-----------14-14-14-14-14-16-17-x-x-x-x-x\----------------------------------|
b--14-14-14------------------------------------------------------------------|
g----------------------------------------------------------------------------|
d----------------------------------------------------------------------------|
a----------------------------------------------------------------------------|
e----------------------------------------------------------------------------|

then
e----------------------------------------------------------------------------|
b----------------------------------------------------------------------------|
g-----------5--5--5-----4--4--4-----2--2--2----------------------------------|
d--4--4--0--5--5--5--0--4--4--4--0--2--2--2--0-------------------------------|
a--4--4--0--3--3--3--0--2--2--2--0--0--0--0--0-------------------------------|
e--2--2----------------------------------------------------------------------|

play that 8 times, then
e----------------------------------------------------------------------------|
b----------------------------------------------------------------------------|
g--3--3--3--3--3--3/4--4--4--4--4/5--5--5--5--5--5/6--6--6--6--6/7--7--7--7--|
d----------------------------------------------------------------------------|
a----------------------------------------------------------------------------|
e----------------------------------------------------------------------------|

e----------------------------------------------------14-14----14-------------|
b----------------------------------------------------14-14----14-------------|
g--7/8--8--8--8--8--8/9-9-9-9-9-9-9-9-9-9-9/13-14-14-------14----------------|
d----------------------------------------------------------------------------|
a----------------------------------------------------------------------------|
e----------------------------------------------------------------------------|

then
e----------------------------------------------------------------------------|
b----------------------------------------------------------------------------|
g----------------------------------------------------------------------------|
d--9-9-9-9-9-9-9-9-9-9-9-9-9-9-9-9-9-9-9-9-9-9-9-9-9-9-9-9-9-9-9-9-----------|
a--9-9-9-9-9-9-9-9-9-9-9-9-9-9-9-9-9-9-9-9-9-9-9-9-9-9-9-9-9-9-9-9-----------|
e--7-7-7-7-7-7-7-7-7-7-7-7-7-7-7-7-7-7-7-7-7-7-7-7-7-7-7-7-7-7-7-7-----------|

e----------------------------------------------------------------------------|
b----------------------------------------------------------------------------|
g--7--7--7-7-7--7-7-7-7-7-7-7-7----------------------------------------------|
d--7--7--7-7-7--7-7-7-7-7-7-7-7----------------------------------------------|
a--5--5--5-5-5--5-5-5-5-5-5-5-5----------------------------------------------|
e----------------------------------------------------------------------------|

e----------------------------------------------------------------------------|
b----------------------------------------------------------------------------|
g-----------------------------------7--7--7-7-7--7-7-7-7-7-7-7-7-------------|
d--9-9-9-9-9-9-9-9-9-9-9-9-9-9-9-9--7--7--7-7-7--7-7-7-7-7-7-7-7-------------|
a--9-9-9-9-9-9-9-9-9-9-9-9-9-9-9-9--5--5--5-5-5--5-5-5-5-5-5-5-5-------------|
e--7-7-7-7-7-7-7-7-7-7-7-7-7-7-7-7-------------------------------------------|

VERSE
e----------------------------------------------------------------------------|
b----------------------------------------------------------------------------|
g-----------------------------------7--7--7-7-7--7-7-7-7-7-7-7-7-------------|
d--9-9-9-9-9-9-9-9-9-9-9-9-9-9-9-9--7--7--7-7-7--7-7-7-7-7-7-7-7-------------|
a--9-9-9-9-9-9-9-9-9-9-9-9-9-9-9-9--5--5--5-5-5--5-5-5-5-5-5-5-5-------------|
e--7-7-7-7-7-7-7-7-7-7-7-7-7-7-7-7-------------------------------------------|
play that 4 times, then

CHORUS
e----------------------------------------------------------------------------|
b----------------------------------------------------------------------------|
g----------------------------------------------------------------------------|
d--4--4--6--7--7--7--8--9--9--9--8--7--7--7----------------------------------|
a--4--4--6--7--7--7--8--9--9--9--8--7--7--7--0-------------------------------|
e--2--2--4--5--5--5--6--7--7--7--6--5--5--5--0-------------------------------|

play that 8 times, the repeat verse and chorus, then
e----------------------------------------------------------------------------|
b----------------------------------------------------------------------------|
g--3--3--3/4--4/5--5--5/6--6--6--6/7--7--7--7/8--8--8--8--8--8/9--9--9--9/10-|
d----------------------------------------------------------------------------|
a----------------------------------------------------------------------------|
e----------------------------------------------------------------------------|

e----------------------------------------------------------------------------|
b----------------------------------------------------------------------------|
g--10-10-10-10-10/11-11/12-13-13-14-14-14-14-14-14-14/15-15-15-15/16-17-17---|
d----------------------------------------------------------------------------|
a----------------------------------------------------------------------------|
e----------------------------------------------------------------------------|

e----------------------------------------------------------------------------|
b----------------------------------------------------------------------------|
g--17/18---------------------------------------------------------------------|
d---------0------------------------------------------------------------------|
a----------------------------------------------------------------------------|
e----------------------------------------------------------------------------|

then
e----------------------------------------------------------------------------|
b----------------------------------------------------------------------------|
g-----------5--5--5-----4--4--4-----2--2--2----------------------------------|
d--4--4--0--5--5--5--0--4--4--4--0--2--2--2--0-------------------------------|
a--4--4--0--3--3--3--0--2--2--2--0--0--0--0--0-------------------------------|
e--2--2----------------------------------------------------------------------|
play that 10 times

OUTRO
e----------------------------------------------------------------------------|
b----------------------------------------------------------------------------|
g--3--3--4--4--4--4--4--4--4--5--5--5--5--5--6--7--6--7--7--8--8--9--9--9----|
d----------------------------------------------------------------------------|
a----------------------------------------------------------------------------|
e----------------------------------------------------------------------------|

e--------------------------------------------------------x-x-x-x-x-----------|
b--------------------------------------------------------x-x-x-x-x--/15\-----|
g--10-10-12-12-11-12-13-14-14-14-15-15-16-16-16-17-17-17------------/15\-----|
d----------------------------------------------------------------------------|
a----------------------------------------------------------------------------|
e----------------------------------------------------------------------------|
comments
print report bad tab
2 comments total.
0 reply
Tomozaurus wrote on September 26 2008, 05:00 am

Downer and Beeswax are both 1/2 a step down.

0 reply
ServantServeMe wrote on December 5 2009, 11:29 pm

Pretty good tab. Good job.

I want to post or [tab]
guest
You may want to rate the tab now too:
select rating
Please do not post tabs as comments. Select "correction" instead!