Oops, an error
Loading. Please wait.

Nevermind Tab

ver5
ver5
More versions @911Tabs.com
16,335 views 1 this week
14 commentsread comments
1 2 3 4 5
accurate
x 8
Autoscroll
+/-
esc
set tempo
stop
Contributor
WARNING: You are trying to view
                                    content from Ultimate-Guitar.com
                                    in an unauthorized application,
                                    which is prohibited.

                                    Please use an official Ultimate
                                    Guitar Tabs application for iPhone,
                                    iPad or Android to access legitimate
                                    chords, guitar, bass, and drum tabs
                                    from Ultimate-Guitar.com database.

                                    Type "ultimate guitar tabs" in Apple
                                    App Store's or Android Market's
                                    search to find the application.
N E V E R M I N D Album Tab by Nirvana

source: www.music-nirvana.com

1.  Smells Like Teen Spirit
2.  In Bloom
3.  Come As You Are
4.  Breed
5.  Lithium
6.  Polly
7.  Territorial Pissings
8.  Drain You
9.  Lounge Act
10. Stay Away
11. On A Plain
12. Something In The Way

 _____________________________________________________________________________

Smells Like Teen Spirit
_____________________________________________________________________________

TUNING:

Normal tuning

INTRO
e----------------------------------------------------------------------------|
b-----------------------------------x-x-x-x----------------------x-x-x-x-----|
g----------x-0-x--3--3--00----------x-x-x-x--6--6-6--0-0---------x-x-x-x-----|
d--3--3-3--x-0-x--3--3--00---6--6-6-x-x-x-x--6--6-6--0-0--3--3-3 x-x-x-x-----|
a--3--3-3--x-0-x--1--1--00---6--6-6-x-x-x-x--4--4-4--0-0--3--3-3 x-x-x-x-----|
e--1--1-1--------------------4--4-4-x-x-x-x---------------1--1-1 x-x-x-x-----|

e----------------------------------------------------------------------------|
b----------------------x-x-x-x-----------------------------------------------|
g--3--3-3--0-0---------x-x-x-x-----------------------------------------------|
d--3--3-3--0-0--6--6-6-x-x-x-x-----------------------------------------------|
a--1--1-1--0-0--6--6-6-x-x-x-x-----------------------------------------------|
e---------------4--4-4-x-x-x-x-----------------------------------------------|

with distortion
e----------------------------------------------------------------------------|
b------------------x-x-x-x-------------------x-x-x-x-------------------------|
g--6--6------------x-x-x-x--3--3-------------x-x-x-x--6--6-------------------|
d--6--6--0--3--3-3-x-x-x-x--3--3---0--6--6-6-x-x-x-x--6--6--0----------------|
a--4--4--0--3--3-3-x-x-x-x--1--1---0--6--6-6-x-x-x-x--4--4--0----------------|
e--------0--1--1-1-x-x-x-x---------0--4--4-4-x-x-x-x--------0----------------|

then
e----------------------------------------------------------------------------|
b---------x-x-x-x------------------x-x-x-x-----------------------------------|
g---------x-x-x-x--3--3------------x-x-x-x--6--6-----------------------------|
d--3--3-3-x-x-x-x--3--3--0--6--6-6-x-x-x-x--6--6---0-------------------------|
a--3--3-3-x-x-x-x--1--1--0--6--6-6-x-x-x-x--4--4---0-------------------------|
e--1--1-1-x-x-x-x--------0--4--4-4-x-x-x-x---------0-------------------------|
play that 3 times

VERSE
e----------------------------------------------------------------------------|
b-----6----------6----------6----------6----------6----------6---------------|
g--5----------5----------5----------5----------5----------5------------------|
d----------------------------------------------------------------------------|
a----------------------------------------------------------------------------|
e----------------------------------------------------------------------------|

PRE-CHORUS
e----------------------------------------------------------------------------|
b----6---6---6---6---6---6---6---6---6---6---6---6---6---6---6---------------|
g--5---5---5---5---5---5---5---5---5---5---5---5---5---5---5---5-------------|
d-------------------------------------------------------------------0--------|
a-------------------------------------------------------------------0--------|
e-------------------------------------------------------------------0--------|

CHORUS
e----------------------------------------------------------------------------|
b---------x-x-x-x------------------x-x-x-x-----------------------------------|
g---------x-x-x-x--3--3------------x-x-x-x--6--6-----------------------------|
d--3--3-3-x-x-x-x--3--3--0--6--6-6-x-x-x-x--6--6---0-------------------------|
a--3--3-3-x-x-x-x--1--1--0--6--6-6-x-x-x-x--4--4---0-------------------------|
e--1--1-1-x-x-x-x--------0--4--4-4-x-x-x-x---------0-------------------------|

play that 6 times, then
e-----------------------------------------------------------------------------|
b-----------------)-------------------------------------)---------------------|
g----------------3-------------------------------------3----------------------|
d-----------------------------------------------------------------------------|
a--3--2--3--4-4-----3--2--3--/8-8--6--5--3--2--3--4-4-----3--2--3--/8-8--6--5-|
e--1--0--1--2-2-----1--0--1--/6-6--4--3--1--0--1--2-2-----1--0--1--/6-6--4--3-|

SOLO
e----------------------------------------------------------------------------|
b------------------------)---------------------------------------------------|
g-------8--10--------8--8-----6--5--6--5---------------)---------------------|
d--10------------6---------------------------8--6--8--8----6--5--------------|
a----------------------------------------------------------------------------|
e----------------------------------------------------------------------------|

play that 2 times, then
e----------------------------------------------------------------------------|
e----------------------------------------------------------------------------|
b----------------------------------------------------------------------------|
g----------------------------------------------------------------------------|
d--6--5---6--5---6--5---6-(5)-5\3---6--5---6--5---6--5---6-(5)-5\3-----------|
a----------------------------------------------------------------------------|
e----------------------------------------------------------------------------|
play that 4 times

END
e----------------------------------------------------------------------------|
b----------------------------------------------------------------------------|
g----------------------------------------------------------------------------|
d--3-------------------------------------------------------------------------|
a--3-------------------------------------------------------------------------|
e--1-------------------------------------------------------------------------|


_____________________________________________________________________________

In Bloom
_____________________________________________________________________________

TUNING:

Normal tuning


INTRO
e----------------------------------------------------------------------------|
b----------------------------------------------------------------------------|
g--3--3-3/-------------------------------------------------------------------|
d--3--3-3/---5----------------3--3--3/6--6-----------------------------------|
a--1--1-1/---5----------------3--3--3/6--6-----------------0-----------------|
e------------3----------------1--1--1/4--4--4----1--4------------------------|

e----------------------------------------------------------------------------|
b----------------------------------------------------------------------------|
g--3--3-3/-------------------------------------------------------------------|
d--3--3-3/----5------------3--3-3/6---6--------------------------------------|
a--1--1-1/----5------------3--3-3/6---6--------------------------------------|
e-------------3------------1--1-1/4---4--------------------------------------|

then
e----------------------------------------------------------------------------|
b----------------------------------------------------------------------------|
g--3-3-3-3-3-x---------------0-/8-8-8-8-8-x-0-4-4-4-4-0-2-2-2----------------|
d--3-3-3-3-3-x-0-4-4-4-4-4-x-0-/8-8-8-8-8-x-0-4-4-4-4-0-2-2-2----------------|
a--1-1-1-1-1-x-0-4-4-4-4-4-x-0-/6-6-6-6-6-x-0-2-2-2-2-0-0-0-0----------------|
e--------------0-2-2-2-2-2-x-------------------------------------------------|
play that 2 times

VERSE
e--1-1-1-1-1-----------------------------------------------------------------|
b--3-3-3-3-3-x-0--2-2-2-2-2---0-8-8-8-8-x-0-4-4-4-2-2-2----------------------|
g--3-3-3-3-3-x-0--3-3-3-3-3-x-0-8-8-8-8-x-0-4-4-4-2-2-2----------------------|
d--3-3-3-3-3-x-0--4-4-4-4-4-x-0-8-8-8-8-x-0-4-4-4-2-2-2----------------------|
a--1-1-1-1-1-x-0--4-4-4-4-4-x-0-6-6-6-6-x-0-2-2-2-0-0-0----------------------|
e-----------------2-2-2-2-2-x------------------------------------------------|

e--1-1-1-1-1-----------------------------------------------------------------|
b--3-3-3-3-3-x-0--2-2-2-2-2---0-8--8-8--8--8-8-------------------------------|
g--3-3-3-3-3-x-0--3-3-3-3-3-x-0-8--8-8--8--8-8-------------------------------|
d--3-3-3-3-3-x-0--4-4-4-4-4-x-0-8--8-8--8--8-8-------------------------------|
a--1-1-1-1-1-x-0--4-4-4-4-4-x-0-6--6-6--6--6-6-------------------------------|
e-----------------2-2-2-2-2-x------------------------------------------------|

distortion on
e----------------------------------------------------------------------------|
b----------------------------------------------------------------------------|
g--4-------------7-----------------------------------------------------------|
d--4-------------7-----------------------------------------------------------|
a--2-------------5-----------------------------------------------------------|
e--Trem...........-----------------------------------------------------------|

CHORUS
e----------------------------------------------------------------------------|
b----------------------------------------------------------------------------|
g--3--3-3--3--3-0--------------0--3--3-3--3--3-0--------------0--------------|
d--3--3-3--3--3-0--5-5--5-5--5-0--3--3-3--3--3-0--5-5--5-5--5-0--------------|
a--1--1-1--1--1-0--5-5--5-5--5-0--1--1-1--1--1-0--5-5--5-5--5-0--------------|
e------------------3-3--3-3--3--------------------3-3--3-3--3----------------|

play that 2 times, then
e----------------------------------------------------------------------------|
b----------------------------------------------------------------------------|
g--5--5--5-5-5-5-5/8-8-8-8-8-8-8-8--5--5--5-5-5-5-5/8-8-8-8-8-8-8-8----------|
d--5--5--5-5-5-5-5/8-8-8-8-8-8-8-8--5--5--5-5-5-5-5/8-8-8-8-8-8-8-8----------|
a--3--3--3-3-3-3-3/6-6-6-6-6-6-6-6--3--3--3-3-3-3-3/6-6-6-6-6-6-6-6----------|
e----------------------------------------------------------------------------|

SOLO
e----------------------------------------------------------------------------|
b---)~~~~~~~~~~~~~~~~~~~~~--------)-----(--------------)-------(-------------|
g--8-----------------------------8-------8-(0)--6---(6)---------(6)--6-------|
d----------------------------------------------------------------------------|
a----------------------------------------------------------------------------|
e----------------------------------------------------------------------------|

e----------------------------------------------------------------------------|
b----------------)----------------)------------------------------------------|
g--6/8--6---8---8--------6--8--(8)--8~~6----6--8--8--------------------------|
d------------------6/8---------------------------------0---------------------|
a----------------------------------------------------------------------------|
e----------------------------------------------------------------------------|

e-----------------------------------------------)------)------)--------------|
b-----)-------(----------------8-----8/9---8---9---(11)-----11---------------|
g--/10---------(10)--10----10------------------------------------------------|
d----------------------------------------------------------------------------|
a----------------------------------------------------------------------------|
e----------------------------------------------------------------------------|

e-------------)-----(--------------------------------------------------------|
b--(11)~~~~~11-------(11)---11/-----------8------8---------------------------|
g-------------------------------------6------6-------6-----------------------|
d----------------------------------------------------------------------------|
a----------------------------------------------------------------------------|
e----------------------------------------------------------------------------|

END
e----------------------------------------------------------------------------|
b----------------------------------------------------------------------------|
g--3-------------------------------------------------------------------------|
d--3-------------------------------------------------------------------------|
a--1-------------------------------------------------------------------------|
e----------------------------------------------------------------------------|


_____________________________________________________________________________

Come As You Are
_____________________________________________________________________________

TUNING:

Tune down 1 whole step

INTRO
e----------------------------------------------------------------------------|
b----------------------------------------------------------------------------|
g----------------------------------------------------------------------------|
d----------------------------------------------------------------------------|
a-------------0----0-------------2----------2--------------------------------|
e--0--0--1--2----2---2--2--1--0-----0--0------0--1---------------------------|

e----------------------------------------------------------------------------|
b----------------------------------------------------------------------------|
g----------------------------------------------------------------------------|
d----------------------------------------------------------------------------|
a----0---0--------------2--------2-------------------------------------------|
e--2----2---2--2--1--0-----0--0----0--1--------------------------------------|

VERSE
e----------------------------------------------------------------------------|
b----------------------------------------------------------------------------|
g----------------------------------------------------------------------------|
d----------------------------------------------------------------------------|
a-----0----0-------------2-------2-------------------------------------------|
e--2----2----2--2--1--0----0--0-----0--1-------------------------------------|

play that 9 times, then
e--------------------------------0--0--0--0----------------------------------|
b--------------------------------0--0--0--0----------------------------------|
g--------------------------------1--1--1--1----------------------------------|
d----------------------------------------------------------------------------|
a----0-----0-----------2-----------------------------------------------------|
e--2----2-----2--1--0------0-------------------------------------------------|

CHORUS
e--------0-------------------------------------------------------------------|
b--------0---------------2-----2-----2-----2---------------------------------|
g---------------------2--2--2--2--2--2--2--2--0------------------------------|
d--4---------4--4-----2--2--2--2--2--2--2--2--0------------------------------|
a--4---------4--4--0--0-----0-----0-----0-----0------------------------------|
e--2---------2--2--0---------------------------------------------------------|

play that 3 times, then
e--------0-------------------------------------------------------------------|
b--------0---------------2-----2---------------------------------------------|
g---------------------2--2--2--2--2------------------------------------------|
d--4---------4--4-----2--2--2--2--2------------------------------------------|
a--4---------4--4--0--0-----0-----0------------------------------------------|
e--2---------2--2--0--------------------0--0--1--2---------------------------|

BRIDGE
e---------------------0--0--0-0-0-0------------------------------------------|
b------------------0--3--3--3-3-3--------------------------------------------|
g--4--4--4--4-4-4--0--2--2------2--------------------------------------------|
d--4--4--4--4-4-4--0--0--0------0--------------------------------------------|
a--2--2--2--2-2-2--0---------------------------------------------------------|
e----------------------------------------------------------------------------|

play that 3 times, then
e---------------------0--0--0--0---------------------------------------------|
b------------------0--3--3--3--3---------------------------------------------|
g--4--4--4--4-4-4--0--2--2-----2---------------------------------------------|
d--4--4--4--4-4-4--0--0--0-----0---------------------------------------------|
a--2--2--2--2-2-2--0---------------------------------------------------------|
e----------------------------------------------------------------------------|

SOLO
e----------------------------------------------------------------------------|
b-----------------------------------------------------------12)--------------|
g--2--2--6~~~--9--11\6--6~~~--9--11\6--6~~~--9--11--11--11--11~~--9--6-------|
d----------------------------------------------------------------------------|
a----------------------------------------------------------------------------|
e----------------------------------------------------------------------------|

then
e----------------------------------------------------------------------------|
b-----------------------------------------------------12)--------------------|
g--6~~~--9--11\6--6~~~--9--11\6--6~~~--9--11--11--11--11~~--9----------------|
d----------------------------------------------------------------------------|
a----------------------------------------------------------------------------|
e----------------------------------------------------------------------------|
play that 3 times

END
e--0-------------------------------------------------------------------------|
b--0-------------------------------------------------------------------------|
g--x-------------------------------------------------------------------------|
d--4-------------------------------------------------------------------------|
a--4-------------------------------------------------------------------------|
e--2-------------------------------------------------------------------------|


_____________________________________________________________________________

Breed
_____________________________________________________________________________

TUNING:

Normal tuning

INTRO
(this is actually a studio effect, but when played live, kurt taps the back
 of the neck of the guitar to achieve that sound)
e----------------------------------------------------------------------------|
b----------------------------------------------------------------------------|
g----------------------------------------------------------------------------|
d---------------)-----------------)------------------------------------------|
a--4--4-----4--7-----4--4-----4--7-------------------------------------------|
e--2--2--0--2--5--0--2--2--0--2--5--0----------------------------------------|
play that 12 times

VERSE
e----------------------------------------------------------------------------|
b----------------------------------------------------------------------------|
g--11-11-11-11-11-11-11-11-11-11-11-11-11-11-11-11-11-11-11-11-11-11-11-11---|
d--11-11-11-11-11-11-11-11-11-11-11-11-11-11-11-11-11-11-11-11-11-11-11-11---|
a---9--9--9--9--9--9--9--9--9--9--9--9--9--9--9--9--9--9--9--9--9--9--9--9---|
e----------------------------------------------------------------------------|

e----------------------------------------------------------------------------|
b----------------------------------------------------------------------------|
g--11-11-11---)--------------------------------------------------------------|
d--11-11-11--9---9--7--------------------------------------------------------|
a---9--9--9------------------------------------------------------------------|
e----------------------------------------------------------------------------|

e----------------------------------------------------------------------------|
b----------------------------------------------------------------------------|
g--11-11-11-11-11-11-11-11-11-11-11-11-11-11-11-11-11-11-11-11-11-11-11\-----|
d--11-11-11-11-11-11-11-11-11-11-11-11-11-11-11-11-11-11-11-11-11-11-11\-----|
a---9--9--9--9--9--9--9--9--9--9--9--9--9--9--9--9--9--9--9--9--9--9--9\-----|
e----------------------------------------------------------------------------|

e----------------------------------------------------------------------------|
b----------------------------------------------------------------------------|
g----------------------------------------------------------------------------|
d--4-4-4-4-4-4-4-4-----------------------------------------------------------|
a--4-4-4-4-4-4-4-4-----------------------------------------------------------|
e--2-2-2-2-2-2-2-2-----------------------------------------------------------|

CHORUS
e----------------------------------------------------------------------------|
b--3--3---------------------------3--3---------------------------------------|
g--2--2-0-2--2-0--5--5-0--4--4-0--2--2--0-2--2-0--5--5-0--4--4-4-------------|
d--0--0-0-2--2-0--5--5-0--4--4-0--0--0--0-2--2-0--5--5-0--4--4-4-------------|
a-------0-0--0-0--3--3-0--2--2-0--------0-0--0-0--3--3-0--2--2-2-------------|
e----------------------------------------------------------------------------|

play that 2 times, then
e----------------------------------------------------------------------------|
b----------------------------------------------------------------------------|
g----------------------------------------------------------------------------|
d---------------)-----------------)-----------------)-----------------)------|
a--4--4-----4--7-----4--4-----4--7-----4--4-----4--7-----4--4-----4--7-------|
e--2--2--0--2--5--0--2--2--0--2--5--0--2--2--0--2--5--0--2--2--0--2--5--0----|

SOLO (tremelo throughout)
e----------------------------------------------------------------------------|
b----------------------------------------------------------------------------|
g--11--11--11--11---11--11--11--11---11--11--11--11---11--10--9--7\----------|
d----------------------------------------------------------------------------|
a---9---9---9---9----9---9---9---9----9---9---9---9----9---8--7--5\----------|
e----------------------------------------------------------------------------|

e----------------------------------------------------------------------------|
b----------------------------------------------------------------------------|
g--/14--14--14--14---14--14--14--14---14--14--14--14---14--13-12-(12)\-------|
d----------------------------------------------------------------------------|
a--/12--12--12--12---12--12--12--12---12--12--12--12---12--11-10-(10)\-------|
e----------------------------------------------------------------------------|

e----------------------------------------------------------------------------|
b-----------------------(18)----(18)-----(18)(18)-----(18)-------------------|
g--/17--17--17--17---17--17--17--17---17--17--17--17---17--18--16--15--14\---|
d----------------------------------------------------------------------------|
a--/15--15--15--15---15--15--15--15---15--15--15--15---15--16--14--13--12\---|
e----------------------------------------------------------------------------|

e-----------------------------------------------------------------------------|
b-----------------------------------------------------------------------------|
g--/19--19--19--19---19--19--19--19---19--19--19--19---20--20--21--21--22--22-|
d-----------------------------------------------------------------------------|
a--/17--17--17--17---17--17--17--17---17--17--17--17---18--18--19--19--20--20-|
e-----------------------------------------------------------------------------|

END
e----------------------------------------------------------------------------|
b----------------------------------------------------------------------------|
g----------------------------------------------------------------------------|
d--4-------------------------------------------------------------------------|
a--4-------------------------------------------------------------------------|
e--2-------------------------------------------------------------------------|


_____________________________________________________________________________

Lithium
_____________________________________________________________________________

TUNING:

Tune down 1 whole step

INTRO
e----------------------------------------------------------------------------|
b----------------------------------------------------------------------------|
g-------------------------6--x-----------------------------7--7--7-----------|
d-------------------------6--x---------7------5--5-5--5/7--7--7--7-----------|
a-------------6--------4-------------7--------3--3-3--3/5--5--5--5--0--------|
e--0--x--0--4----x--0----------0--5-------0----------------------------------|

e----------------------------------------------------------------------------|
b----------------------------------------------------------------------------|
g---------------7--7--7------------------------------------------------------|
d--4--4-4--4/7--7--7--7------------------------------------------------------|
a--2--2-2--2/5--5--5--5--0---------------------------------------------------|
e----------------------------------------------------------------------------|

VERSE
e----------------------------------------------------------------------------|
b-------------------------------------------------5--------------------------|
g-------------------------6--x--------------------5-------------7------------|
d-------------------------6--x----------7------5-----5--5/7--7--7------------|
a--------------6-------4-------------7---------3-----3--3/5--5-----0---------|
e--0--x--0--4----x--0----------0--5-------0----------------------------------|

e----------------------------------------------------------------------------|
b-----4-------------7--------------------------------------------------------|
g-----4-------------7--------------------------------------------------------|
d--4-----4--4/7--7-----------------------------------------------------------|
a--2-----2--2/5--5-----------------------------------------------------------|
e----------------------------------------------------------------------------|

play that 3 times, then
e----------------------------------------------------------------------------|
b-------------------------------------------------5--------------------------|
g-------------------------6--x--------------------5-------------7------------|
d-------------------------6--x----------7------5-----5--5/7--7--7------------|
a--------------6-------4-------------7---------3-----3--3/5--5-----0---------|
e--0--x--0--4----x--0----------0--5-------0----------------------------------|

with distortion
e----------------------------------------------------------------------------|
b----------------------------------------------------------------------------|
g---------------7--7---------------------------------------------------------|
d--4--4-4--4/7--7--7---------------------------------------------------------|
a--2--2-2--2/5--5--5--0------------------------------------------------------|
e----------------------------------------------------------------------------|

CHORUS
e----------------------------------------------------------------------------|
b----------------------------------------------------------------------------|
g------------------6--6---------------5--5-5--5/7--7--7----------------------|
d--2--2----6--6----6--6----7--7--7----5--5-5--5/7--7--7----------------------|
a--2--2----6--6----4--4----7--7--7----3--3-3--3/5--5--5--0-------------------|
e--0--0-0--4--4-0-------0--5--5--5-0-----------------------------------------|

e----------------------------------------------------------------------------|
b----------------------------------------------------------------------------|
g--4--4-4--4/7--7--7---------------------------------------------------------|
d--4--4-4--4/7--7--7---------------------------------------------------------|
a--2--2-2--2/5--5--5--0------------------------------------------------------|
e----------------------------------------------------------------------------|
play that 3 times

BRIDGE
e----------------------------------------------------------------------------|
b----------------------------------------------------------------------------|
g----------5--5--------------5------------------5--5--------------5----------|
d--7--7----5--5-----7--7-----5----------7--7----5--5-----7--7-----5----------|
a--7--7----3--3-----7--7-----3----------7--7----3--3-----7--7-----3----------|
e--5--5-0--------0--5--5-0-----0--3--4--5--5-0--------0--5--5--0-----0--3--4-|

play that 4 times, then
e----------------------------------------------------------------------------|
b----------------------------------------------------------------------------|
g----------------------------------------------------------------------------|
d--7-7-7-7-7-7-7---4-4-4-4-4-------------------------------------------------|
a--5-5-5-5-5-5-5-0-2-2-2-2-2-------------------------------------------------|
e------------------------------0--3------------------------------------------|

END
e----------------------------------------------------------------------------|
b----------------------------------------------------------------------------|
g----------------------------------------------------------------------------|
d----------------------------------------------------------------------------|
a----------------------------------------------------------------------------|
e--0-------------------------------------------------------------------------|

_____________________________________________________________________________

Polly
_____________________________________________________________________________

TUNING:

Normal tuning

INTRO
e----------------------------------------------------------------------------|
b----------------------------------------------------------------------------|
g-----------------------7--7--x--5--5--5-------------------------------------|
d--2--x--0--5--5--x--0--7--7--x--5--5--5--0----------------------------------|
a--2--x--0--5--5--x--0--5--5--x--3--3--3--0----------------------------------|
e--0--x--0--3--3--x----------------------------------------------------------|
 play that 2 times

VERSE
e----------------------------------------------------------------------------|
b----------------------------------------------------------------------------|
g-----------------------7--7--x--5--5--5-------------------------------------|
d--2--2--0--5--5--x--0--7--7--x--5--5--5--0--2--x--0--5--5--x--0-------------|
a--2--2--0--5--5--x--0--5--5--x--3--3--3--0--2--x--0--5--5--x--0-------------|
e--0--0--0--3--3--x--------------------------0--x--0--3--3--x----------------|

e----------------------------------------------------------------------------|
b----------------------------------------------------------------------------|
g--7--7--x--5--5--5----------------------------------------------------------|
d--7--7--x--5--5--5--0-------------------------------------------------------|
a--5--5--x--3--3--3--0-------------------------------------------------------|
e----------------------------------------------------------------------------|
play that 2 times

CHORUS
e----------------------------------------------------------------------------|
b----------------------------------------------------------------------------|
g--7--x--5--5--5----------------------------7--7--x--5--5--5-----------------|
d--7--x--5--5--5--0--5--5--x--8--8--8--x-x--7--7--x--5--5--5--0--------------|
a--5--x--3--3--3--0--5--5--x--8--8--8--x-x--5--5--x--3--3--3--0--------------|
e--------------------3--3--x--6--6--6--x-x-----------------------------------|

e----------------------------------------------------------------------------|
b----------------------------------------------------------------------------|
g-----------------------7--7--x--5----5--5-----------------------------------|
d--5--5--x--8--8--8--0--7--7--x--5----5--5--0--5--5--x--8--8--8--x-x---------|
a--5--5--x--8--8--8--0--5--5--x--3-3--3--3--0--5--5--x--8--8--8--x-x---------|
e--3--3--x--6--6--6--0-------------------------3--3--x--6--6--6--x-x---------|

e----------------------------------------------------------------------------|
b----------------------------------------------------------------------------|
g--7--7--x--5--5--5----------------------------------------------------------|
d--7--7--x--5--5--5--0--5--5--x--8----8--8--x-x------------------------------|
a--5--5--x--3--3--3--0--5--5--x--8----8--8--x-x------------------------------|
e-----------------------3--3--x--6-6--6--6--x-x------------------------------|

e----------------------------------------------------------------------------|
b----------------------------------------------------------------------------|
g--7--7--x--5--5--5--------------------------7--7--x--5--5--5----------------|
d--7--7--x--5--5--5--0--5--5--x--8--8--8--0--7--7--x--5--5--5--0-------------|
a--5--5--x--3--3--3--0--5--5--x--8--8--8--0--5--5--x--3--3--3--0-------------|
e-----------------------3--3--x--6--6--6--0----------------------------------|

e----------------------------------------------------------------------------|
b----------------------------------------------------------------------------|
g-----------------------7--7--x--5--5--5-------------------------------------|
d--5--5--x--8--8--8--0--7--7--x--5--5--5--0--5--5--x--8--8--8--0-------------|
a--5--5--x--8--8--8--0--5--5--x--3--3--3--0--5--5--x--8--8--8--0-------------|
e--3--3--x--6--6--6--0-----------------------3--3--x--6--6--6--0-------------|

e----------------------------------------------------------------------------|
b----------------------------------------------------------------------------|
g--7--7--x--5--5--5----------------------------------------------------------|
d--7--7--x--5--5--5--0--5--5--x--8--8--8--0----------------------------------|
a--5--5--x--3--3--3--0--5--5--x--8--8--8--0----------------------------------|
e-----------------------3--3--x--6--6--6--0----------------------------------|

VERSE
e----------------------------------------------------------------------------|
b----------------------------------------------------------------------------|
g-----------------------7--7--x--5--5--5-------------------------------------|
d--2--x--0--5--5--x--0--7--7--x--5--5--5--0----------------------------------|
a--2--x--0--5--5--x--0--5--5--x--3--3--3--0----------------------------------|
e--0--x--0--3--3--x----------------------------------------------------------|

play that 6 times
then after 2nd time chorus is played
e----------------------------------------------------------------------------|
b----------------------------------------------------------------------------|
g----------------------------------------------------------------------------|
d--2-------------------------------------------------------------------------|
a--2-------------------------------------------------------------------------|
e--0-------------------------------------------------------------------------|

END
e----------------------------------------------------------------------------|
b----------------------------------------------------------------------------|
g----------------------------------------------------------------------------|
d--2-------------------------------------------------------------------------|
a--2-------------------------------------------------------------------------|
e--0-------------------------------------------------------------------------|

_____________________________________________________________________________

Territorial Pissings
_____________________________________________________________________________

TUNING:

Normal tuning

INTRO
e----------------------------------------------------------------------------|
b----------------------------------------------------------------------------|
g-----------------------------10-10-10-10-10-10-10---------------------------|
d----7---7--7--7--7--7--7-----10-10-10-10-10-10-10-----12-12-12-12-12-12-----|
a--7-7---7--7--7--7--7--7--0---8--8--8--8--8--8--8--0--12-12-12-12-12-12-----|
e--5-----5--5--5--5--5--5--0------------------------0--10-10-10-10-10-10-----|

e----------------------------------------------------------------------------|
b----------------------------------------------------------------------------|
g----------------------------------------------------------------------------|
d--12-12-12-12-12-12-12-12-12-12-12------------------------------------------|
a--12-12-12-12-12-12-12-12-12-12-12--0---------------------------------------|
e--10-10-10-10-10-10-10-10-10-10-10--0---------------------------------------|

e----------------------------------------------------------------------------|
b----------------------------------------------------------------------------|
g---------------------------10-10-10-10-10-10-10-----------------------------|
d----7--7--7--7--7--7--7----10-10-10-10-10-10-10-----------------------------|
a----7--7--7--7--7--7--7--0--8--8--8--8--8--8--8--0--------------------------|
e----5--5--5--5--5--5--5--0-----------------------0--------------------------|

e----------------------------------------------------------------------------|
b----------------------------------------------------------------------------|
g----------------------------------------------------------------------------|
d--12-12-12-12-12-12-12-12-12-12-12-12-12-12-12------------------------------|
a--12-12-12-12-12-12-12-12-12-12-12-12-12-12-12--0---------------------------|
e--10-10-10-10-10-10-10-10-10-10-10-10-10-10-10--0---------------------------|

VERSE/CHORUS
e----------------------------------------------------------------------------|
b----------------------------------------------------------------------------|
g-------------------------10-10-10-10-10-10-10-------------------------------|
d--7--7--7--7--7--7--7----10-10-10-10-10-10-10-----12-12-12-12-12-12-12-12---|
a--7--7--7--7--7--7--7--0--8--8--8--8--8--8--8--0--12-12-12-12-12-12-12-12---|
e--5--5--5--5--5--5--5--0-----------------------0--10-10-10-10-10-10-10-10---|

e----------------------------------------------------------------------------|
b----------------------------------------------------------------------------|
g----------------------------------------------------------------------------|
d--12-12-12-12-12-12-12------------------------------------------------------|
a--12-12-12-12-12-12-12--0---------------------------------------------------|
e--10-10-10-10-10-10-10--0---------------------------------------------------|

play that 10 times, then
e----------------------------------------------------------------------------|
b----------------------------------------------------------------------------|
g----------------------------------------------------------------------------|
d----------------------------------------------------------------------------|
a--------7--------7--------7--------7--------7--------7--------7--------7----|
e--5--5--5--5--5--5--5--5--5--5--5--5--5--5--5--5--5--5--5--5--5--5--5--5----|

e----------------------------------------------------------------------------|
b--------------------------------------------------------7-------------------|
g----------------------------------------------------------7-----------------|
d------------------------------------------------------------7---------------|
a--------7--------7--------7--------7--------7--------7--------7-------------|
e--5--5--5--5--5--5--5--5--5--5--5--5--5--5--5--5--5--5--------5-------------|

END
e----------------------------------------------------------------------------|
b----------------------------------------------------------------------------|
g----------------------------------------------------------------------------|
d--7-------------------------------------------------------------------------|
a--7-------------------------------------------------------------------------|
e--5-------------------------------------------------------------------------|


_____________________________________________________________________________

Drain You
_____________________________________________________________________________

TUNING:

Tune down 1 whole step

INTRO
e----------------------------------------------------------------------------|
b----------------------------------------------------------------------------|
g--4--4-4--4/8--8-8--0--------0--6--6-6--0--4--4-4--4/8--8-8--0--------0--6--|
d--4--4-4--4/8--8-8--0--6--6--0--6--6-6--0--4--4-4--4/8--8-8--0--6--6--0--6--|
a--2--2-2--2/6--6-6--0--6--6--0--4--4-4--0--2--2-2--2/6--6-6--0--6--6--0--4--|
e-----------------------4--4-------------------------------------4--4--------|

with distortion
e----------------------------------------------------------------------------|
b----------------------------------------------------------------------------|
g--6-6--0--------------------------------------------------------------------|
d--6-6--0--------------------------------------------------------------------|
a--4-4--0--------------------------------------------------------------------|
e----------------------------------------------------------------------------|

VERSE
e----------------------------------------------------------------------------|
b----------------------------------------------------------------------------|
g--4--4-4--4/8--8-8--0--------0--6--6-6--0-----------------------------------|
d--4--4-4--4/8--8-8--0--6--6--0--6--6-6--0-----------------------------------|
a--2--2-2--2/6--6-6--0--6--6--0--4--4-4--0-----------------------------------|
e-----------------------4--4-------------------------------------------------|
play that 6 times

PRE-CHORUS
e----------------------------------------------------------------------------|
b----------------------------------------------------------------------------|
g----------------------------------------------------------------------------|
d--4--4-----2----------------------------------------------------------------|
a--4--4-----2----------------------------------------------------------------|
e--2--2--0--0--0-------------------------------------------------------------|

CHORUS
e----------------------------------------------------------------------------|
b----------------------------------------------------------------------------|
g--6-6-6-6-6-6-6-0-----------------------------------------------------------|
d--6-6-6-6-6-6-6-0-2-2-2-2-2-2-2---------------------------------------------|
a--4-4-4-4-4-4-4-0-2-2-2-2-2-2-2---------------------------------------------|
e------------------0-0-0-0-0-0-0-0-------------------------------------------|

play that 3 times, then
e----------------------------------------------------------------------------|
b----------------------------------------------------------------------------|
g--6-6-6-6-6-6-6-0-----------------------------------------------------------|
d--6-6-6-6-6-6-6-0-----------------------------------------------------------|
a--4-4-4-4-4-4-4-0-----------------------------------------------------------|
e----------------------------------------------------------------------------|

then
e----------------------------------------------------------------------------|
b----------------------------------------------------------------------------|
g--4--------2----------------------------------------------------------------|
d--4--------2---------6------------------------------------------------------|
a--2--------0---------6------------------------------------------------------|
e---------------------4------------------------------------------------------|

before 2nd verse
e----------------------------------------------------------------------------|
b----------------------------------------------------------------------------|
g----------------------------------------------------------------------------|
d--6/-\----------------------------------------------------------------------|
a--6/-\----------------------------------------------------------------------|
e--4/-\----------------------------------------------------------------------|

after 2nd chorus
e----------------------------------------------------------------------------|
b----------------------------------------------------------------------------|
g--4--------2----------------------------------------------------------------|
d--4--------2---------6------------------------------------------------------|
a--2--------0---------6------------------------------------------------------|
e---------------------4------------------------------------------------------|

in the background there are studio noises, but hold this note
e----------------------------------------------------------------------------|
b----------------------------------------------------------------------------|
g----------------------------------------------------------------------------|
d--6-------------------------------------------------------------------------|
a--6-------------------------------------------------------------------------|
e--4-------------------------------------------------------------------------|

then this chord, played alternating between distortion and clean
e--0----------------------------0--------------------------------------------|
b--0----------------------------0--------------------------------------------|
g--0----------------------------0--------------------------------------------|
d----------------------------------------------------------------------------|
a----------------------------------------------------------------------------|
e----------------------------------------------------------------------------|

play that 4 times, then
e----------------------------------------------------------------------------|
b----------------------------------------------------------------------------|
g--5\--4\--3\--2\--1/--2/--3/--4/--5-----------------------------------------|
d--5\--4\--3\--2\--1/--2/--3/--4/--5-----------------------------------------|
a--5\--4\--3\--2\--1/--2/--3/--4/--5-----------------------------------------|
e----------------------------------------------------------------------------|

then with distortion
e----------------------------------------------------------------------------|
b--4-(5)--2/3---4---5/---6/---7/---8-----10--------14-------16/--------18/---|
g----------------------------------------10--------14-------16/--------18/---|
d-----------------------------------------------------------16/--------18/---|
a----------------------------------------------------------------------------|
e----------------------------------------------------------------------------|

END
e----------------------------------------------------------------------------|
b----------------------------------------------------------------------------|
g--4--------2----------------------------------------------------------------|
d--4--------2---------6------------------------------------------------------|
a--2--------0---------6------------------------------------------------------|
e---------------------4------------------------------------------------------|

_____________________________________________________________________________

Lounge Act
_____________________________________________________________________________

TUNING:

Normal tuning

INTRO
e-----------------------------------------------------------------------------|
b---------------------------0-------------------------------------0-----------|
g--4--x--4---4--4--0--0--0--0--5--5-5----4--x--4---4--4--0--0--0--0--5--5-5---|
d--4--x--4---4--4--0--0--0--0--5--5-5-0--4--x--4---4--4--0--0--0--0--5--5-5-0-|
a--2--x--2-2-2--2--0--------0--3--3-3-0--2--x--2-2-2--2--0--------0--3--3-3-0-|
e---------------------3--3----------------------------------3--3--------------|

VERSE
e----------------------------------------------------------------------------|
b---------------------------0------------------------------------------------|
g--4--x--4---4--4--0--0--0--0--5--5-5----------------------------------------|
d--4--x--4---4--4--0--0--0--0--5--5-5-0--------------------------------------|
a--2--x--2-2-2--2--0--------0--3--3-3-0--------------------------------------|
e---------------------3--3---------------------------------------------------|
play that 4 times.

CHORUS
e--0-------------------------------0--0--------------------------------------|
b--0--0--2--2-2-0--3--0--0--0-0-0--0--0--0--2--2-2-0--3-3--0--0--0-0-0-------|
g--x--0--2--2-2-0--2--0--0--0-0-0--x--x--0--2--2-2-0--2-2--0--0--0-0-0-------|
d--2--0--2--2-2-0--0--0--0--0-0-0--2--2--0--2--2-2-0--0-0--0--0--0-0-0-------|
a--2--0--0--0-0-0--0--0------------2--2--0--0--0-0-0--0-0--0-----------------|
e--0---------------------3---------0--0-----------------------3--------------|

e--0-------------------------------0--0--------------------------------------|
b--0--0--2--2-2-0--3--0--0--0-0-0--0--0--0--2--2-2-0--3-3--0--0--0-0-0-------|
g--x--0--2--2-2-0--2--0--0--0-0-0--x--x--0--2--2-2-0--2-2--0--0--0-0-0-------|
d--2--0--2--2-2-0--0--0--0--0-0-0--2--2--0--2--2-2-0--0-0--0--0--0-0-0-------|
a--2--0--0--0-0-0--0--0------------2--2--0--0--0-0-0--0-0--0-----------------|
e--0---------------------3---------0--0-----------------------3--------------|

then
e----------------------------------------------------------------------------|
b--2-----------------------0--0---2---------------------0--0-----------------|
g--2--------------------0--0--0---2------------------0--0--0-----------------|
d--2----------------0---0--0--0---2-------------0----0--0--0-----------------|
a--0--------------3---------------0-----------3------------------------------|
e---------------4-------3--3----------------4--------3--3--------------------|

END
e----------------------------------------------------------------------------|
b--2-------------------------------------------------------------------------|
g--2-------------------------------------------------------------------------|
d--2-------------------------------------------------------------------------|
a--0-------------------------------------------------------------------------|
e----------------------------------------------------------------------------|


_____________________________________________________________________________

Stay Away
_____________________________________________________________________________

TUNING:

Normal tuning

INTRO
e----------------------------------------------------------------------------|
b--3-3----------------------------3-3----------------------------------------|
g--2-2--0-4-4--0------0-5----5-0--2-2--0-4-4--0------0-5----5-0--------------|
d--0-0--0-4-4--0-3-3--0-5----5-0--0-0--0-4-4--0-3-3--0-5----5-0--------------|
a-------0-2-2--0-3-3--0 3--0-3-0-------0-2-2--0-3-3--0 3--0-3-0--------------|
e----------------1-1----------------------------1-1--------------------------|
play that 2 times

VERSE
e----------------------------------------------------------------------------|
b---------------)-------------------------------------)----------------------|
g--4/5--5--5---5--(5)--------------------4/5--5--5---5--(5)------------------|
d----------------------------------------------------------------------------|
a----------------------------------------------------------------------------|
e----------------------------------------------------------------------------|

e----------------------------------------------------------------------------|
b---------------)-------------------------------------)----------------------|
g--4/5--5--5---5--(5)--------------------4/5--5--5---5--(5)------------------|
d----------------------------------------------------------------------------|
a----------------------------------------------------------------------------|
e----------------------------------------------------------------------------|

CHORUS
e----------------------------------------------------------------------------|
b--3-3----------------------------3-3----------------------------------------|
g--2-2--0-4-4--0------0-5----5-0--2-2--0-4-4--0------0-5----5-0--------------|
d--0-0--0-4-4--0-3-3--0-5----5-0--0-0--0-4-4--0-3-3--0-5----5-0--------------|
a-------0-2-2--0-3-3--0 3--0-3-0-------0-2-2--0-3-3--0 3--0-3-0--------------|
e----------------1-1----------------------------1-1--------------------------|
play that 2 times.

BRIDGE
e----------------------------------------------------------------------------|
b--3----------------------------------------------------------)--------------|
g--2------------------------------------------------3--3--3--3--(3)----------|
d--0------------------------4------4--------4--------------------------------|
a---------------------------4-----------4---4--------------------------------|
e---------------------------2-----------2------------------------------------|

after the second time you play the bridge, repeat chorus,
then after drums and bass play,
Fade-in ...................
e----------------------------------------------------------------------------|
b----------------------------------------------------------------------------|
g--0----------0-----------0--------------------------------------------------|
d--0----------0-----------0--------------------------------------------------|
a--0----------0-----------0--------------------------------------------------|
e----------------------------------------------------------------------------|
Tremelo ...................

END
e----------------------------------------------------------------------------|
b--3-------------------------------------------------------------------------|
g--2-------------------------------------------------------------------------|
d--0-------------------------------------------------------------------------|
a----------------------------------------------------------------------------|
e----------------------------------------------------------------------------|


_____________________________________________________________________________

On A Plain
_____________________________________________________________________________

TUNING:

Drop D tuning

INTRO
e----------------------------------------------------------------------------|
b----------------------------------------------------------------------------|
g------------------------------16--------------------16----------------------|
d--15--------------------------15--------------------15----------------------|
a--14----------------------14------------------------14----------------------|
e--13---12-(13)-(12)-(13)---------12-(13)-(12)-(13)-----12-(13)-(12)-(13)-12-|

VERSE
e----------------------------------------------------------------------------|
b----------------------------------------------------------------------------|
g--7--7------------------------------7--7------------------------------------|
d--7--7-0--5--5----------------------7--7-0--5--5----------------------------|
a--5--5-0--5--5--0--3-3--0--2-3-2-0--5--5-0--5--5--0--3-3--0--2-3-2-0--------|
e----------5--5--0--3-3--0--2-3-2-0----------5--5--0--3-3--0--2-3-2-0--------|

then
e----------------------------------------------------------------------------|
b----------------------------------------------------------------------------|
g--7--7----5--5----4--4----2-2-2---------------------------------------------|
d--7--7-0--5--5-0--4--4-0--2-2-2-0-------------------------------------------|
a--5--5-0--3--3-0--2--2-0--0-0-0-0-------------------------------------------|
e----------------------------------------------------------------------------|

e----------------------------------------------------------------------------|
b----------------------------------------------------------------------------|
g--7--7----------------------------------------------------------------------|
d--7--7-0--5--5--------------------------------------------------------------|
a--5--5-0--5--5--0--3-3--0--2-3-2-0------------------------------------------|
e----------5--5--0--3-3--0--2-3-2-0------------------------------------------|
play all of that twice until the chorus

e----------------------------------------------------------------------------|
b----------------------------------------------------------------------------|
g--7--7-7--7-7-7-7-----------------------------------------------------------|
d--7--7-7--7-7-7-7-10-10-10-10-10-10-10--0-----------------------------------|
a--5--5-5--5-5-5-5--8--8--8--8--8--8--8--0-----------------------------------|
e----------5-5-5-5--8--8--8--8--8--8--8--0-----------------------------------|
play that 4 times

BRIDGE
e----------------------------------------------------------------------------|
b----------------------------------------------------------------------------|
g-----------------------------------2--2--2--2-2-2---------------------------|
d-----------------------------------2--2--2--2-2-2---------------------------|
a--3--3--3--3-3-3--2--2--2--2-2-2---0--0--0--0-0-0---5-5-5-5-5-5-5-5---------|
e--3--3--3--3-3-3--2--2--2--2-2-2--------------------5-5-5-5-5-5-5-5---------|

play that 3 times, then
e----------------------------------------------------------------------------|
b----------------------------------------------------------------------------|
g-----------------------------------2--2--2--2-2-2---------------------------|
d-----------------------------------2--2--2--2-2-2---------------------------|
a--3--3--3--3-3-3--2--2--2--2-2-2---0--0--0--0-0-0---5-5-5-5-5-5-5-5---------|
e--3--3--3--3-3-3--2--2--2--2-2-2--------------------5-5-5-5-5-5-5-5---------|

_____________________________________________________________________________

Something In The Way
_____________________________________________________________________________

TUNING:

Drop D tuning down 1/2 step

INTRO/VERSE
e----------------------------------------------------------------------------|
b----------------------------------------------------------------------------|
g----------------------------------------------------------------------------|
d--4----4----4--4--0----0----0--0--------------------------------------------|
a--4----4----4--4--0----0----0--0--------------------------------------------|
e--4----4----4--4--0----0----0--0--------------------------------------------|

play that 11 times, then
e----------------------------------------------------------------------------|
b--------------------------0--0--0--0----------------------------------------|
g--------------------------0--0--0--0----------------------------------------|
d--4----4----4--4--0----0--0--0--0--0----------------------------------------|
a--4----4----4--4--0----0--0--0--0--0----------------------------------------|
e--4----4----4--4--0----0--0--0--0--0----------------------------------------|

CHORUS
e----------------------------------------------------------------------------|
b----------------3--3-3-3----------------------------------------------------|
g----------------2--2-2-2-0--------------------------------------------------|
d--4--4-4-4-4-0--0--0-0-0-0--------------------------------------------------|
a--4--4-4-4-4-0--------------------------------------------------------------|
e--4--4-4-4-4-0--------------------------------------------------------------|

play that 11 times, then
e----------------------------------------------------------------------------|
b----------------------------------------------------------------------------|
g----------------------------------------------------------------------------|
d--4--4-4-4-4-0--------------------------------------------------------------|
a--4--4-4-4-4-0--------------------------------------------------------------|
e--4--4-4-4-4-0--------------------------------------------------------------|

second time chorus is played, play it 15 times, then end with
e----------------------------------------------------------------------------|
b----------------------------------------------------------------------------|
g----------------------------------------------------------------------------|
d--4--4-4-4-4-0--------------------------------------------------------------|
a--4--4-4-4-4-0--------------------------------------------------------------|
e--4--4-4-4-4-0--------------------------------------------------------------|
comments
print report bad tab
14 comments total. Showing first comments.
0 reply
Repitition wrote on November 2 2006, 10:43 pm

This is from www.nirvana-music.com but it is right. So I'll give you 5 Stars but next time CREDIT the site.

0 reply
heavenfeather wrote on November 5 2006, 01:24 am

I agree but good job. 5 stars

0 reply
GNRfan54 wrote on December 11 2006, 10:05 pm

this is true-5 stars

I want to post or [tab]
guest
You may want to rate the tab now too:
select rating
Please do not post tabs as comments. Select "correction" instead!