Oops, an error
Loading. Please wait.

Nirvana Bass Tab Book Bass Tab

16,289 views 30 this week
9 commentsread comments
1 2 3 4 5
accurate
x 29
add to favorites launch autoscroll
font size
0
reset
Autoscroll
+/-
esc
set tempo
stop
Contributor
WARNING: You are trying to view
                                    content from Ultimate-Guitar.com
                                    in an unauthorized application,
                                    which is prohibited.

                                    Please use an official Ultimate
                                    Guitar Tabs application for iPhone,
                                    iPad or Android to access legitimate
                                    chords, guitar, bass, and drum tabs
                                    from Ultimate-Guitar.com database.

                                    Type "ultimate guitar tabs" in Apple
                                    App Store's or Android Market's
                                    search to find the application.
----------------------------------------------------------------------------
			     NIRVANA BASS BOOK - Nirvana
----------------------------------------------------------------------------
Tabbed By :dorris 
e-mail: cleandirt2001@hotmail.com

Comments:i got this off of the nirvana fan site cuz i wanted it on this no
but no one qould bothere stick on so here ya go
        

----------------------------------------------------------------------------
TABLE OF CONTENTS:
----------------------------------------------------------------------------


1) News, etc.

2) Some Words About Soundmaking

3) Tabs for Bleach 

1)      Blew
2)      Floyd The Barber
3)      About A Girl
4)      School
5)      Love Buzz
6)      Paper Cuts
7)      Negative Creep
8)      Scoff
9)      Swap Meet
10)     Mr. Moustache
11)     Siftings
12)     Big Cheese
13)     Downer

4) Tabs for Nevermind

1)      Smells Like Teen Spirit
2)      In Bloom
3)      Come As You Are
4)      Breed
5)      Lithium
6)      Polly
7)      Territorial Pissings
8)      Drain You
9)      Lounge Act
10)     Stay Away
11)     On A Plain
12)     Something In The Way

5) Tabs for Incesticide 

1)      Dive
2)      Sliver
3)      Stain
4)      Turnaround
5)      Been A Son
6)      Molly's Lips
7)      Son Of A Gun
8)      (New Wave) Polly
9)      Beeswax
10)     Downer
11)     Mexican Seafood
12)     Hairspray Queen
13)     Aero Zeppelin
14)     Big Long Now
15)     Aneurysm

6) Tabs for In Utero

1)      Serve The Servents
2)      Scentless Apprentice
3)      Heart-Shaped Box
4)      Rape Me
5)      Frances Farmer Will Have Her Revenge On Seattle
6)      Dumb
7)      Very Ape
8)      Milk It
9)      Pennyroyal Tea
10)     Radio Friendly Unit Shifter
11)     tourette's 
12)     All Apologies

7) Tabs for Unplugged In New York

1)      Jesus Doesn't Want Me For A Sunbeam
2)      The Man Who Sold The World
3)      Plateau
4)      Oh, Me
5)      Lake Of Fire
6)      Where Did You Sleep Last Night?

8) B-Sides And Rarities 

1)      Bambi Slaughter
2)      Born In A Junkyard 
3)      D-7
4)      Endless, Nameless 
5)      Even In His Youth
6)      Formaldehyde
7)      Help Me, I'm Hungry
8)      I Hate Myself And Want To Die
9)      In His Room 
10)     Marigold
11)     Misery Loves Company 
12)     Moist Vagina
13)     My Sharona
14)     Oh, The Guilt
15)     You Know You're Right (updated!)
16)     Opinion
17)     Return Of The Rat
18)     Sappy (Verse Chorus Verse)
19)     Talk To Me
20)     The Eagle Has Landed
21)     The Money Will Roll Right In
22)     Curmudgeon
23)     Blandest

----------------------------------------------------------------------------
SOME WORDS ABOUT SOUNDMAKING
----------------------------------------------------------------------------

In order to get that 'GrUnGe' sound, you should use a bass
with humbucker pickups, and a distortion pedal as well.
The bass most frequently used by Krist Novoselic was the
Gibson RD Artist, the 'black sheep' of basses. It's pretty
rare, but if you find one, buy it!

The pedals used most frequently by Krist was the Big Muff (fuzz)
and the ProCo RAT, since they don't take away that much bottom.

Now you're ready to rock on!
----------------------------------------------------------------------------
And now, ladies and gents, I give thee: The Tabulatures :)
Enjoy or something:) 

BLEACH 
------


1) Blew
   ----

Play with HEAVY DISTORTION!! (Most of the songs on this album
                              are played with distortion)


   Intro
G--------------------||
D--------------------||    Repeat 4 times
A--------------------||
E--0-0-2-2h(3)-3-2---||

    1 + 2 +  3  + 4 +



   Verses
G------------------------|-----------------------------|
D------------------------|-----------------------------|
A------------------------|-----------------------------|
E-0---3-5-5b(1/2)-(6)r5--|---3-0-0-5b(1/2)---5b(1/2)---|

   1 + 2 +    3     4  +      + 2 + 3         4
   If you wouldn't mind...



G-----------------------|-----------------------------||
D-----------------------|-----------------------------||
A-----------------------|-----------------------------||
E-0-0-3-5b(1/2)-(6)r5---|---3-0-0-5b(1/2)---5b(1/2)---||

   1 + 2 +  3     4  +       + 2 + 3         4

    Chorus                                (2x)
G-------------------|----------------------||-----------------|
D-------------------|---------------------o||-----------------|
A-------------------|---------------------o||-----------------|
E---0-5---5-5-3-0---|-0-5---5-5-3-5b(1/2)--||-0-5---5-5-3-0---|

      1 +   + 3 + 4     1 +   + 3 +    4        1 +   + 3 + 4
      Is there another...

G-----------------|-----------------||
D-----------------|-----------------||
A-----------------|-----------------||
E-0-5---5-5-3-----|-6-6-6-6-6-6-6-6-||

   1 +   + 3 +       1 + 2 + 3 + 4 +

   Outro                            Repeat as necessary
G-------------------------||---------------------------||
D-------------------------||o-------------------------o||
A-------------------------||o-------------------------o||
E-0-0-3-5-5b(1/2)-(6)-r-0-||----0-3-5-5b(1/2)-(6)-r-0--||

   1 + 2 +   3      +    +       + 2 +   3      +    +
     You could do anything...

G---------------------------|--------------------|||
D---------------------------|--------------------|||
A---------------------------|--------------------|||
E---0-3-5-5b(1/2)-(6)-------|-(6)-r-5------------|||

     + 2 +    3     +           1    2

NOTE on "5b(1/2)" in my tab:  The actual 5th fret marking is just a
grace note.  The 1/2-step bend itself falls on the beat (usually).
The Sixth fret markings in parentheses "(6)" means that you should
strike the note WHILE BENDING, meaning that you should strike the string
while the string is still bend up half a step.

2) Floyd The Barber
   ----------------

Intro/Verse

G---------------|
D---------------| Repeat a lot:)
A---------------|
E---3-3-0-0-0---|

Chorus

G--------------------|
D--------------------|
A---3-3----2-2-------|
E------4-4-----3-3---|

3) About A Girl
   ------------

Tune down 1/2 step

   Play 4 times
G-----------------------------------|
D-----------------------------------|
A-----------------------------------|
E---0-0-0-3-3-3-3---0-0-0-3-3-3-3---|

   Play 4 times

G--------------------|-------------------------------|
D-------5-------5----|-------------------------------|
A---7-------7-------7|--4----------------------------|
E--------------------|---------4--------2-2----2-2---|

G-------------------------------------------------------------------|
D-------------------------------------------------------------------|
A---4-----------------------------------------------------7-7-7-7---|
E--------4------------2----2--------2----2------0---(0)-------------|

G-----------------------------------------------------------|
D-----------------------------------------------------------|
A----------3----3--3----------------------------------------|
E---5-5-5--------------0---0-0--3--3-3-3--0-0-3-------333---|

Now just repeat till the song is over


4) School
   ------

Tuning: G, D, A, Eb

G--------------------------------------|
D--------------------------------------|
A--------------------------------------|
E---0-00-5h5-0-0-5h5-0-0-0-0-0-0-5h5---|

Chorus

G-------------------------------------|
D-------------------------------------|
A---3-3-3-3-3-3-3-3-0-0-0-0-0-0-0-0---|
E-------------------------------------|

5) Love Buzz
   ---------

Intro/Verse
                       tr
G---------------------7-8---|
D---8-----6-8-9-------------|
A---------------------------|
E---------------------------|

Riff # 2

G-----7-----------7-----------7---7-8-8/10-8-7-------|
D---8---8-6-8-6-8---8-6-8-6-8---8--------------8-6-8-|
A----------------------------------------------------|
E----------------------------------------------------|

G------------------------------------------------|
D------------------------------------------------|
A------------5---------------------5-------------|
E---1--4--6-----6--4--6---1--4--6-----6--4--6----|


6) Paper Cuts
   ----------

Intro:
G----------------------|
D----------------------|
A----------------------|
E-1-1-1-1-1-1-*-1-1-1--|
   PM---------|  PM--|

Verse:
Same as intro

Chorus:
"The lady I feel maternal love for..."
E only

"I say so..."
G---------------------------|
D---------------------------|
A---------------------------|
E--2-3-3-4-4-5-5-6-7-\-6-6--|
"Nirvana!"

G----------------|
D----------------|
A----------------|
E--5\4-4--7\6-6--|

Post Chorus Riff:

G--------------------------|
D--------------------------|
A--------------------------|
E--2--2--2--2--2--2--2--2--|
   PM--|    PM--|    PM


7) Negative Creep
   --------------

Tuned In Dropped D Flat

G----------------------------------|                            
D----------------------------------|
A----------------------------------|
D---12-12-12-12-12-12-12-12-12\0---|

G------------------------|
D------------------------|
A------------------------|                  
D---0-0-0-0-0-0-0-0/12---|

Chorus

G--------------------------|
D--------------------------|
A---77p5----------5-8888---|
D-------7-777-67-----------|

Bridge (The Part Where The Guitar Plays And Kurt Just Screams)


G------------------------------------------------------|
D---------------------------1/2-----------------1/2----|
A--------------------------17b17---------------17b17---|
D---16-16-16-16-16-16-16-16-----5-5-5-5-5-5-5-5--------|

8) Scoff
   -----

You start off with this:      


G----------------------|
D----------------------|
A----------------------|
E---2-2-2-0-2--2-2-0---|

Repeat until the last few measures of
"Gimme back my alcohol"

G------------------|
D------------------|
A------------------|
E---2-2-0--2-2-0---|

Chorus: "Heal a million, Kill a million"

G-----------------------------|
D-----------------------------|
A---3-3-3-3--5-5-5-5--2-1-2---|
E-----------------------------|


9) Swap Meet
   ---------

G------------------------------------|
D------------------------------------|
A----------0-1-2-3-4---1-0-----------| 
E----0-3-----------------------3-0---|

G-------------------------------------------------|
D-------------------------------------------------|
A----3-2-1--1-1-0-1-0--0-0--1-0-------------------|
E------------------------------------4-3-2--2-2---|


10) Mr. Moustache
    -------------

G-------------------------------------|
D-------------------------------------|
A-----2---------------1---------------|
E---3---3-2-1-0-1-2-3---3-2-1-0-1-2---|

Verse

G-------------------------|
D-------------------------|                         
A-------------------------|
E---5--5-----------5--5---|
    Fill me in on your new vision...

Chorus

G-------------------------------|
D-------------------------------|
A---3---5-----5-----------5-5---|
E-------------------------------|
            Easy in an easy chair...

11) Siftings
    --------

G------------------------------------|
D------------------------------------|
A----------3----------------2\1--0---|
E--0-0-0---------0-0-0---------------|
       Afraid.......

Prechorus

G---------------------|
D---------------------|
A----------5------\---|
E--0-0-0--------------|
               Your eyes...

Chorus

G-------------------------------------|
D-------------------------------------|
A--5----5--5--5-5---------------------|
E---------------------5--5---5-3-0-0--|
                    Don't have nothing for you......
Solo

G------------|
D------------|
A------------|
E--0-0-0-0---| 

12) Big Cheese
    ----------

G-------------------------------|
D-------------------------------|
A---4-4-4-4-3-3-3-3-(or 3- 2)---|
E-------------------------------|
Big cheese...

G--------------------------------------|
D--------------------------------------|
A---4-4-4-4-4-4-4-4-0-2-0-3-4(x8)--0---|
E--------------------------------------|
Black is black...

During guitar solo:
G--------------------------------------------|
D---2-2-2--2-3-3-3--0--2-0-2-0-0-------------|
A----------------------------------------2---|
E--------------------------------------------|

13) Downer
    ------

G-----------------------|
D-----------------------|                       
A-----------------------|
E---0-0-0-8-8-8-8-8-8---|

G---------------||
D---------------||
A---1-2-3-2-1---|| Repeat alot or something:)
E---------------||

Interlude

G------------------------------------||
D------------------0-0-0-0-1-1-1-1---||
A---0-0-0-0-1-1-1-1------------------||
E------------------------------------||



NEVERMIND
---------



1) Smells Like Teen Spirit
   -----------------------

G------------------------------------||
D------------------------------------||
A----------1-1-1-----------4-4-4-0---||
E---1-1-1---------3-4-4-4------------||

Repeated through entire song. Add some more notes to make
it more fun to play; otherwise it's kinda boring...
Try making a little bass solo using a minor pentatonic
scale in F or something:)


2) In Bloom
   --------

Intro:

G------------------|--------------||
D---8\-------------|--------------||
A-----1--1-1-------|--------------||
E-------------/3---|-1--0-1-0-4---||

Verse:

G----------------|--------------|--------------|-------------------||
D----------------|--------------|-1-1-1-1-1--1-|-------------------||
A---1-1-1-1-1--1-|--------------|--------------|-2-2-2-2-0-0-0-0---||
E----------------|-2-2-2-2-2--2-|--------------|-------------------||

Chorus:

G-------------------------|----------------------------||
D-------------------------|----5-----------------------||
A---3--1-3-1-3------------|-3---1-3-1-2----------------||
E--------------3--0-1-2-3-|-------------3--0-3-0-3-0---||

Then, the bridge:

G-----------8----8\-|-----------8----8\---||
D----------------8\-|----------------8\---||
A-------------------|---------------------||
E---8-8-8-8-9-------|-1/8-8-8-8-9---------||

3) Come As You Are
   ---------------

Verse

G---------------------------------||
D---------7---7---------9-----9---||
A---7-8-9---9---9-9-8-7---7-7-----||
E---------------------------------||

Chorus

G-------------------------------------||
D-------------------------------------||
A-------------------------------------||
E---2-2-2-2-2-2-2-2-5-5-5-5-5-5-5-5---||

Bridge

G-------------------------------------||
D-------------------------------------||
A-------------------------------------||
E---2-2-2-2-2-2-2-2-5-5-5-5-5-5-5-5---||

G-------------------------------------||
D-------------------------------------||
A---2-2-2-2-2-2-2-2-5-5-5-5-5-5-5-5---||
E-------------------------------------||

4) Breed
   -----

G-------------------||
D-------------------||
A-------------------||  Bend as far
E---2-2-0-2/5b5-0---||  as you want or can :) Huhhuh...

 Chorus

G--------------------------------||
D--------------------------------||
A---5-5-5-5--5-3-3-3-3-2-2-2-2---||
E-----------------5-5-5-5--5-----||

5) Lithium
   -------

There's no bass for the entire first verse.

The bass comes in at the first chorus:

G-----------------------------------------------------------||
D-------------7----5-5-5----5-5-5-5-7-7-7-7-----------------||
A--------4----------------7-----------------2-2-2-2-5-5-5-5-||
E---0--0----0----0------------------------------------------||

Then, the second (and third) verse:

G------------------------------------------------------||
D-----------------------7--7-7-9-9-9-9-----------------||
A---7--7-6--6-4--4---------------------2-2-2-2-5-5-5-5-||
E------------------5--5--------------------------------||

The last time you play the above (last one before the chorus):

G-------------------------------------------------------||
D---------------------------7-------5-------------------||
A---7--7-6--6-4--4------5-5---5-3-3---3-2-2-2-2-5-5-5-5-||
E------------------5--5---------------------------------||

Play the chorus again, then the other chorus:

G-------------------------------------------------------------||
D---------------------------5-7--7-7-5---5--------------------||
A----------3--3-3-----3-5-7------------7---7--7-5-3-0-3-0-3-5-||
E---5--5-5--------5-5-----------------------------------------||

The bridge part, going into the third verse of ending the song:

G----------------------------------||---||
D----------------------------------||---||
A---2-2-2-2-2-2-2-2-0-0-0-0-0------||---||
E-----------------------------0-3--||-0-||
                                      ^
                                 End of song only.

Oh, and one time, the very last repetition of the other chorus part
during the second time its played, there is a variation that goes like
this:

G-----------------------------------------------5-------------||
D---------------------------5--7--7-7-5---5-7-7---7-5---------||Then go into
A----------3--3-3-----3-5-7-------------7-------------7-6-5-3-|| the above
E---5--5-5--------5-5-----------------------------------------|| bridge part.

6) Polly
   -----

Don't come till the chorus 

Verse

G------------------------------------||
D------------------------------------||
A---------------------5-5-3--3-3-3---||
E---0--0-0-3-3-3---------------------||

Chorus & Bridge

G-------------------------------------------||
D-------------------------------------------||
A---5--5-5--3--3-3-3------------------------||
E------------------------3--3-3--6--6-6-6---||

You Play The Chorus\Bridge part when there's nothing else playing but you

7) Territorial Pissings
   --------------------

G-------------------------------------------------------------||
D-------------------------------------------------------------||
A-------------------8-8-8-8-8-8-8-8-5-6-6-5-6-6-5-6-6-5-6-6---||
E---5-5-5-5-5-5-5-5-------------------------------------------||



G-------------------------------------------------------------||
D-------------------------------------------------------------||
A-------------------8-8-8-8-8-8-8-8-5-5-5-5-5-5-5-5-5-5-5-5---||
E---5-5-5-5-5-5-5-5-------------------------------------------||
 
8) Drain You
   ---------

G------------------------------------||
D------------------------------------||
A---2--2-2/5-5-5-5-----------5-5-0---||
D-------------------------4-4-4------||

Chorus

G-------------------------------------||
D-------------------------------------||
A---4-4-4-4-4-4-4-4-------------------||
D-------------------0-0-0-0-0-0-0-0---||

Bridge 

G-----------------------------||
D-----------------------------||
A-----------------------------||
D---0-0-0-0-0-0-0-0-0-0-0-0---|| Over and over again

9) Lounge Act
   ----------

Verse and Chorus

G-------------|-------|-----------|----------|-------|-------------||
D--------5----|-------|-----------|----------|-------|-------------||
A------6------|-------|---6-5-----|----6-5---|-------|---6-5-------||
E---/8------4-|-4-3-4-|-4-----8-6-|--8-----4-|-4-3-4-|-4-----8-7---||


Ending's like this

G-----------------------------||
D-----------------------------||                             
A-----------------------------||
E---5-5-5-5-5-4-4-4-3-3-3-3---||

10) Stay Away
    ---------

G-----------------------------------------------------|
D------------------------------------3-3-3------------|
A---5-5---------5-2-2---------2-------------2-0-2-3---|
E-----------------------------------------------------|

that's the chorus and the verse

The Part where there's no singing (The Bridge or whatever)

G---------------------------------------|
D-----------------6-----------------4---|
A------------6-6--6-----------4-4--4----|
E--4-4-4h6-------2-2-2h4----------------|

11) On a Plain
    ----------

G--------------------------|
D--------------------------|
A-5-5-5--------------------|
D------5-5-5-3-3-2-3-2-0---|


Then the chorus goes like this:

G-----------------------------|
D-----------------------------|
A-5-5-5-----------------------|
D------5-5-5-5--8-8-8-8-8-8---|


G----------------------------------------|
D----------------------------------------|
A--------------------0--0-0-0------------|
D-3--3-3-3--2--2-2-2----------5--5-5-5---|

12) Something In The Way
    --------------------

G-------------------------------|
D-------------------------------|
A-----0----0-0------------------|
D---4-----4---4-4-0---------0---|


Chorus:

G--------------------------|
D--------------------------|
A-0-0----0-0---------------|
D-----4-----4-4----4-4-0---|


INCESTICIDE
-----------

1) Dive
   ----

Intro/Verse

G------------------------|
D*---------------2-2-2---|
A*-----------------------|
E--2-0-2-0-2-0-0---------|

Chorus

G----------------------------------------|
D*-------------2-2---------------2-2-2---|
A*-2-2-4-4-------------------------------|
E----------3-3-----2-0-2-0-2-0-0---------|

Guitar Solo

G----------------------------|
D*---------------------------|
A*-13-11-13-11-13-11---------|
E--------------------12-12---|

2) Sliver
   ------


G-------------------------------|
D-------------------------------|
A--3--3-3--------3--1-0----0-1--|
E---------1--1-1---------3------|


3) Stain
   -----

Verse
G----------------|
D----------------|
A---1-2-33-3-3---|
E----------------|


Chorus
G------------------------------------|
D--------------------1-1-1-1-1-1-1---|
A---2-2--1-11-1----------------------|
E------------------------------------|


4) Turnaround
   ----------
Bass Intro
G-----------------------------------|
D-----------------------------------|
A---/7-7-7-7-7-7-7--0-0-0-0-0-0-0---| 
E-----------------------------------|

G------------------------------------|
D------------------------------------|
A-5-5-5---3-3-2--0-0-0-0-0-0-0-0-0---|
E------------------------------------|

G------------------|
D------------------|
A-5-5-5------------|
E----------3-2-0---|

G-----------------------------------|
D-----------------------------------|
A-----------------------------------|
E-1-1-1--3-3-3--(5-5-5-5-5-5-5-5)---| 

5) Been A Son
   ----------

Verse
G-------------------------------------|
D-------------------------------------|
A---5--5-5--3-2-0-5--5-5-5-5--3-2-0---|
E-------------------------------------|                                     

G-------------------------------------|
D-------------------------------------|
A---5--5-5--3-3-3---2-2-2-2-2-2-2-2---|
E-------------------------------------|
or one fret higher
    
G---7-7-7-5-4-2-0-2---|
D---------------------|
A---------------------|
E---------------------|

6) Molly's Lips
   ------------

G--------------------------------------------|
D--------------------------------------------|
A------------3--3--3-----------3--3--3--3----|
E--3--3--3------------3--3--3----------------|

7) Son of a Gun
   ------------

This song only has three main riffs.  Just listen
to the song to get the exact number of repeats.


Intro and also played under all the verses
G----------------------------|---------------------------||-
D----------------------------|---------------------------||-
A----------------7--7--7--7--|--5-----5--5--7--7--7--7---||-
E----5-----5--5--------------|---------------------------||-

     Chorus
G-----------------------------|--------------------------|-
D-----5--5--5--5--5--5--5--0--|--------------------------|-
A-----------------------------|--3-----3--3--3--3--3--4--|-
E-----------------------------|--------------------------|-

G--------------------------|--------------------------|-
D-----------------3--------|--------------------------|-
A--5-----3--4--5-----5--0--|--3--3--3--3--3--3--2--0--|-
E--------------------------|--------------------------|-

G---------------------------||
D---------------------------||
A-----------------------0---||
E--3-----3--3--3--3--3------||

G----------------------------|-
D-*--------------------------|-
A-*--------------------------|-
E----3-----3--3--3--3--3--3--|-

                  (2 times)
G---------------------------||---------------------------|-
D---------------------------||---------------------------|-
A--5--5--5--5--5--5--5--5---||---------------------------|-
E---------------------------||---5-----5--5--5--5--5--5--|-

                   (2 times)
G---------------------------||
D---------------------------||
A--7--7--7--7--7--7--7--7---||
E---------------------------||

8) (New Wave) Polly
   ----------------

Verse

G----------------------------------|
D----------------------------------|
A-----------------5-5-5-5-3-3-3-3--|
E-0-0-0-0-3-3-3-3------------------|

Chorus & Bridge

G--------------------------------------|
D--------------------------------------|
A--5-5-5-5-3-3-3-3---------------------|
E-------------------3-3-3-3-6-6-6-6----|


9) Beeswax
   -------

G-----------------------|
D-----------------------|
A-2-2-2-1-0-0-0-0-0-----|
E-------------------4-4-|


G------------------|
D------------------|
A------------------|
E--0-0-3-3-3-0-0-0-|

G----------|
D----------|
A----------|
E--2-2-2-1-|


10) Downer
    ------

G---------------------|
D---------------------|                     
A---------------------|
E-0-0-0-8-8-8-8-8-8---|

G-----------|
D-----------|
A-1-2-3-2-1-| Repeat a lot:)
E-----------|

Interlude

G----------------------------------|
D----------------0-0-0-0-1-1-1-1---|
A-0-0-0-0-1-1-1-1------------------|
E----------------------------------|

11) Mexican Seafood
    ---------------

G------------------------------|
D------------------------------|
A------------------------------|
E---5--5-5--3-3-3--0-0-0-0-0---|

G-------------------------------------------------------|
D-------------------------------------------------------|
A---------------------------------------------------3---|
E---0-3--5--5--5-5-5-5---5-5-5-5-5---3--3--5-5-5-5------|

G--------------------------------------|                                      
D--------------------------------------|
A--------------------------3-3-2-0-2---|
E---0--3-3-3-3--0--3-------------------|

G-------------------------------|
D-------------------------------|
A------------------5--3--0--2---|
E---0--3--5-5-------------------| 

12) Hairspray Queen
    ---------------

G----------------|
D----------8-----|
A--5---------7---|
E----0-3/--------|


13) Aero Zeppelin
    -------------

G-------|
D-------|
A-------|
E--0--0-|

G---------------------------|
D---------------------------|
A--6-6-6--2-2-0-1-1-0-------|
E----------------------3-0--|

G---------------------------------------|
D---------------------------------------|
A-------------4-4-4-4-4--0--2-1--1-1--0-|
E--6-6-6-6-6----------------------------|

G-----------------|
D-----------------|
A--0-0------------|
E---------3-3-3-2-| 

14) Big Long Now
    ------------

G------------------------|
D------------------------|
A-------4------5-5--6--5-|
E-6-6------6-------------|

G------------------------|
D------------------------|
A------------------------|
E-7-7-7-6-6-6-5-5-4--3---|

G------------------------|
D------------------------|
A---------5-5-5-4--4-4-4-|
E-6-6-6------------------|


15) Aneurysm
    --------

G---------------------------------|
D---------------------------------|
A-------2-2-2-2-3-3-3-3-0-0-0-0---|
E-2--2-2--------------------------|

G----------------------------------------------------------|
D----------------------------------------------------------|
A-2--2-2-x-2--2-2-x-2--2-2-x-5-5-5-5-5-5-5-5-5-5-5-5-5-5---|
E----------------------------------------------------------|

G--------------------------|
D--------------------------|
A----0-0-2-2-2-2-0-0-0-0---|
E-2-2----------------------|


IN UTERO 
--------


1) Serve the Servants
   ------------------

Verse:

  F#5 F#sus2  E
G----------------1---|
D--------------------|
A--------------------|
E---2---2----0-------|
        ...old.

Chorus:

G-----------------------------------------------|
D-----------------------------------------------|
A---7--7--7--7---7---7---4--4--4--4---4---6-----|
E---5--5--5--5---5---5--------------------------|
                serve the servants....

Bridge:

G-----------------------------------------------------------|
D-----------------------------------------------------------|
A-----------------------------------/-3--3--3--3--3--3------|
E---2--2--2--2--2--2--2--2--2---------------------------0---|


2) Scentless Apprentice
   --------------------

Verse:

G------------------------|
D------------------------|                        
A------------------------|
D-4-4-0-4-0-4-4-4-4-0-4--|

Chorus:

G-------------------------------|
D-------------------------------|                               
A-------------------------------|
D-0--0-0-0--2--2-2-2--3--3-3-3--|

3) Heart Shaped Box
   ----------------

"Dropped D" + 1/2 step down  (Db,Ab,Db,Gb)

     Rest 4 measures    1st, 2nd, 3rd verses
                          A           F5
G------|----|----|----||--------------------------|
D-4----|----|----|----||o-------------------------|
A-4----|----|----|----||o-------------------------|
D------|----|----|----||--7--7--7--7\-3--3--3--3/-|
                          She eyes me...
                          I've been drawn...

   D5                               A            F5
G----------------------------------|-------------------------|
D----------------------------------|-------------------------|
A----------5-------5-------5-------|-------------------------|
D--0--------------------------(5)/-|-7--7--7--7\-3--3--3--3/-|

   D7                                A           F5
G----------------------------------|-------------------------|
D----------------------------------|-------------------------|
A----------5-------5-------5-------|-------------------------|
D--0--------------------------(5)/-|-7--7--7--7\-3--3--3--3/-|

   D5                                A           F5
G----------------------------------|-------------------------|
D----------------------------------|-------------------------|
A----------5-------5-------5-------|-------------------------|
D--0--------------------------(5)/-|-7--7--7--7\-3--3--3--3/-|
   _____________________________   ____________________________
  / 1.                            / 2.
   D7                              D7
G-------------------------------||------------------------------||
D------------------------------o||------------------------------||
A----------5-----5-------------o||---------5-------5--5--5------||
D--0----------7-----7-------5/--||-0---/--------------------7-7-||

  Chorus

    A5          F5              D7
G-----------------------------|-----------------------------|
D-o---------------------------|-----------------------------|
A-o------8b(9)--------3b(4)b3-|---------5-------5\----3-----|
D---7--7--------3--3----------|-0-0-0-0------------5-----5--|

         Hey           Wait...

                                   ____________________________
                                 / 1.,2.
   A5             F5              D7
G-------------------------------|------------------------------||
D-------------------------------|-----------------------------o||
A--------8b(9)b8--------3b(4)b3-|--------5--5-5-5-5-5-5-5-----o||
D--7--7-----------3--3----------|-0--0-0-------------------5---||



   ________________________
  / 3.
   D7                         F                          D7
G---------------------------|--------------------------|----------------|
D---------------------------|--------------------------|-------7--------|
A---------5-----5--5--5--5--|--------------------------|-------5--------|
D--0--0-0----0--------------|-3--3--3--3--3--3--3/-----|-0--------------|

   F
G---------------------------|----------------|
D---------------------------|-------7--------|
A---------------------------|-------5--------|
D--3--3--3--3--3--3--3--/---|-0--------------|

Now repeat the verses again for verse 2, but instead of taking the chorus
again, play this:

     (Repeat 3 times)
      A5             F5               D7
G-||--------------------------------|----------------------------|
D-||o-------------------------------|----------------------------|
A-||o-------8b(9)b8--------3b(4)b3--|---------5------5\----3-----|
D-||--7--7-----------3--3-----------|-0-0-0-0-----------5-----5--|
              Hey            Wait...


   A5             F5               D7
G--------------------------------|-----------------------------||
D--------------------------------|----------------------------o||
A--------8b(9)b8--------3b(4)b3--|---------5------5\----3-----o||
D--5--5-----------3--3-----------|-0-0-0-0-----------5-----5---||

    F                          D7
G----------------------------|-----------------------|||
D-o--------------------------|-7--------------------o|||
A-o--------------------------|-5--------------------o|||
D---3--3--3--3--3--3--3-/----|-0---------------------|||

Guitar solo time!  During this part, play the first four bars of the chorus,
then end with this:

   A           F5            D5                  A           F5
G--------------------------|-------------------|-------------------------|
D--------------------------|----0--------------|-------------------------|
A--------------------------|-0-----------------|-------------------------|
D--7--7--7--7\-3--3--3--3/-|----------------5/-|-7--7--7--7\-3--3--3--3--|

G--------------------------||
D--0-----0-----0-----0-----||
A-----0-----0-----0-----0--||
D--------------------------||

Near the end already!  Now just go back and play verse 3, then play the
chorus as written, but on
the third repeat of the chorus play only the first three bars (don't play the
3rd ending!!)  Instead,
jump to the following and play to the end:

                              (play 3 times)
   D7                           F                          D7
G---------------------------||---------------------------|-----------------|
D---------------------------||o--------------------------|-------7--------o|
A---------5--5--5--5--5-----||o--------------------------|-------5--------o|
D--0--0-0----------------5--||--3--3--3--3--3--3--3--/---|-0---------------|

    F5                         D7
G-|--------------------------|---------------|||
D-|--------------------------|---------------|||
A-|--------------------------|---------------|||
D-|-3--3--3--3--3--3--3------|-0-------------|||

4) Rape Me
   -------

Verse:
Don't come in until the guitar hits distortion!

G-------------------------------------------|
D-------------------------------------------|
A-0--0--0-0-0-3-3-3-------------------------|
E------------------------0--0--0-0-0-3-3-3--|

Chorus:

G-1-1--4-4------------|
D----------1-1--4-4---|
A---------------------|
E---------------------|

5) Frances Farmer Will Have Her Revenge On Seattle
   -----------------------------------------------

Come in with Lyrics

G------------------------------------|
D------------------------------------|
A------------------------------------|
E--2---2----2--2----2--2------2--2---|

G-----------------------------------------|
D-----------------------------------------|
A-----------------------------------------|
E--------------------------2----2----3/---|

G------------------------------------------------|
D------------------------------------------------|
A------------------------------------------------|
E-/4--4--4--4--4--4--4--4----0--0--0--0----------|

G------------------------------------------------|
D------------------------------------------------|
A------------------------------------------------|
E-/3--3--3--3----0--0--0--0--/3--3--3--0---------|


G------------------------------------------------|
D------------------------------------------------|
A------------------------------------------------|
E-/4--4--4--4--4--4--4--4----0--0--0--0----------|


G------------------------------------------------|
D------------------------------------------------|
A------------------------------------------------|
E-/3--3--3--3----0--0--0--0--/3--3--3--0---------|

G------------------------------------------------|
D------------------------------------------------|
A------------------------------------------------|
E--2---2----2--2----2--2------2--2---------------|

G------------------------------------------------|
D------------------------------------------------|
A------------------------------------------------|
E--------------------------2----2----3/----------|

G----------------------------------------------|
D----------------------------------------------|
A----------------------------------------------|
E--3--3--4--4---x-------4--4--4----------------|

G---------------------------------------------------|
D---------------------------------------------------|
A---------------------------------------0-----------|
E-----3---3--------3---------x---3------------------|

G------------------------------------------------|
D------------------------------------------------|
A--2---2----2--2----2--2------2--2---------------|
E------------------------------------------------|

G--------------------------------------------|
D--------------------------------------------|
A--2-----2--2------2---2---------------------|
E--------------------------2----2----3/------|

G------------------------------------------------|
D------------------------------------------------|
A--------------------------------------7----7\---|
E--4---4----4--4---4-------/7----------------7\--|

G------------------------------------------------|
D------------------------------------------------|
A------------0------------2---2---2--------------|
E--5---5-------2---2--------------2-----2--------|

G------------------------------------------------|
D------------------------------------------------|
A------------------------------------------------|
E--2---2--2--2--2--2--3--------------------------|

G------------------------------------------------|
D------------------------------------------------|
A------------------------------------------------|
E--4---4----4--4---4-------/7----------7\--------|

G------------------------------------------------|
D------------------------------------------------|
A-----------0-------------0---0---0--------------|
E--5---5-------2---2--------------2-----2--------|

G------------------------------------------------|
D------------------------------------------------|
A------------------------------------------------|
E--2---2--2--2--2--2--3--------------------------|

G------------------------------------------------|
D------------------------------------------------|
A------------------------------------------------|
E--4---4----4--4---4-------/7----------7\--------|

G------------------------------------------------|
D------------------------------------------------|
A-----2---2--2---2--2--2-------------------------|
E--5---5-------2---2-----------------------------|

G------------------------------------------------|
D------------------------------------------------|
A--0--------------0--1---2--2--2---2---1---------|
E------------------------------------------------|


G------------------------------------------------|
D------------------------------------------------|
A----0-0-0-0-0-0-------0-------------------------|
E-------------------0-0-0--3-0-0-0-0-0-0-3---3---|

G------------------------------------------------|
D------------------------------------------------|
A------------------------------------------------|
E--2--2--2--2--2--2--2--3------------------------|

G------------------------------------------------|
D------------------------------------------------|
A-------------------0h1--------------------------|
E--2--2--2--2------------------------------------|

  Interlude
G------------------------------------------------|
D------------------------------------------------|
A----------------/7--7--7---7----0---------------|
E--4---4----0------------------------------------|

G------------------------------------------------|
D------------------------------------------------|
A-------------------/7--7--7---7----0------------|
E--4---4----0------------------------------------|

G------------------------------------------------|
D------------------------------------------------|
A--4---4---4--4--4--4---4---5--5--5----5--4-2p0--|
E------------------------------------------------|

G-----------------------------------------------------|
D--------------------------------3------------2p0-----|
A--2---2--2--2--2--2-2-2-2----2-2-2-2--0--------------|
E-----------------------------------------------------|

G-------------------------------------------------|
D-------------------------------------------------|
A-------------------------------------------------|
E--3---------------3------2--2--2--2--2--2--2--3--|



  And you finish with this stuff:
G-----------------|
D-----------------|
A-----------------|
E--4------4-------|

6) Dumb
   ----


Verse
G----------------------------------------------|
D----------------------------------------------|
A-----------------333-0-----------------333-0--|
E--00-555-0-33----------00-555-0-33------------|

Chorus                        x4
G---------------------------|
D---------------------------|
A---------------------------|
E--0-00-000----3-33-333-----|

Middle                     x3
G--------------------------------------|
D--------------------------------------|
A-2-22-222---3-33-333---22222--3-------|
E--------------------------------------|

Back To verse

7) Very Ape
   --------

Verse

G-----------------------------------|
D-----------------------------------|
A-----------------------------------|
E--3/5--5--3/6--6--3/5--5--3/6--6---|

G--------------------------------------|
D--------------------------------------|
A--------------------------------------|
E--3/5--5--3/6--6---3/5--5-5--3/6--6---|

Chorus

G--------------------------------------------|
D--------------------------------------------|
A---------3/6--6-6-6-6/10-10-----------------|
E--5--5----------------------------3-2-2/5---|

End with this

G---------|
D---------|
A---------|
E--5--5---|

8) Milk It
   -------

Verse

G----------------------------------|
D----------------------------------|
A-1--4-----------------------------|
E---------3---0--3--3--4-0--0--0---|


Chorus

G-----------------------|
D-----------------------|
A--1---4----------------|
E---------3------0--3---|

9) Pennyroyal Tea
   --------------

Verse

G----------------------------------------------------------------|
D----------------------------------------------------------------|
A-0--0-0--0-0-0--0--0-0--0-0-------------------------------------|
E-------------------------------------3--3--3-3-3--3--3--3-3-3---|

Chorus

G---------------------------------------------------|
D---------------------------------------------------|
A-3--3-3-3-3-3/5--5-5--5-5--1--1-1-1--1-1-0-1-0-1---|
E---------------------------------------------------|

10) Radio Friendly Unit Shifter
    ---------------------------

Verse

G---------------------------------|
D---------------------------------|
A-0-0-3---2-------2-2-2-----------|
E-----------3-3-3-------2-2-2-2-0-|

Bridge:   (simplified, play some other notes to spice up)
G-----------------------------------------------------------------|
D-----------------2-2-2-2-2-2-2-2---------------------------------|
A-3-3-3-3-3-3-3-3-----------------0-0-0-0-0-0-0-0-3-3-3-3-3-3-3-3-|
E-----------------------------------------------------------------|

11) tourette's
    ----------

G-----------------------------------|
D-----------------------------------|
A-----------------------------------|
E-3-3-3-3-5-5-5-5-6-6-6-6-2-2-2-2---|

Hey Part

G-----------------------------|
D-----------------------------|
A-----------------------------|
E-2--------2-------2------2---|

Repeat

12) All Apologies
    -------------

Dropped D + 1/2 step down tuning (Db,Ab,Db,Gb)

      Rest 3 measures
G-------|-----|-----|-----------7---|-------------------|-----------------|
D-4-----|-----|-----|---------------|-------------------|-----------------|
A-4-----|-----|-----|---------------|-5-----5---5-5-5-5-|-5-----5-----5---|
D-------|-----|-----|---------------|-------------------|-----------------|

                        Verses
                        _______________________________
                       /Rhythm Fig. 1                  \
                        D                           D7
G----------|---------||-----------------|-----------7---||
D----o-/---|---o-/---||-----------------|---------------||
A-----/-o--|----/-o--||-5-----5---------|-5-----5-------||
D----------|---------||-----------------|---------------||
                        What else...

Play Rhythm Fig 1 a total of 8 times for the whole verse.


   Chorus


G--------------------|-------------------|-----------------|
D--------------------|-------------------|-----------------|
A--------------------|-------------------|-----------------|
D--5p(3)-5---5-3---3-|-5p(3)-5-5-5-2-3-3-|-5---5-5---3-5-5-|
             In the sun...

G------------------|----------------|-------------------|
D------------------|----------------|-------------------|
A------------------|----------------|-------------------|
D--5-3-5-3-5-2-3---|5---5---5-2-3-3-|-5-3-5-3-5p(2)-3-5-|


G----________________---------------|--_________________----------------||
D---/--------------|-\--------------|-/---------------|-\---------------||
A--0---------------|(0)-------------|-0---------------|(0)--------------||
D------------------|----------------|-----------------|-----------------||

Easy so far!  Now just repeat back to the verses for verse 2 (Rhythm Fig 1
eight times).  Then
play the chorus.  Finally, play the outro:

                                        _________________________________
  Outro                                / Rhythm Fig.2                    \

G------------------|------------------|-----------------|-----------------|
D------------------|------------------|-----------------|-----------------|
A--5-5---5---5-7---|-5------5---5-7---|-5-5---5---5-7---|-5-5---5----5-7--|
D----------------7-|----------------7-|---------------7-|----------------7|
   All in all...

    Play Rhythm Fig 2 eight more times

G--------------------------------------||
D--------------------------------------||
A--------------------------------------||
D--------------------------------------||
                                            _______________
                                           / Rhythm Fig 3  \
G-||------------------|------------------||-----------------|
D-||o---________________----------------o||-----------------|
A-||o--/--------------|-\---------------o||-5-5---5---5---5-|
D-||--0---------------|(0)---------------||-----------------|

   Play Rhytm Fig 3 17 more times, then fade

G--------------------------------------------|||
D--------------------------------------------|||
A--------------------------------------------|||
D--------------------------------------------|||



MTV'S UNPLUGGED IN NEW YORK 
---------------------------


1) Jesus Doesn't Want Me For A Sunbeam
   -----------------------------------

Intro

G--------------------------------------|
D--0--0-0--0-0--------------------0----|
A--------------------------0--0-0---0--|
E--------------3--3-3--3-3-------------|


chorus

G--------------------------------------------------------------------------|
D-0-0-0-0-0----------0-0-0-0-0--------------0-0-0-0-0--------------------0-|
A-----------------------------------------------------------------0--0-0--0|
E-----------3-3-3-3-3-------------3-3-3--3-3----------3--3-3--3-3----------|


2) The Man Who Sold the World
   --------------------------

G-----------|---0---------|----------------------|---------------------|
D-----------|-------------|--3--3--3-----------2-|-3--3--3-----3--2--1-|
A-----------|-------------|-----------3--3--3----|----------3----------|
E-----------|-------------|----------------------|---------------------|

                          Verses
G----------|------------|-------------------|--------------------------|
D--0-------|------------|-----------7-------|--------------------------|
A----------|------------|--------7-----7--7-|--------------------------|
E----------|-----0------|--5--5-------------|--5----5--5--4--5--7------|


G-----------------------|---------------------|------------------------|
D--------7---------7----|-------------5--3----|----7-------------------|
A-5---5---------5-----5-|-5--5--5--5--------7-|-------7----------------|
E-----------------------|---------------------|-5-------------5--5--5--|


G---------------------|--------5-----------|---------------------------|
D----------------5--4-|-3---3------3--3--3-|--3--3--3----5--3--0-------|
A---------------------|--------------------|---------------------------|
E-5----5--5---5-------|--------------------|---------------------------|


G----------------------|----------------------|------------------------|
D----------5-----------|----------------------|------------------------|
A-3----3-------3--0--3-|--3---3--3----5--3--0-|----7------------7------|
E----------------------|----------------------|-5-----5------5-----5---|


G-------------|---------------------|----------------------------------|
D-------------|----------7--------7-|-----------7----------------------|
A----------7--|--5----5-------5-----|--5----5-----------5--5--5--------|
E--5---5------|---------------------|----------------------------------|


Chorus

G----------------2--3--5-|----------------2--3--5-|----------------2--3--5|
D-------2--3--5----------|-------2--3--5----------|-------2--3--5---------|
A-3--5-------------------|-3--5-------------------|-3--5------------------|
E------------------------|------------------------|-----------------------|


G------------------------|-------------|-------------------------------|
D----------------0--2--3-|-------3-----|----------------0--2--3--------|
A-------0--1--3----------|-4--4-----4--|-------0--1--3-----------------|
E-1--3-------------------|-------------|-1--3--------------------------|


G-----------------2--3--5-|------------------------|-------------------|
D--------2--3--5----------|----------------0--2--3-|---------3---------|
A--3--5-------------------|-------0--1--3----------|-4----4-----4------|
E-------------------------|-1--3-------------------|-------------------|


G---------------|-------------------|-----------------|----------------|
D----7----------|-------------------|------7----------|----------------|
A---------------|-------------------|-----------------|----------------|
E---------------|-------------------|-----------------|----------------|


              Who  knows...
G--7-------7--7----|-----------------2--3--5-|-------------------------|
D------7-----------|--------2--3--5----------|----------------0--2--3--|
A----------------0-|--3--5-------------------|-------0--1--3-----------|
E------------------|-------------------------|-1--3--------------------|


G-----------------|----------------2--3--5-|---------------------------|
D---------3-------|-------2--3--5----------|----------------0--2--3----|
A-4----4-------4--|-3--5-------------------|-------0--1--3-------------|
E-----------------|------------------------|-1--3----------------------|


G-----------------|-------------|-----------|-----7----|-----7--7------|
D----------3------|-7-----------|-----------|----------|--7------------|
A-4-----4-------4-|-------------|-----------|----------|---------------|
E-----------------|-------------|-----------|----------|------------0--|


G|----------------------|-----------------------|----------------------|
D|o--3-----3----------2-|-3-----3-------3--2--1-|-0--0--0--------------|
A|o-----3-----3----3----|----3-----3------------|----------0----0---4--|
E|----------------------|-----------------------|----------------------|


G------------------------|-----------------------|----------2----------|
D--0--0--0-------0-------|----------2------------|---------------------|
A-----------0-------4--2-|-0--0--0-------0--0--0-|-0--0--0-----0--2--4-|
E------------------------|-----------------------|---------------------|

                        1.2.                       3.
G---------------------|----------------------||------------------------|
D-0--0--0-------------|--0--0--0-------0--2-o||-0--0--0-----------0--2-|
A----------0----0---4-|-------------0-------o||----------0--0--0-------|
E---------------------|----------------------||------------------------|


G---------------|--------------|
D---3-----------|--------------|
A---------------|--------------|
E---------------|--------------|

3) Plateu
   ------

Intro/Verse (listen to song a lot to get timing)
G:--------------------------------------------|
D:--------------------------------------------|
A:--7-7---10-10---7-7---10-10---7-7---10-10---|
E:------------------------------------------0-|

Pre-Chorus 1
G:--------|
D:--------|  x1
A:--------|
E:--5/--0-|

Chorus
G:----------------------------------------|
D:--------------------------------------9-|
A:------------5--7--8----------5--7--66---|
E:--0-0-x-5-5----------0-0-x-5------------|

Outro
G:---------------------|
D:---------------------| X 1
A:--5------------------|
E:----3--5--0---5/---0-|

G:-------------------|
D:-------------------|
A:----------5--------|   Play for rest of song
E:-0--0--3-----3-4-5-|


4) Oh, Me
   -----

Tune 1/2 step down

~ = Let ring

The timing's hard to show in tab - listen to the CD to match it all up.
I'm not sure if the original song had two different bridges, or whether 
Nirvana (or me!) just messed up,
but this sounds like what's being played on the Unplugged In New York album.

                                  Verse
Gb|--------------------------------------------------------|
Db|--------------------------------------------------------|
Ab|----------------------5-5~-------5-5~-----3-------------|
Eb|--0~-------------------------------------------0--0~----|

                                 Bridge 1
Gb|--------------------------------------------------|
Db|--------------------------------------------------|
Ab|----------------------5-5--3-3-3-3-5-5-----7~-----|
Eb|--0~--------------------------------------0-------|

		Bridge 2
Gb|----------------------------------------------|
Db|----------------------------------------------|
Ab|----------------------5-5--3-3-5-5-----7~-----|
Eb|--0~---------------------------------0--------|

	                Chorus
Gb|-----------------------------------------------------------------------|
Db|-----------------------------------------------------------------------|
Ab|-----------------------------------------------------3-3--5-5----------|
Eb|--3---0~------3---0~------3---0~------3---0~---------------0-0~--------|


		Outro
Gb|-----------------------------------------------------------------------|
Db|-----------------------------------------------------------------------|
Ab|--5-5----3-3--------------5-5----3-3-------------5-5----3-3------------|
Eb|-----------------0~----------------------0~---------------------0~-----|


Gb|---------------------------------------------|
Db|---------------------------------------------|
Ab|--5-5--0-3-3--0----------5-5--0-3------------|
Eb|------------------0~-----------------3--0~---|

Play it as:			Verse x 3
			Bridge 1 x 1
			Chorus x 1
			Verse x 1 (over guitar solo)
			Verse x 3
			Bridge 2 x 1
			Chorus x 1
			Outro x 1


5) Lake Of Fire
   ------------

Chorus

G|-------------------------------------------------------------------------|
D|-------------------------------------------------------------------------|
A|----------0-------2-2-2-0------------0-2-2-2-----------------------------|
E|2-2-2-0-0---2-2-2---------2-2-2-0-0---------0-0-2-2-2-2-0-0-2-2-2-2-0-0-2|


Verse

G------------------------------------------------------|
D------------------------------------------------------|
A--4-4-4-0-0-0-4-4-4-3-3-3-4-4-4-0-0-0-2-2-4-4-4-4-4---|
E------------------------------------------------------|

Solo part

G-----------------|
D-----------------|  Play this about 8 times
A-----------------|
E---2-2-2-0-0-2---|

Play chorus 2 times in beginning
Then verse 1 time
Then chorus 1 time
Verse 1
Chorus 1
End with solo part

6) Where Did You Sleep Last Night?
   -------------------------------

Intro

G------------------------------------------------
D------------------------------------------------
A------------------------------------------------
E--0--0--1-2-3-5--5-5-3--3-3--7--7-7--3-3-2-0--0-

Rest of song

G-----------------------------------
D-----------------------------------Play this once
A-----------------------------------
E--0--0--0-5--5-3--3-7--7-7-3-3-2-0-

G--------------------------------------
D--------------------------------------Repeat for rest
A--------------------------------------    of song
E--0--0--0-7--7-5--5-3--3-7--7-3-3-2-0-
 




B-SIDES N' STUFF 
----------------


1) Bambi Slaughter 
   ---------------

Intro/verse

G---------------------------------|---------------------------------|
D-----------------3-3-3-3-2-2-2-2-|---------------------------------|
A-0-0-0-0-3-3-3-3-----------------|-----------------3-3-3-3-2-2-2-2-|
E---------------------------------|-0-0-0-0-3-3-3-3-----------------|

Chorus

G---------------------------------|---------------------------------|
D---------------------------------|---------------------------------|
A-------------1-1-------------1-1-|---------------------------------|
E-3-3-3-3-3-3-----2-2-2-2-2-2-----|-1-1-1-1-1-1-2-2-1-1-1-1-1-1-2-2-|

Outro

G---------------------------------|  Instead of playing the second part of
D---------------------------------|  the verse, play this five times. 
A-----------------3-3-3-3-2-2-2-2-|  
E-0-0-0-0-3-3-3-3-----------------|  
                                     
                                     

2) Born In A Junkyard 
   ------------------

Verse

G-----------------------|
D-----------------------|
A---------5----5--5--5--|
E-0----0----------------|

Chorus

G-----------------------|
D-----------------------|
A-----------------------|
E-4--4--4--4----5--5----|

3) D-7
   ---

   Intro
G----------------------------|
D---------2------------0-----|
A------2------------3-----3--|
E---0--------0--1------------|



   Verse/Chorus/Everything Else/Outro/The Works
G------------------------------------------|
D------------------------------------------|
A---------------------0-0-0-0-0-0-0-1-3----|
E--0-0-0-0-0-0-0-1-3-----------------------|
          (A)                (B)

Play Part A several times, and then move to Part
B for a couple of bars.  ...then back to A.



4) Endless, Nameless
   -----------------

Verse

G-----------------------------|
D-----------------------------|
A-----------------------------|
E-0-0-0-0-0-0-0-0-0-0-0-0-0-0-| Repeat until quiet part.

Chorus

G-----------------------------|
D-----------------------------|
A------------4--------------3-|
E-2-2-2h4---1-1-1h-3----------|

Then back to verse.

5) Even In His Youth
   -----------------

Standard Tuning
Main Riff

G------------------|
D------------------|
A-3-3--------------|
E-----3-3-4-3------|

Secondary Riff

G------------------------------------------------|
D------------------------------------------------|
A-----2-2-2-2-0-----5------2-2-2-2-0-------------|
E-0-0-----------3-3----0-0-----------3-3-5-5-5-5-|

6) Formaldehyde
   ------------

I'm not really sure if this is the entire song, since I
haven't heard it myself, but the guy who gave me this tab said
that this was the entire song. If it's wrong, please send corrections,
complaints, or whatever...

Intro/Verse/Chorus/Outro :) 

G---------------------------------|
D-----------9--------------9-9----|
A--------9-----9--------9------9--|
E--7---------------7--------------|


7) Help Me, I'm Hungry
   -------------------

G-----------------------------------|
D-----------------------------------|
A-----------------------------------|
E--3-3-3-1-1-1-1-1/5-5-5-0-0-0-0----|

8) I Hate Myself And Want To Die 
   -----------------------------   
                                   
                                   

Verse: play this when the drums come in:

G-----------------------------------| Play FOUR times
D-----------------------------------| <--------------
A-----------------------------------|
E-4--4--4-2-2-1-2--4--4--4-2-2-1-0--|

Chorus:

G-------------------|
D-------------------| Play EIGHT times
A-------------------| <---------------
E-3--3--1-1\7-7-7-7-|

Play the verse again.
Play the chorus again.

During the solo I always play:

G--------------------------| <-------------------
D--------------------------| Play that a couple of  (right before the
A---------7-----------3----| times and then strum    chorus with the drums)
E-3-3-3-3-----3-3-3-3------| ------------------->        E --4-4--

Play the verse again and then the chorus a final time.

After the last chorus part play:

G----------------|
D----------------|
A----------------|
E--4--4-4-3-2-1--|
To end it.

9) In His Room
   ------------ 
Verse

G-------------------------------------------------------------|
D-------------------------------------------------------------|
A-3-3-3------------------------3-3-3\6-6-6-6---------4-4-4-4--|
E-------4-4-4-4-3-3-3--1-1-1-1----------------6-6-6-----------|

Chorus

G----------------------------------|
D----------------------------------|
A--------5-5-5-5---------3-3-3-3---|
E-2-2-2-----------5-5-5------------|

Bridge

G-----------------------------|
D-----------------------------|
A-2-2-2-2-2-------------------|
E-------------5-5-5-5-5-5-5---|

10) Marigold 
    --------

G--------------------------|
D-0-0----------------------|
A-----2--2-2-1-0-0--1-0----|
E----------------------1-0-|

Chorus: F G D B F

G---------------------------------------------||
D---------------------------------------------||
A-----------------5-5-5-5-5-2-2-2-2-2---------||
E-1-1-1-1-3-3-3-3---------------------1-1-1-1-||


11) Misery Loves Company
    --------------------

(This entire song is Bass)
Verse:
        NH (harmonic)
G----------------|
D----------------|
A-------12-------|
E--0/12----12--1-|

Chorus:
G------------|
D-5-5--------|
A-----7-5----|
E---------5--|
Play 4 times

G------------------|
D-5-----5----5-----|
A---7-----6--------|
E---------------5--|

12) Moist Vagina 
    ------------ 

G-----------------------------|
D-----------------------------|
A-----------------------------|
E-0--2---0--2---0--2---0--2---|

G----------------------------------|
D----------------------------------|
A-----------------3-3-3-3-3-3-3-3--|
E-5-5-5-5-5-5-5-5------------------|

Chorus:repeats over and over.
G---------------------------------|
D---------------------------------|
A---------------------------------|
E-0--PM---2---2---PM---0----2--2--|


13) My Sharona
    ----------

Intro/Verse:

G--------------------------------------------|
D-----5-5---5---5-----5------5-5---5---------|
A------------------------------------3-1-3-1-|
E-3-3-----3---3---3-3----3-3-----3-----------|

Chorus:

G-----------------------------------------------------------------------|
D---5-5-5---5-5-5-----5-5-5---5-5-5-----8-8-8---8-8-8-----8-8-8---8-8-8-|
A-----------------------------------------------------------------------|
E-3-------3---------3-------3---------6-------6---------6-------6-------|

G-------+---------|
D-------|---------|
A-----6-|-6-6-6-8-|
E-8-8---+---------|

1st Variation

G------------------------------------------------------------------------|
D-----5-5---5----5---5-5---*-----5-5---5----5---5-5-5-------------------*|
A--------------------------*---------------------------3-3-6--6-6-8-6-8-*|
E-3-3-----3----3---3-----1/--3-3-----3----3---3--------------------------|

G---------------------------------|
D---------------------------------|
A-5-5-5-5-5-5-5-5--5-5-5-5-5-10\X-|
E---------------------------------|

2nd Variation

G------------------------------------------------------------------------|
D-----5-5---5----5---5-5-5-------------------*-----5-5---5----5-----5---*|
A---------------------------3-3-6--6-6-8-6-8-*--------------------------*|
E-3-3-----3----3---3---------------------------3-3-----3----3---3-3---3--|

G-----------------------------------------------------|
D-----5-5---5----5-----5------------------------------|
A-------------------------3--3------------------------|
E-3-3-----3----3---3-3---------3/-8--8-8-10-10-10-8-3-|

Solo

G--------------------------------------------------------------------|
D*-----------------*---------------------*--------------3-3----------|
A*-3---------------*-3---------------0-1-*-3-----------------3-------|
E----3-3-1-1-1-1-3-----3-3-1-1-1-3-3---------3-3-1--1-1--------3-3-1-|

G-----------------------------------------------------------|
D-----------------------------------------------------------|
A----------3--------------3-----------------5-5-5-5-5-5-5-5-|
E-1-1-1-3----3-3-1-1-1-1----3-3-1--1-1-1-3------------------|


G-----------------------|
D-----------R-2:-R------|
A-5-5-5-5-5---4:---10\X-|
E-----------------------|

End

G------------------------------|
D*4:-----5-5---5----5---5-5---*|
A*4:--------------------------*|
E----3-3-----3----3---3-----1/-|


14) Oh, The Guilt (Simplified)
    -------------

Verse:

G--------------------------------------------|
D--------------------------------------------|
A--------------------------------------------|
E-5-5-5------5-5-5-----5-5-5----5-5-5-0-4-4--|

Chorus: 

G---------------------------------|
D---------------------------------|
A-----------------4-4-4-4-4-4-4-4-|
E-5-5-5-5-4-4-4-4-----------------|

During guitar solo, play the verse.

Outro:
                                   G-------|
Play the chorus, and end with:     D-------|
                                   A-------|
                                   E-5-5-5-|



15) You Know You're Right (also known as On The Mountain etc.)
    ----------------------------------------------------------

Bass riff starts after the sounds of stuff being busted


Verse:

G----------------------
D----------------------
A--5-7-----7-5-7-----7-
E------0-0-------0-0--- [repeat until Riff 2]


1st time through: Never speak a word again...

2nd time through: Things have never...


Bridge:

G---------------------------------------------------------
D---------------------------------------------------------
A-3-3-3-3-3-3-3-3-3-3-3-3-5-5-5-5-5-5-5-5-5-5-5-5-5-5-5-5-
E--------------------------------------------------------- [*Note: read 
below]


"Pain" Chorus:

G----------------------------------------------------
D----------------------------------------------------
A-5-7-----7------------5-7-----7--------/10-10-10-10-
E-----0-0---/3-3-3-3-3-----0-0---/3-3-3-------------- [repeat until end of 
"Pain..."]


"You Know You're Right" Chorus:

G--------------------------
D--------------------------
A-5-7-----7----------------
E-----0-0---/5-5-5-5-5-5-5- [repeat until end of "You Know You're Right..."]


*Bridge Note: 1st time through, go back to the Verse after through with the 
Bridge; 2nd time through, go straight to the "Pain" Chorus.

Order:

1. Verse
2. Bridge
3. Verse
4. "Pain" Chorus
5. "You Know You're Right" Chorus
6. Verse
7. Bridge
8. "Pain" Chorus
9. "You Know You're Right" Chorus




16) Opinion
    -------

There is no real bassline in this song, but if you add one,
it goes like this:

G--------------------------------|
D--------------------------------|
A-1--1-1---------4--4-4----------|
E--------2-2-2-2--------1-1-1-1--|

17) Return Of The Rat
    -----------------

Verse:

   G#5     B5       F#5
G------------------------------------|
D------------------------------------|
A-----------2-2-2-2------------------|
E---4-4-4-4---------2-2-2-2-2-2-2-2--|

Chorus:

    Bb5   B5                G#5
G-----------------------------------|
D-----------------------------------|
A---1-1-1-2-1-1-1-2-1-1-1-2---------|  
E---------------------------4-4-4-4-|

End Of Chorus:


    F#5     B5      C#5
G-----------------------------------|
D-----------------------------------|
A-----------2-2-2-2-4-4-4-4-4-4-4-4-|
E---2-2-2-2-------------------------|

18) Sappy (Verse Chorus Verse)
    -----

G---------------------------------------------------------|
D---------------------------------------------------------|
A-5-5-5-5-------------------------------------------------|  (3x)
E----------6-6--6-3-3-3--5-5-5-5-5--6-6-6--1-1------------|

G---------------------------------------------------------|
D---------------------------------------------------------|
A-5-5-5-5---------------------------------------5-5-5-5-5-|  (1x)
E----------6-6--6-3-3-3--5-5-5-5-5--6-6-6--3-3------------|

Chorus:

G----------------------------|           ------------------|
D----------------------------|           ------------------|
A----------------------------|   (3x)    ------------------|  (1x)
E-6--6-6-6-6--3--3-3-3-3-----|           -6--6-6-6-6--5----|


Talk to me
----------

G----------------------------------------------------|
D----------------------------------------------------|
A-------2--2--3--3------------------1--1--1----1--0--|
E-3--3----------------3--\1----1---------------------|
                                             
G------------------------|
D------------------------|
A------------3--3--3--0--|
E-3----3--3--------------|



19) The Eagle Has Landed
    --------------------

Actually, this song is an early version of tourette's.
Just check out the In Utero tab

20) The Money Will Roll Right In
    ----------------------------

Intro/Verse:

G-------------------|
D-------------------|
A-------------------|
E-0-0-0-0-0-1-2-3---|

Chorus:

G---------------------------------|
D---------------------------------|
A---------------------------------|
E-1-1-1-1-3-3-3-3-2-2-2-2-1-1-1-1-|


21) Talk to me
    ----------

G----------------------------------------------------|
D----------------------------------------------------|
A-------2--2--3--3------------------1--1--1----1--0--|
E-3--3----------------3--\1----1---------------------|
                                             
G------------------------|
D------------------------|
A------------3--3--3--0--|
E-3----3--3--------------|

22) Curmudgeon
    ----------

  verse riff  prechorus       chorus riff
G|----------|----------------|---------9-|
D|----------|----------------|--------9--|
A|--------5-|----------------|097-0/10---|
E|-0565654--|0222222208888888|---8-------|

  guitar solo riff 
G|------------------|
D|------------------|
A|------------------|
E|07676545432321010-|


23) Blandest
    --------


Verse:             and sometimes:
G|-------------------|-------------------|
D|-------------------|------------5-7----|
A|--3-5-3-0----------|--3-5-3-0----------|
E|-------------------|-------------------|


Chorus:
G|---------------------------------------------|
D|-----4---------------------------2-----------|
A|-----------2-3-4--3--2--0-2-3--4---4-3--2-0--|
E|--2------------------------------------------|

THERE YA GO
comments
print report bad tab
9 comments total. Showing first comments.
+1 reply
the anus wrote on February 26 2004, 12:00 am

Comments:i got this off of the nirvana fan site cuz i wanted it on this site and no-one could bothered stickin on so here ya go

-2 reply
tiftcte wrote on February 26 2004, 12:00 am

*

0 reply
ULTIMINT PIMP wrote on February 27 2004, 12:00 am

nice job

I want to post or [tab]
guest
You may want to rate the tab now too:
select rating
Please do not post tabs as comments. Select "correction" instead!