Oops, an error
Loading. Please wait.

Pennyroyal Tea Tab

ver2
ver2

Whole song

Interactive

More versions @911Tabs.com
13,695 views 9 this week
6 commentsread comments
1 2 3 4 5
accurate
x 7
Autoscroll
+/-
esc
set tempo
stop
Contributor
Hey! There's an official Ultimate Guitar app which is ideal
for learning songs when you're away from computer. Get the app
WARNING: You are trying to view
                                    content from Ultimate-Guitar.com
                                    in an unauthorized application,
                                    which is prohibited.

                                    Please use an official Ultimate
                                    Guitar Tabs application for iPhone,
                                    iPad or Android to access legitimate
                                    chords, guitar, bass, and drum tabs
                                    from Ultimate-Guitar.com database.

                                    Type "ultimate guitar tabs" in Apple
                                    App Store's or Android Market's
                                    search to find the application.
                          Pennyroyal Tea (unplugged)                            


                                                                         Nirvana
Guitar



                                                                              
E||--0-------0----0-----0--|----------0----0--0-----|----------3----3-----3--|
B||--1-------1----1-----1--|--1-------1----1--1--0--|----------0----0-----0--|
G||--2-------2----2--2--2--|--2-------2----2--2--0--|------------------------|
D||--2----2----------2-----|--2----2----------2--0--|-------0----------0-----|
A||--0---------------------|--0---------------0-----|------------------------|
E||------------------------|------------------------|--3---------------------|


                                                                            
-----3-------------------|------------------------|------------------------|
-----0-------------------|----------2-------------|---------------------0--|
----------0--------------|----------2-------2-----|----------2----2--2--0--|
--0-------0--------------|--2--2------------2-----|-------2--2----2--2--0--|
--2----------------------|--0------------0-----0--|--0---------------------|
--3----------3--1--3--0--|------------------------|------------------------|


                                                                             
------------------------|--------------------------|------------------------|
----------0-------------|--------------------------|------------------------|
----------0----------0--|-----0--------------------|------------------------|
---------------0-----0--|-----0-----0--------------|--2----2--2-------2-----|
------------------------|--------------------------|--3------------0-----0--|
--3----3----------3-----|--3-----3-----3--1--3--0--|------------------------|


                                                                           
------------------------|----------3------------|-------------------------|
------------------------|----------0------0-----|-------------------------|
-------2-------2-----0--|-----------------0-----|-------0-----------------|
--2-------2-------2-----|-------0------------0--|-------0-----------------|
----------0-------------|-----------------------|-------------------------|
------------------------|--3--------------------|--3-------3--3--1--3--0--|


                                                                           
------------------------|-------------------------|----------3---------3--|
------------------------|----------------------0--|----------0---------0--|
----------2-------2-----|----------2-----2-----0--|----------0---------0--|
--2----2-------------2--|--2----2-----------2-----|--0----0---------0-----|
--0------------0-----0--|--0----------0-----0-----|--2--------------2-----|
------------------------|-------------------------|--3--------------3-----|


                                                                            
-------------------------|--0----0--0----0--0-----|--2----2--2----2--2-----|
-------------------0--0--|--1----1--1----1--1--0--|--3----3--3----3--3--0--|
-------------------0--0--|--0----0--0----0--0--0--|--2----2--2----2--2--0--|
----0--0--0--0--0--0-----|--x----x--x----x--x-----|--0----0--0----0--0-----|
----2--2--2--2--2--2-----|--3----3--3----3--3-----|------------------------|
----3--3--3--3--3--3-----|------------------------|------------------------|


                                                                            
------------------------|------------------------|--0----0--0-----0--0-----|
--3----3--3----3--3--3--|--3----3--3----3--3--0--|--1----1--1-----1--1--0--|
--3----3--3----3--3--3--|--3----3--3----3--3--0--|--0----0--0-----0--0--0--|
--3----3--3----3--3--3--|--3----3--3----3--3-----|--x----x--x--------x--0--|
--1----1--1----1--1--1--|--1----1--1----1--1-----|--3----3--3--x-----3-----|
------------------------|------------------------|-------------3-----------|


                                                                           
--2----2--2----2--2-----|------------------------|------------------------|
--3----3--3----3--3--0--|--3----3--3----3--3--3--|--3----3--3----3--3--0--|
--2----2--2----2--2--0--|--3----3--3----3--3--3--|--3----3--3----3--3--0--|
--0----0--0----0--0-----|--3----3--3----3--3--3--|--3----3--3----3--3-----|
------------------------|--1----1--1----1--1--1--|--1----1--1----1--1-----|
------------------------|------------------------|------------------------|


                                                                             
--0----0--0-----0--0-----|--2--2--2--2----2--2-----|------------------------|
--1----1--1-----1--1--0--|--3--3--3--3----3--3--0--|--3----3--3----3--3--3--|
--0----0--0-----0--0--0--|--2--2--2--2----2--2--0--|--3----3--3----3--3--3--|
--x----x--x--------x--0--|--0--0--0--0----0--0-----|--3----3--3----3--3--3--|
--3----3--3--x-----3-----|-------------------------|--1----1--1----1--1--1--|
-------------3-----------|-------------------------|------------------------|


                                                                             
--------------------------|--0----0--0----0--0-----|--2----2--2----2--2-----|
--3-----3--3--3--3--3--0--|--1----1--1----1--1--0--|--3----3--3----3--3--0--|
--3--3--3--3--3--3--3--0--|--0----0--0----0--0--0--|--2----2--2----2--2--0--|
--3--3--3--3--3--3--3-----|--x----x--x----x--x-----|--0----0--0----0--0-----|
--1--1--1--1--1--1--1-----|--3----3--3----3--3-----|------------------------|
--------------------------|------------------------|------------------------|


                                                                               
-------------------------|--------------------------|-------------------------|
--3----3--3-----3--3--3--|--3--3--3--3--3--3--3-----|----------1--------1-----|
--3----3--3-----3--3--3--|--3--3--3--3--3--3--3-----|----------2--------2-----|
--3----3--3-----3--3--3--|--3--3--3--3--3--3--3-----|-------2-----2-----------|
--1----1--1--1-----1--1--|--1--1--1--1--1--1--1-----|--0----------0--0-----0--|
-------------------------|-----------------------0--|-------------------------|


                                                                            
-------------------------|----------3------------|-------------------------|
----------1--------1-----|----------0------0-----|-------------------------|
----------2--------2-----|-----------------0-----|----------0--------------|
-------2-----------------|-----------------------|----------0--------------|
--0----------0--0-----0--|--------------------2--|-------------------------|
-------------------------|--3----3---------------|--3----3-----3--1--3--0--|


                                                                          
------------------------|------------------------|---------3-------------|
----------2-------------|----------2-------------|--0------0-------------|
----------2----------2--|----------2-------2-----|--0------0-------0-----|
--2----2----------2-----|--2----2----------2-----|--0--------------0-----|
--0------------0--------|--0----0-------0--------|--x--------------------|
------------------------|---------------------0--|--3-----------3-----3--|


                                                                             
--------------------------|--0----0--0----0--0-----|--2----2--2----2--2-----|
--------0--0--0--0--0--0--|--1----1--1----1--1--0--|--3----3--3----3--3--0--|
--0--0--0--0--0--0--0--0--|--0----0--0----0--0--0--|--2----2--2----2--2--0--|
--0--0--0--0--0--0--0--0--|--x----x--x----x--x-----|--0----0--0----0--0-----|
--2--2--2--2--2--2--2--2--|--3----3--3----3--3-----|------------------------|
--3--3--3--3--3--3--3--3--|------------------------|------------------------|


                                                                            
------------------------|------------------------|--0----0--0-----0--0-----|
--3----3--3----3--3--3--|--3----3--3----3--3--0--|--1----1--1-----1--1--0--|
--3----3--3----3--3--3--|--3----3--3----3--3--0--|--0----0--0-----0--0--0--|
--3----3--3----3--3--3--|--3----3--3----3--3-----|--x----x--x--------x--0--|
--1----1--1----1--1--1--|--1----1--1----1--1-----|--3----3--3--x-----3-----|
------------------------|------------------------|-------------3-----------|


                                                                             
--2----2--2-----2--2-----|------------------------|-------------------------|
--3----3--3-----3--3--0--|--3----3--3----3--3--3--|--3--3--3--3----3--3-----|
--2----2--2-----2--2--0--|--3----3--3----3--3--3--|--3--3--3--3----3--3--0--|
--0----0--0--------0--0--|--3----3--3----3--3--3--|--3--3--3--3----3--3--0--|
-------------0-----------|--1----1--1----1--1--1--|--1--1--1--1----1--1-----|
-------------------------|------------------------|-------------------------|


                                                                           
--0----0--0----0--0-----|--2----2--2----2--2-----|------------------------|
--1----1--1----1--1--0--|--3----3--3----3--3--0--|--3----3--3----3--3--3--|
--0----0--0----0--0--0--|--2----2--2----2--2--0--|--3----3--3----3--3--3--|
--x----x--x----x--x-----|--0----0--0----0--0-----|--3----3--3----3--3--3--|
--3----3--3----3--3-----|------------------------|--1----1--1----1--1--1--|
------------------------|------------------------|------------------------|


                                                                           
------------------------|--0----0--0----0--0-----|--2----2--2----2--2-----|
--3----3--3----3--3--0--|--1----1--1----1--1--0--|--3----3--3----3--3--0--|
--3----3--3----3--3--0--|--0----0--0----0--0--0--|--2----2--2----2--2--0--|
--3----3--3----3--3-----|--x----x--x----x--x-----|--0----0--0----0--0-----|
--1----1--1----1--1-----|--3----3--3----3--3-----|------------------------|
------------------------|------------------------|------------------------|


                                                                              
-------------------------|--------------------------|------------------------|
-------------------------|--------------------------|--2-------2-------------|
--3----------------------|--3--3--3--3--3--3--3--3--|--2----2----------2-----|
--3----------3--3--3--3--|--3--3--3--3--3--3--3--3--|--2---------------------|
--1----1--1--1--1--1--1--|--1--1--1--1--1--1--1--1--|--0------------0-----0--|
-------------------------|--------------------------|------------------------|


                                                                           
------------------------|------------------------|------------------------|
-------2----------------|----------0-------------|------------------------|
---------------2--------|----------0-------0-----|----------0-------------|
--2-------2-------2--0--|------------------------|-------0----------0-----|
--0---------------0-----|-------2-------------2--|--2---------------2-----|
------------------------|--3------------3--------|--3------------3-----0--|


                                                                         
------------------------|-----------------------|---------3----3--3--3--|
----------2-------------|----------2------2-----|--0------0----0--0--0--|
----------2-------2-----|----------2------2-----|--0------0----0--0--0--|
--2----2-------2-----2--|--2----2---------------|--0--------------0-----|
--0------------0-----0--|--0----0---------------|--x--------------x-----|
------------------------|--------------------0--|--3--------------3-----|


                                                                             
--------------------------|--0----0--0----0--0-----|--2----2--2----2--2-----|
-----0--0--0--0--0--0--0--|--1----1--1----1--1--0--|--3----3--3----3--3--0--|
-----0--0--0--0--0--0--0--|--0----0--0----0--0--0--|--2----2--2----2--2--0--|
-----0--0--0--0--0--0--0--|--x----x--x----x--x-----|--0----0--0----0--0-----|
-----2--2--2--2--2--2--2--|--3----3--3----3--3-----|------------------------|
--3--3--3--3--3--3--3--3--|------------------------|------------------------|


                                                                            
------------------------|------------------------|--0----0--0-----0--0-----|
--3----3--3----3--3--3--|--3----3--3----3--3--0--|--1----1--1-----1--1--0--|
--3----3--3----3--3--3--|--3----3--3----3--3--0--|--0----0--0-----0--0--0--|
--3----3--3----3--3--3--|--3----3--3----3--3-----|--x----x--x--------x--0--|
--1----1--1----1--1--1--|--1----1--1----1--1-----|--3----3--3--x-----3-----|
------------------------|------------------------|-------------3-----------|


                                                                           
--2----2--2----2--2-----|------------------------|------------------------|
--3----3--3----3--3--0--|--3----3--3----3--3--3--|--3----3--3----3--3--0--|
--2----2--2----2--2--0--|--3----3--3----3--3--3--|--3----3--3----3--3--0--|
--0----0--0----0--0-----|--3----3--3----3--3--3--|--3----3--3----3--3-----|
------------------------|--1----1--1----1--1--1--|--1----1--1----1--1-----|
------------------------|------------------------|------------------------|


                                                                             
--0----0--0-----0--0-----|--2--2--2--2----2--2-----|------------------------|
--1----1--1-----1--1--0--|--3--3--3--3----3--3--0--|--3----3--3----3--3--3--|
--0----0--0-----0--0--0--|--2--2--2--2----2--2--0--|--3----3--3----3--3--3--|
--x----x--x--------x--0--|--0--0--0--0----0--0-----|--3----3--3----3--3--3--|
--3----3--3--x-----3-----|-------------------------|--1----1--1----1--1--1--|
-------------3-----------|-------------------------|------------------------|


                                                                             
--------------------------|--0----0--0----0--0-----|--2----2--2----2--2-----|
--3-----3--3--3--3--3--0--|--1----1--1----1--1--0--|--3----3--3----3--3--0--|
--3--3--3--3--3--3--3--0--|--0----0--0----0--0--0--|--2----2--2----2--2--0--|
--3--3--3--3--3--3--3-----|--x----x--x----x--x-----|--0----0--0----0--0-----|
--1--1--1--1--1--1--1-----|--3----3--3----3--3-----|------------------------|
--------------------------|------------------------|------------------------|


                                                                              
-------------------------|-----------0--0--0--0-----|------------------------|
-------------------------|-----------x--x--x--x--0--|----------0-------0-----|
--3----3--3--3--3--3--3--|--3--3--3--3--3--3--3--0--|----------2-------2-----|
--3----3--3--3--3--3--3--|--3--3--3--3--3--3--3-----|-------2-------2-----2--|
--1----1--1--1--1--1--1--|--1--1--1--1--1--1--1-----|--0---------------------|
-------------------------|--------------------------|------------------------|


                                                                           
--0--0------------------|----------0-------------|------------------------|
--1--1----1-------1-----|--1-------1-------1-----|----------1-------1-----|
--2-------2-------2-----|--2-------2-------2-----|-------2--2-------2-----|
------------------------|--2----2-------2--------|--2----2-------2-----2--|
---------------0-----0--|--0------------------0--|--0---------------------|
------------------------|------------------------|------------------------|


                                              
------------------------|-------------------||
----------1-------------|-------------------||
------------------2-----|-------------------||
-------2-------2-----2--|-------------------||
--0---------------------|--0----------------||
------------------------|-------------------||



comments
print report bad tab
6 comments total. Showing first comments.
0 reply
sane_person wrote on March 1 2003, 12:00 am

what the heck is this? theirs no chorus or anything and its in the wrong tuning. its droped half a step. this tab sucks

0 reply
nirvanamaggot66 wrote on January 30 2004, 12:00 am

oh my god you have to figure out the part quit being such a ***

0 reply
skatersic666 wrote on January 21 2005, 12:00 am

if this is for the In Utero verison (Probly sez wot version on it sum were but im a lazy fag)
then the solo is missing...

..If i cud be arsed i would tab out the solo for you but i can't if you really want the solo or other tabs then E-Mail me: totalrock2003@yahoo.com

I want to post or [tab]
guest
You may want to rate the tab now too:
select rating
Please do not post tabs as comments. Select "correction" instead!