Oops, an error
Loading. Please wait.

Radio Friendly Unit Shifter Tab

ver4
ver4

Whole song

More versions @911Tabs.com
5,953 views 84 this week
no commentswrite comment
1 2 3 4 5
accurate
x 3
Autoscroll
+/-
esc
set tempo
stop
Contributor
WARNING: You are trying to view
                                    content from Ultimate-Guitar.com
                                    in an unauthorized application,
                                    which is prohibited.

                                    Please use an official Ultimate
                                    Guitar Tabs application for iPhone,
                                    iPad or Android to access legitimate
                                    chords, guitar, bass, and drum tabs
                                    from Ultimate-Guitar.com database.

                                    Type "ultimate guitar tabs" in Apple
                                    App Store's or Android Market's
                                    search to find the application.
Radio Friendly Unit Shifter - Nirvana

Tabbed by: xXd0p3d YouthXx

Tuning: Standard Half-Step Down
   
*You can use distortion with polychorus or use distortion with rotovibe for the bending parts.*
   

   1/2  full------------  1/2 1&1/2 full-------------------
e|-------------------------------------------------------------------------|
B|-------------------------------------------------------------------------|
G|-14b~(14b~)(14b~)(14b~)-14b~(14b~)(14b~)(14b~)(14b~)(14b~)---------------|
D|-------------------------------------------------------------------------|
A|-------------------------------------------------------------------------|
E|-------------------------------------------------------------------------|

   1/2 1&1/2 full-------  full-----------  full------ full-----------
e|-------------------------------------------------------------------------|
B|------------------------15b~(15b~)(15b~)-15b~(15b~)-15b~(15b~)-15b~------|
G|-14b~(14b~)(14b~)(14b~)------------------14b~(14b~)----------------------|
D|-------------------------------------------------------------------------|
A|-------------------------------------------------------------------------|
E|-------------------------------------------------------------------------|
   
    full------  full-----  full-----  full-----  full-----
e|-------------------------------------------------------------------------|
B|-(15b~)(15b~)-15b~(15b~)-15b~(15b~)-15b~(15b~)-15b~(15b~)----------------|
G|--------------14b~(14b~)-------------------------------------------------|
D|-------------------------------------------------------------------------|
A|-------------------------------------------------------------------------|
E|-------------------------------------------------------------------------|

   full-----  1&1/2----   1/2--------------------------------------------
e|-------------------------------------------------------------------------|
B|------------15b~(15b~)\--------------------------------------------------|
G|-14b~(14b~)--------------------------------------------------------------|
D|-------------------------------------------------------------------------|
A|------------------------4b~(4b~)(4b~)(4b~)(4b~)(4b~)(4b~)(4b~)(4b~)(4b~)-|
E|-------------------------------------------------------------------------|

 
e|------------------------------------------------------------------------|
B|------------------------------------------------------------------------|
G|------------------------------------------------------------------------|
D|-------------3+---------------------------------------------------------|
A|-x---x---x--------x---x---x---x---x-------------------------------------|
E|-x---x---x--------x---x---x---x---x-------------------------------------|

  P.M.----------  P.M.--      P.M.--         P.M.          P.M.--
e|------------------------------------------------------------------------|
B|------------------------------------------------------------------------|
G|-----x-------x-------x-------x-------x--------------------x-------------|
D|-----x-------x-------x-------x-------x--------------------x-------------|
A|-x-------x-------x-------x-------x-------x---x---x-x--x-------x---5/12\-|
E|-x-------x-------x-------x-------x-------x---x---x-x--x-------x---5/12\-|

                                     P.M--
e|------------------------------------------------------------------------|
B|------------------------------------------------------------------------|
G|-------5--5-----------4--4----------------5--5-----------4--4-----------|
D|-7--7--5--5--5-5-5-5--4--4--4-------x--x--5--5--5-5-5-5--4--4--4--------|
A|-7--7--3--3--5-5-5-5--2--2--4---4---x--x--3--3--5-5-5-5--2--2--4---4----|
E|-5--5--------3-3-3-3--------2-0-2-0-x--x--------3-3-3-3--------2-0-2-0--|
  ^play four times

   let ring...............................................................
e|------------------------------------------------------------------------|
B|------------------------------------------------------------------------|
G|------------------------------------------------------------------------|
D|-7----------------------------------------------------------------------|
A|-7----------------------------------------------------------------------|
E|-5----------------------------------------------------------------------|

   full---------------------------------
e|------------------------------------------------------------------------|
B|------------------------------------------------------------------------|
G|------------------------------------------------------------------------|
D|------------------------------------------------------------------------|
A|------------------------------------------------------------------------|
E|-4b~(4b~)(4b~)(4b~)(4b~)(4b~)(4b~)(4b~)---------------------------------|

   1/2------------------ full-------------------------------------------
e|------------------------------------------------------------------------|
B|------------------------------------------------------------------------|
G|------------------------------------------------------------------------|
D|------------------------------------------------------------------------|
A|-11b~(11b~)(11b~)(11b~)(11b~)(11b~)(11b~)(11b~)(11b~)(11b~)(11b~)(11b~)-|
E|------------------------------------------------------------------------|

   full-------------
e|------------------------------------------------------------------------|
B|------------------------------------------------------------------------|
G|----------------------------0-------------------------------------------|
D|----------------------------0-------------------------------------------|
A|-(11b~)(11b~)(11b~)---12+---0-------------------------------------------|
E|------------------------------------------------------------------------|

                              
e|------------------------------------------------------------------------|
B|------------------------------------------------------------------------|
G|-------5--5-----------4--4----------------5--5-----------4--4-----------|
D|-7--7--5--5--5-5-5-5--4--4--4-------7--7--5--5--5-5-5-5--4--4--4--------|
A|-7--7--3--3--5-5-5-5--2--2--4---4---7--7--3--3--5-5-5-5--2--2--4---4----|
E|-5--5--------3-3-3-3--------2-0-2-0-5--5--------3-3-3-3--------2-0-2-0--|
  ^play four times

   let ring...............................................................
e|------------------------------------------------------------------------|
B|------------------------------------------------------------------------|
G|------------------------------------------------------------------------|
D|-7----------------------------------------------------------------------|
A|-7----------------------------------------------------------------------|
E|-5----------------------------------------------------------------------|


   full--------- 1/2-----------  full-------  1/2------
e|------------------------------------------------------------------------|
B|--------------------------------------------12b~(12b~)------------------|
G|------------------------------------------------------------------------|
D|------------------------------------------------------------------------|
A|---------------11b~(11b~)(11b~)(11b~)(11b~)-----------------------------|
E|-4b~(4b~)(4b~)----------------------------------------------------------|


   full-----------------------  1/2------------------
e|------------------------------------------------------------------------|
B|-12b~(12b~)(12b~)(12b~)(12b~)-12b~(12b~)(12b~)(12b~)--------------------|
G|------------------------------11b~(11b~)(11b~)(11b~)--------------------|
D|------------------------------------------------------------------------|
A|------------------------------------------------------------------------|
E|------------------------------------------------------------------------|

   full-----  1/2------
e|------------------------------------------------------------------------|
B|-12b~(12b~)-------------------------------------------------------------|
G|-------------------------------0----------------------------------------|
D|-------------------------------0----------------------------------------|
A|-----------------------11\-----0----------------------------------------|
E|------------11b~(11b~)-----x/-------------------------------------------|

  P.M.-
e|------------------------------------------------------------------------|
B|------------------------------------------------------------------------|
G|-------5--5-----------4--4----------------5--5-----------4--4-----------|
D|-7--7--5--5--5-5-5-5--4--4--4-------x--x--5--5--5-5-5-5--4--4--4--------|
A|-7--7--3--3--5-5-5-5--2--2--4---4---x--x--3--3--5-5-5-5--2--2--4---4----|
E|-5--5--------3-3-3-3--------2-0-2-0-x--x--------3-3-3-3--------2-0-2-0--|
  ^play three times

e|------------------------------------------------------------------------|
B|------------------------------------------------------------------------|
G|-------5--5-----------4--4----------------5--5-----------4--4-----------|
D|-7--7--5--5--5-5-5-5--4--4--4-------x--x--5--5--5-5-5-5--4--4--4--------|
A|-7--7--3--3--5-5-5-5--2--2--4---4---x--x--3--3--5-5-5-5--2--2--4--------|
E|-5--5--------3-3-3-3--------2-0-2-0-x--x--------3-3-3-3--------2--------|


e|------------------------------------------------------------------------|
B|------------------------------------------------------------------------|
G|-5-5-5-5-5-5-5/8-8-8/9-9-9----------------------------------------------|
D|-5-5-5-5-5-5-5/8-8-8/9-9-9-7-7-7-7-7-7-7-7-5-5-5-5-5-5-5-5--------------|
A|-3-3-3-3-3-3-3/6-6-6/7-7-7-7-7-7-7-7-7-7-7-5-5-5-5-5-5-5-5--------------|
E|---------------------------5-5-5-5-5-5-5-5-3-3-3-3-3-3-3-3--------------|
  ^ play four times

e|------------------------------------------------------------------------|
B|------------------------------------------------------------------------|
G|-4--4-------------------------------------------------------------------|
D|-4--4--4----------------------------------------------------------------|
A|-2--2--4---4------------------------------------------------------------|
E|-------2-0-2-0----------------------------------------------------------|


e|------------------------------------------------------------------------|
B|------------------------------------------------------------------------|
G|-------5--5-----------4--4----------------5--5-----------4--4-----------|
D|-7--7--5--5--5-5-5-5--4--4--4-------x--x--5--5--5-5-5-5--4--4--4--------|
A|-7--7--3--3--5-5-5-5--2--2--4---4---x--x--3--3--5-5-5-5--2--2--4---4----|
E|-5--5--------3-3-3-3--------2-0-2-0-x--x--------3-3-3-3--------2-0-2-0--|
  ^play three times



  let ring.......................................................
e|---------8---------------------------------------------------------7----|
B|---------8----------8--8--8--8--8----------------------------------7----|
G|-----7-------7-----------------------7----7------7---7--------7----8----|
D|-0-----------------------------------------------------------------8----|
A|------------------------------------------------------------------------|
E|------------------------------------------------------------------------|

  1/2--------------------  1/2------ full-------------
e|-------------------------------------------------------------------------|
B|-------------------------12b~(12b~)(12b~)(12b~)(12b~)--------------------|
G|-------------------------------------------------------------------------|
D|-7b~(7b~)(7b~)(7b~)(7b~)-------------------------------------------------|
A|-7b~(7b~)(7b~)(7b~)(7b~)-------------------------------------------------|
E|-------------------------------------------------------------------------|


  full------------------------  1/2------------ full-------------------  
e|-------------------------------------------------------------------------|
B|------------------------------12b~(12b~)(12b~)(12b~)(12b~)(12b~)(12b~)---|
G|-------------------------------------------------------------------------|
D|-------------------------------------------------------------------------|
A|-------------------------------------------------------------------------|
E|-4b~(4b~)(4b~)(4b~)(4b~)(4b~)--------------------------------------------|

   1/2------   1/2----   
e|-------------------------------------------------------------------------|
B|-12b~(12b~)--------------------------------------------------------------|
G|-11b~(11B~)-----------------0--0-----------------------------------------|
D|----------------------------0--0-----------------------------------------|
A|----------------------------0--0-----------------------------------------|
E|-------------4b~(4b~)--/10-----------------------------------------------|

                                     P.M.-
e|------------------------------------------------------------------------|
B|------------------------------------------------------------------------|
G|-------5--5-----------4--4----------------5--5-----------4--4-----------|
D|-7--7--5--5--5-5-5-5--4--4--4-------x--x--5--5--5-5-5-5--4--4--4--------|
A|-7--7--3--3--5-5-5-5--2--2--4---4---x--x--3--3--5-5-5-5--2--2--4---4----|
E|-5--5--------3-3-3-3--------2-0-2-0-x--x--------3-3-3-3--------2-0-2-0--|
  ^play eight times


   let ring...............................................................
e|------------------------------------------------------------------------|
B|------------------------------------------------------------------------|
G|------------------------------------------------------------------------|
D|-7----------------------------------------------------------------------|
A|-7----------------------------------------------------------------------|
E|-5----------------------------------------------------------------------|

   full-----------------------------------------------------
e|------------------------------------------------------------------------|
B|-13b~(13b~)(13b~)(13b~)(13b~)(13b~)(13b~)(13b~)(13b~)(13b~)-------------|
G|-14B~(14b~)(14b~)(14b~)(14b~)(14b~)(14b~)(14b~)(14b~)(14b~)-------------|
D|------------------------------------------------------------------------|
A|------------------------------------------------------------------------|
E|------------------------------------------------------------------------|

   1/2------  full------------------  full-----------------------------
e|------------------------------------------------------------------------|
B|-18b~(18b~)(18b~)(18b~)(18b~)(18b~)-------------------------------------|
G|-17B~(17b~)(17b~)(17b~)(17b~)(17b~)-------------------------------------|
D|------------------------------------------------------------------------|
A|------------------------------------------------------------------------|
E|------------------------------------16b~(16b~)(16b~)(16b~)(16b~)(16b~)--|

   full-------  full--- -1&1/2--------------------------------------------
e|------------------------------------------------------------------------|
B|------------------------------------------------------------------------|
G|------------------------------------------------------------------------|
D|------------------------------------------------------------------------|
A|------------------------------------------------------------------------|
E|-(16b~)(16b~)-2b~(2b~)-0b~~~~~~~~~~~~~~~~~~~~~~~~~~~~~~~~~~~~~~~~~~~~~~-|

   1/2-----------   1/2------------  1/2------------
e|------------------------------------------------------------------------|
B|------------------16b~(16b~)(16b~)-17b~(17b~)/18b~----------------------|
G|-15b~(15b~)(15b~)-------------------------------------------------------|
D|------------------------------------------------------------------------|
A|------------------------------------------------------------------------|
E|------------------------------------------------------------------------|


e|------------------------------------------------------------------------|
B|------------------------------------------------------------------------|
G|------------------------------------------------------------------------|
D|------------------------------------------------------------------------|
A|-x---x---x---x---x---x---x---x---x---x---x---x---x---x---x---x---x---x--|
E|-x---x---x---x---x---x---x---x---x---x---x---x---x---x---x---x---x---x--|
  ^play four times

   full------------- 1/2-
e|------------------------------------------------------------------------|
B|------------------------------------------------------------------------|
G|------------------------------------------------------------------------|
D|------------------------------------------------------------------------|
A|-4b~(4b~)(4b~)(4b~)(4b~)------------------------------------------------|
E|------------------------------------------------------------------------|


| /   slide up
| \   slide down
| h   hammer-on
| p   pull-off
| ~   vibrato
| +   harmonic
| x   Mute note
| b   Bend



comments
We did not receive enough feedback on this tab! Please rate:
print report bad tab
1 2 3 4 5
I want to post or [tab]
guest
You may want to rate the tab now too:
select rating
Please do not post tabs as comments. Select "correction" instead!