Oops, an error
Loading. Please wait.

Unplluged In Ny Tab

61,242 views 102 this week
4 commentsread comments
1 2 3 4 5
accurate
x 4
Autoscroll
+/-
esc
set tempo
stop
Contributor
Hey! There's an official Ultimate Guitar app which is ideal
for learning songs when you're away from computer. Get the app
WARNING: You are trying to view
                                    content from Ultimate-Guitar.com
                                    in an unauthorized application,
                                    which is prohibited.

                                    Please use an official Ultimate
                                    Guitar Tabs application for iPhone,
                                    iPad or Android to access legitimate
                                    chords, guitar, bass, and drum tabs
                                    from Ultimate-Guitar.com database.

                                    Type "ultimate guitar tabs" in Apple
                                    App Store's or Android Market's
                                    search to find the application.
About A Girl
_____________________________________________________________________________

TUNING:

Tune down 1/2 step

INTRO
e--0---0--0----3--3-------0--------3--3---------0--------3--3----------------|
b--0---0--0----0--0--0----0--0-----0--0---0-----0--0-----0--0--0-------------|
g--x---x--0-------0--0-------0--0-----0---0--------0--0-----0--0-------------|
d--2---2--0-------0--0-------0--0-----0---0--------0--0-----0--0-------------|
a--2---2--0-------------2----0------------0---2----0-------------------------|
e--0---0--0--3----3-----0----0--3-----3-------0----0--3-----3----------------|

e-----0-----0-----3--3-------------------------------------------------------|
b-----0-----0-----0--0----0--------------------------------------------------|
g-----x-----0--0--0--0----0--------------------------------------------------|
d-----2--2--0--0-----0----0--------------------------------------------------|
a--2-----2--0-------------0--------------------------------------------------|
e--0-----0-----3-----3-------------------------------------------------------|

VERSE
strum the chords Em and G

CHORUS
e---------------------(0)--------0--0------0--0--(0)-------------------------|
b--6---6--6-----6--6--(0)--------0--0------0--0--(0)-------------------------|
g--6---6--6-----6--6-------------3--3------3--3------------------------------|
d--6---6--6-----6--6---------4---4--4------4--4------------------------------|
a--4---4--4------------------4----------4------------------------------------|
e------------4---------------2----------2------------------------------------|

play that 2 times, then
e--0---0--0-----0--0--0---0--0--0--------------------------------------------|
b--0---0--0-----0--0--0---2--2--2--5----5--5--(0)----------------------------|
g--x---x--x-----x--x--x---2--2--2--5----5--5--(0)----------------------------|
d--2---2--2---------------2-----2--5----5--5--(0)----------------------------|
a--2---2--2--2------------0-----0--3----3--3---------------------------------|
e--0---0--0--0---------------------------------------------------------------|

SOLO
e----------------------------------------------------------------------------|
b-------------------------9/12-12-12-----------------------------------------|
g--------------7--7/9-----9/12-12-12-----------------------------------------|
d-----------5--7--7/9--9--9/12-12-12-----------------------------------------|
a-----5--7-------------------------------------------------------------------|
e--0-------------------------------------------------------------------------|

e----------------------------------------------------------------------------|
b---------------------------9----12----12------------------------------------|
g--------------7--7--7/9----9----12----12------------------------------------|
d-----------5--7--7--7/9----9----12----12------------------------------------|
a------5--7--------------0----0-----0------0---------------------------------|
e--0-------------------------------------------------------------------------|

e----------------------------------------------------------------------------|
b--------------------7/9-----9--12----12-------------------------------------|
g-----------------7--7/9--9--9--12-12-12-------------------------------------|
d-----------5--7--7--7/9--9--9--12-12-12-------------------------------------|
a-----5--7-------------------------------------------------------------------|
e--0-------------------------------------------------------------------------|

e----------------------------------------------------------------------------|
b--------------------7/9--9--9--9/12--12--12---------------------------------|
g--------------------7/9--9--9--9/12--12--12---------------------------------|
d-----------5--7--7--7/9--9--9--9/12--12--12---------------------------------|
a-----5--7-------------------------------------------------------------------|
e--0-------------------------------------------------------------------------|

then play chorus, verse chorus and then
e--0---0--0-------0--0--0--0--0--0-----------------------------------0-------|
b--0---0--0-------0--0--0--2--2--2--5---5-5-5-5-5-5-5-5-5-5-5-5-5-5--0-------|
g--x---x--x-------x--x--x--2--2--2--5---5-5-5-5-5-5-5-5-5-5-5-5-5-5--0-------|
d--2---2--2----------------2-----2--5---5-5-5-5-5-5-5-5-5-5-5-5-5-5--0-------|
a--2---2--2--2-------------0-----0--3---3-3-3-3-3-3-3-3-3-3-3-3-3-3--0-------|
e--0---0--0--0-------------------------------------------------------0-------|

then Em and G to end of song.

_____________________________________________________________________________

Come As You Are
_____________________________________________________________________________

TUNING:

Tune down 1/2 step

INTRO
e----------------------------------------------------------------------------|
b----------------------------------------------------------------------------|
g----------------------------------------------------------------------------|
d----------------------------------------------------------------------------|
a-------------0---0-------------2-------2--0---------------------------------|
e--0--0--1--2---2----2--2--1--0---0--0--------1------------------------------|

e----------------------------------------------------------------------------|
b----------------------------------------------------------------------------|
g----------------------------------------------------------------------------|
d----------------------------------------------------------------------------|
a----0----0----0------2---------2--------------------------------------------|
e--2---2----2----1--0----0---0----0--1---------------------------------------|

e----------------------------------------------------------------------------|
b----------------------------------------------------------------------------|
g----------------------------------------------------------------------------|
d----------------------------------------------------------------------------|
a----0---0-------------2--------2---------0-----0-------------2-------2------|
e--2---2----2--2--1--0----0--0----0--1--2----2-----2--2--1--0----0--0---0--1-|

VERSE
e----------------------------------------------------------------------------|
b----------------------------------------------------------------------------|
g----------------------------------------------------------------------------|
d----------------------------------------------------------------------------|
a----0----0--------------2--------2------------------------------------------|
e--2----2----2--2--1--0----0--0-----0--1-------------------------------------|

play that 7 times, then
e---------------------------------0--0---------------------------------------|
b---------------------------------0--0---------------------------------------|
g---------------------------------1--1---------------------------------------|
d----------------------------------------------------------------------------|
a-----0----0------------2----------------------------------------------------|
e--2----2----2--2--1--0----0------------0--1---------------------------------|

CHORUS
e----------------------------0--------------------0---0----------------------|
b----------------------2-----2---2--2-------------0------0-----2-2--2--2-----|
g-------------------2--2--2--2---2--2--------------------------2-2--2--2-----|
d--4---4---4--4-----2--2--2---------0-------4--4---------------2-2--2--2-----|
a--4---4---4--4--0--0-----0------------0----4--4-------------0------0--------|
e--2---2---2--2--0---------------------0----2--2-----------------------------|

e----------------------------------------------------------------------------|
b--------------------2--2--2----2--2--2-------0--0-----0---------------------|
g--------4--4--4-----2--2--2----2--2--2-------0--0---0---0---2--2--2--2--2---|
d--------4--4--4-----2--2--2----2--2--2----4-----------------2--2--2--2--2---|
a------------------0----0--0----0--0--0----4-----------------2--2--2--2--2---|
e--2--2------------------------------------2-----------------0--0--0--0--0---|

e----------------------------------------------------------------------------|
b----------------------------------------------------------------------------|
g----------------------------------------------------------------------------|
d----------------------------------------------------------------------------|
a----------------------------------------------------------------------------|
e--0--0--1-------------------------------------------------------------------|

BRIDGE
e---------------------0--0--0-0--0-0-----------------------------------------|
b------------------0--3--3--3-3--3-------------------------------------------|
g--4--4--4--4-4-4--0--2--2-------2-------------------------------------------|
d--4--4--4--4-4-4--0--0--0-------0-------------------------------------------|
a--2--2--2--2-2-2--0---------------------------------------------------------|
e----------------------------------------------------------------------------|

play that 3 times, then
e---------------------0--0--0--0---------------------------------------------|
b------------------0--3--3--3--3---------------------------------------------|
g--4--4--4--4-4-4--0--2--2-----2---------------------------------------------|
d--4--4--4--4-4-4--0--0--0-----0---------------------------------------------|
a--2--2--2--2-2-2--0---------------------------------------------------------|
e----------------------------------0--0--1-----------------------------------|

guitar 1
e----------------------------------------------------------------------------|
b-------------------------------------------------------------0----x--x--x---|
g-------------------------------------------------------------2----6--6--6---|
d------------------------------2-----0------0---0--0-------------------------|
a----0----0------------2--2-----------------------------2--------------------|
e--2----2---2--2--1--0------0-----0----1--2-----------0----0-----------------|

SOLO
e----------------------------------------------------------------------------|
b------0--0--0--0----------0----0--0----------0----0--0--------0-----------0-|
g--6---9--9-11-11\6--6--6--9---11-11\6--6--6--9---11-11/13-13-11-11--9--9--0-|
d----------------------------------------------------------------------------|
a----------------------------------------------------------------------------|
e----------------------------------------------------------------------------|

e----------------------------------------------------------------------------|
b--0-----0---0--0-0--------0---0--0----0-----0---0--0-----0-----0-------0--0-|
g--6--6--9--11-11\6--6--6--9--11-11\6--6--6--9--11-11/13-13-13-11-11-9--9--6-|
d----------------------------------------------------------------------------|
a----------------------------------------------------------------------------|
e----------------------------------------------------------------------------|

e-----------------------------------------------------------------------------|
b---0-----0---0----0--------0---0----0--------0------0-------0------0--0----0-|
g---6--6--9--11-11\6--6--6--9--11-11\6--6--6--9--9--11-11/13---13--11--9--9---|
d-----------------------------------------------------------------------------|
a-----------------------------------------------------------------------------|
e-----------------------------------------------------------------------------|

e----------------------------------------------------------------------------|
b---0-----0---0--------------0---0--0----------0---0--0-----------0--0--0----|
g---6--6--9--11--11\6--6--6--9--11-11\6--6--6--9--11-11/13-13-13-11--0--0----|
d----------------------------------------------------------------------------|
a----------------------------------------------------------------------------|
e----------------------------------------------------------------------------|

OUTRO (guitar 1)
e----------------------------------------------------------------------------|
b----------------------------------------------------------------------------|
g----------------------------------------------------------------------------|
d--------0---0-----------------2---------0--------------------------2---0----|
a----0--------------2-------------------------0-------------2----------------|
e--2---2---2---1--0---0--0--0----0--1--2----2---2--2--1--0----0--0----0----1-|

e-----------------------------------------------------------------------------|
b-----------------------------------------------------------------------------|
g-----------------------------------------------------------------------------|
d----------0---0-----------------2----------------0-----------------2----2----|
a-----0----------------2--------------------0---0------------2-----------2----|
e--2-----2---2---1--0----0--0--0---0--1--2----2------2--1--0---0--0---0--0--1-|

END
e--0-------------------------------------------------------------------------|
b--0-------------------------------------------------------------------------|
g--x-------------------------------------------------------------------------|
d--4-------------------------------------------------------------------------|
a--4-------------------------------------------------------------------------|
e--2-------------------------------------------------------------------------|

_____________________________________________________________________________

Jesus Doesn't Want Me For A Sunbeam
_____________________________________________________________________________

TUNING:

Tune down 1/2 step

INTRO
e--0---0--0--0--0--0---0---0--0--0-------------------------------------------|
b--0---0--0--0--0--3---3---3--3--0--------2--2--3--2-----2---2--3--0---------|
g--1---1--1--1--0--2---2---2--2--0-----2-----2--2--2-----2---2--2--0---------|
d--2---------2--0--0---0------0--0--2--------2--2--2-----2---2--2--0---------|
a--2---------2--0----------------0--0-----------------0----------------------|
e--0---------0---------------------------------------------------------------|

e--------------------0--0---0--0---------------------------------------------|
b-----0---------0----3--3---3--0--2---2--------2---2-------------------------|
g-----1---------1----2--2---2-----2------2--2--2---2--2--2-------------------|
d-----2--------------0--0---0-----2-------------------------2--0-------------|
a--2------------------------------0------------------------------------------|
e--0-------0-----------------------------------------------------------------|

VERSE
e----------------------------------------------------------------------------|
b--------------------------3---3----------------------2----------------------|
g--------------------2--2--2---2----0------2----2--2--2-------2--------2-----|
d--------------------0--0--------0-----2-----2--------------2----------2-----|
a--------2-------0---------------------0-----------------0-------0--0----0---|
e--0---0---0--0--------------------------------------------------------------|

e----------------------------------------------------------------------------|
b------------------3-----3-------------------------3--2----------------------|
g------------------2-----2---2---0--------2--------2--2----2--------2--------|
d------------------0--0--------0--------2-------2-----2----2--------2--------|
a---------------0--------------------0-------0-----------0----0--0-----0-----|
e--0---0--0--0---------------------------------------------------------------|

e----------------------------------------------------------------------------|
b----------------------------3--------------------2--------------2-----------|
g----------------------2--2--2-------2------------2-----2--------2------2----|
d-------------------0--0-------0--0--0--0--2---2--------2--2--2---------2----|
a----------------2----------------------0--0---------0-----0-------0--0---0--|
e--0---0--0--0---------------------------------------------------------------|

e----------------------------------------------------------------------------|
b--------------------------3------------------2--------3^2--2-----------2--0-|
g--------------------2-----2---2---0----------2--------2----2--2--2--2--2--0-|
d----------------0------0--------0-----2---2--------2-------2--2--2--2--2--0-|
a-------2------------------------------0---------0-------------0--0--0--0----|
e--0--0----0--0--------------------------------------------------------------|

CHORUS
e--0---0--0---0--0--0--0---0--0---0--0---------------------------------------|
b--0---0--0---0--0--0--3---3--3---3--3--0------------------------------------|
g--x---x--x---x--x--0--2---2--2---2--2--0------------------------------------|
d--2---2--2---2--2--0--0---0--0---0--0--0------------------------------------|
a--2---2--2---2--2----------------------0------------------------------------|
e--0---0--0---0--0-----------------------------------------------------------|

play that 3 times, then
e--0---0--0---0--0---0---0--0---0--0-----------------------------------------|
b--2---2--2---2--3---2---2--2---2--2--0--------------------------------------|
g--2---2--2---2--2---2---2--2---2--2--0--------------------------------------|
d--2---2--2---2--2---2---2--2---2--2--0--------------------------------------|
a--0---0--0---0--0---0---0--0---0--0--0--------------------------------------|
e----------------------------------------------------------------------------|

_____________________________________________________________________________

The Man Who Sold The World
_____________________________________________________________________________

TUNING:

Tune down 1/2 step

INTRO
e----------------------------------------------------------------------------|
b----------------------------------------------------------------------------|
g--2-2-2-0--2^3^2-0--2-2-2-0--2^3^2-0--2-2-2-0--2^3^2-0--2-2-2-0--2^3^2-0----|
d----------------------------------------------------------------------------|
a----------------------------------------------------------------------------|
e----------------------------------------------------------------------------|

Guitar 2
..F....................................Dm
e----------------------------------------------------------------------------|
b----------------------------------------------------------------------------|
g--2-2-2-0--2^3^2-0--2-2-2-0--2^3^2-0--2-------------------------------------|
d----------------------------------------------------------------------------|
a----------------------------------------------------------------------------|
e----------------------------------------------------------------------------|

here's how you play the following chords:
...A.......Dm......F.......C.......C5

e--0-------1-------1---------------------------------------------------------|
b--2-------3-------1-------1-------------------------------------------------|
g--2-------2-------2-------0-------5-----------------------------------------|
d--2-------0-------3-------2-------5-----------------------------------------|
a--0---------------3-------3-------3-----------------------------------------|
e------------------1---------------------------------------------------------|

Play the following chords in the brackets

We passed upon the stairs (A)
Spoken walls and wells (Dm)
Although I wasn't there (A)
He said i was his friend (F)
Which came as a surprise (C)
I spoke into his (A) eyes -- I thought you died alone (Dm)
A long long time ago (C5)

Both guitars play C5 until Kurt says "Oh no", then play

Guitar 1
..C5........................F...............................C#

Guitar 2
e----------------------------------------------------------------------------|
b----------------------------------------------------------------------------|
g-----------------2--3--5----------------------------------------------------|
d--------2--3--5---------------------------0--2--3---------------------------|
a--3--5---------------------------0--1--3-------------------------3----------|
e---------------------------1--3----------------------------4---4---4--------|

...F........................C5........................F
e----------------------------------------------------------------------------|
b----------------------------------------------------------------------------|
g------------------------------------------2--3--5---------------------------|
d----------------0--2--3----------2--3--5----------------------------0--2--3-|
a--------0--1--3------------3--5----------------------------0--1--3----------|
e--1--3-----------------------------------------------1--3-------------------|

then, both guitars
e----------------------------------------------------------------------------|
b--6---x--6--6--6------------------------------------------------------------|
g--6---x--6--6--6------------------------------------------------------------|
d--6---x--6--6--6------------------------------------------------------------|
a--4---x--4--4--4------------------------------------------------------------|
e----------------------------------------------------------------------------|

SOLO
...Dm.........................A - guitar 2 plays those while guitar 1 plays:

e----------------------------------------------------------------------------|
b----------------------------------------------------------------------------|
g--2-2-2-0--2^3^2-0--2-2-2-0--2/8/9/10--9(10)\9--9--(9)--(9)--(9)\-----------|
d----------------------------------------------------------------------------|
a----------------------------------------------------------------------------|
e----------------------------------------------------------------------------|

then
...Dm............................F - guitar 2 plays those while one plays:

e----------------------------------------------------------------------------|
b----------------------------------------------------------------------------|
g--2-2-2-0--2^3^2-0--2-2-2-0--2--4/10--10--10-10-10--10--10--10-10--10-10\9--|
d----------------------------------------------------------------------------|
a----------------------------------------------------------------------------|
e----------------------------------------------------------------------------|

...Dm.......................A

e----------------------------------------------------------------------------|
b----------------------------------------------------------------------------|
g--9\7-7--7--7--7-7--7-7--7/9-9-9--9-9-9--9-9--9\----------------------------|
d----------------------------------------------------------------------------|
a----------------------------------------------------------------------------|
e----------------------------------------------------------------------------|

play that 2 times, then
..Dm...................................F

e----------------------------------------------------------------------------|
b----------------------------------------------------------------------------|
g--2-2-2-0--2^3^2-0--2-2-2-0--2^3^2-0--2-------------------------------------|
d----------------------------------------------------------------------------|
a----------------------------------------------------------------------------|
e----------------------------------------------------------------------------|

_____________________________________________________________________________

Pennyroyal Tea
_____________________________________________________________________________


TUNING:

Tune down 1/2 step

INTRO
e--0------0---0-----0----------0---0--0----------3---3----3-----3------------|
b--1------1---1-----1---1------1---1--1--0-------0---0----0-----0------------|
g--2------2---2--2--2---2------2---2--2--0-------------------------0---------|
d--2---2---------2------2--2----------2--0----0---------0-----0----0---------|
a--0--------------------0----------------0--------------------2-----------)--|
e--------------------------------------------3----------------3------3-2-3-0-|

e----------------------------------------------------------------------------|
b--------2----------------------------0--------0-----------------------------|
g--------2------2-----------2---2--2--0--------0--------0---0----------------|
d--2--2---------2--------2--2---2--2--0-----------0-----0---0----0-----------|
a--0---------0-----0--0--------------------------------------------------)---|
e----------------------------------------3--3--------3-----3---3----3-2-3-0--|

VERSE
e--------------------------------------------3-------------------------------|
b--------------------------------------------0---0---------------------------|
g----------------------2-----2----0--------------0------0--------------------|
d--2---2-2----2-----2-----2----2----------0--------0----0--------------------|
a--0--------0---0---------0-------------------------------------------)------|
e--------------------------------------3-------------3------x--x--2--3--0----|

e--------------------------------------------3-----3-------------------------|
b-----------------------------------0--------0-----0-------------0-0---------|
g--------2----2-----------2----2----0--------0-----0-------------0-0---------|
d--2--2----------2--2--2----------2-----0--0----0------0-0-0-0-0-0-----------|
a--0-------0-----0--0-------0-----0-----x-------x------x-x-x-x-x-x-----------|
e---------------------------------------3-------3------3-3-3-3-3-3-----------|

CHORUS
e----------------------------------------------------------------------------|
b--5---5--5---5--5--0--7---7--7---7--7--0--------------------------------0---|
g--5---5--5---5--5--0--7---7--7---7--7--0--------------------------------0---|
d--5---5--5---5--5-----7---7--7---7--7-------8--8-8--8-8--8--8--8--8--8------|
a--3---3--3---3--3-----5---5--5---5--5-------8--8-8--8-8--8--8--8--8--8------|
e--------------------------------------------6--6-6--6-6--6--6--6--6--6------|

e----------------------------------------------------------------------------|
b--5---5--5----5--5--0---7---7--7---7--7-----------------------------------0-|
g--5---5--5----5--5--0---7---7--7---7--7--0--------------------------------0-|
d--5---5--5----5--5--0---7---7--7---7--7------8--8--8--8--8-8--8-8--8-8--8---|
a--3---3--3-------3------5---5--5---5--5------8--8--8--8--8-8--8-8--8-8--8---|
e------------3--------------------------------6--6--6--6--6-6--6-6--6-6--6---|

e----------------------------------------------------------------------------|
b--5---5--5----5--5--0--7--7--7--7---7--7--0-------------------------------0-|
g--5---5--5----5--5--0--7--7--7--7---7--7--0-------------------------------0-|
d--5---5--5----5--5--0--7--7--7--7---7--7------8--8-8--8-8-8-8-8-8-8-8-8-8---|
a--3---3--3-------3-----5--5--5--5---5--5------8--8-8--8-8-8-8-8-8-8-8-8-8---|
e------------3---------------------------------6--6-6--6-6-6-6-6-6-6-6-6-6---|

e----------------------------------------------------------------------------|
b--5---5--5---5--5--0--7---7--7---7--7--0------------------------------------|
g--5---5--5---5--5--0--7---7--7---7--7--0------------------------------------|
d--5---5--5---5--5-----7---7--7---7--7------8--8--8---8--8-8-8-8-8-8-8-8-8---|
a--3---3--3---3--3-----5---5--5---5--5------8--8--8---8--8-8-8-8-8-8-8-8-8---|
e-------------------------------------------6--6--6-6----6-6-6-6-6-6-6-6-6-0-|

2ND VERSE
e---------------------------------------------3------------------------------|
b--------x----1----------1-------1------------0--0---------------------------|
g--------2----2----------2-------2---------------0----------0----------------|
d-----2---------------2-------------------------------------0----------------|
a--0-------0----0--0-------0--0----0----------------2------------------------|
e---------------------------------------3--3----------3--3-----3--2--3--0----|

e-------------------------------------------3--------------------------------|
b--------2-----------------2------------0---0--------------0-0-0-0-0-0-------|
g--------2-------2---------2------2-----0---0----0-----0-0-0-0-0-0-0-0-------|
d--2--2--------2----2--2----------2-----0--------0-----0-0-0-0-0-0-0-0-------|
a--0--------0-------0--0------0------------------------x-x-x-x-x-x-x-x-------|
e-----------------------------------0---3------3----3--3-3-3-3-3-3-3-3-------|
play chorus again and then

3RD VERSE
e----------------------------------------------------------------------------|
b--2------2--------------2----------------------0----------------------------|
g--2---2--------2-------------------------------0-----0------------0---------|
d--2------------------2-----2------2^0--------------------------0------------|
a--0---------0----0---0------------0---------2------------2---2---------0----|
e-----------------------------------------3---------3---------3-------3-2-0--|

e---------------------------------------------3---3--3--3--------------------|
b----------2--------------------2---2-----0---0---0--0--0-----0-0-0-0-0-0-0--|
g----------2------2-------------2---2-----0---0---0--0--0-----0-0-0-0-0-0-0--|
d--2---2-------2-----2--2---2-------------0----------0--------0-0-0-0-0-0-0--|
a--0-----------0-----0--0---0---------------------------------x-x-x-x-x-x-x--|
e-------------------------------------0---3----------3-----3--3-3-3-3-3-3-3--|

OUTRO
e------------------0--0------------------------------------------------------|
b--------0-----0---1--1--1-----1-----1-----1-------1-------------1-----1-----|
g--------2-----2---2-----2-----2-----2-----2-------2----------2--2-----2-----|
d-----2-----2------------------------2---2------2---------2---2------2----2--|
a--0-------------------------0---0---0----------------0---0------------------|
e----------------------------------------------------------------------------|

e----------------------------------------------------------------------------|
b--------1-------------------------------------------------------------------|
g---------------2------------------------------------------------------------|
d-----2------2-----2---------------------------------------------------------|
a--0-----------------0-------------------------------------------------------|
e----------------------------------------------------------------------------|

_____________________________________________________________________________

Dumb
_____________________________________________________________________________

TUNING:

Tune down 1/2 step

VERSE (plam mute throughout)
e----------------------------------------------------------------------------|
b--------------------2--------------------------5----------------------------|
g-----2--------------2--0----------5------------5----------------------------|
d-----------------2----------------5---------5------0------------------------|
a-------------0-------------3---3------3--3----------------------------------|
e--0------0-----------------3---3------3-------------------------------------|
play that 4 times, then

CHORUS
e---------0--0---0--0-----------3--3---3---0---------------------------------|
b---------0--0---0--0-----------0--0---0---0---------------------------------|
g----------------------------------------------------------------------------|
d--2--2------------------0---0-----------------------------------------------|
a--2--2------------------2---2-----------------------------------------------|
e--0--0------------------3---3-----------------------------------------------|
play that 4 times.

BRIDGE
e----------------------------------------------------------------------------|
b--4--4---4---4--4--0---5--5---5---5--5--0-----------------------------------|
g--4--4---4---4--4--0---5--5---5---5--5--0-----------------------------------|
d--4--4---4---4--4--0---5--5---5---5--5--0-----------------------------------|
a--2--2---2---2--2--0---3--3---3---3--3--0-----------------------------------|
e----------------------------------------------------------------------------|

then,
e----------------------------------------------------------------------------|
b--4--4---4---4--4--0---5----------------------------------------------------|
g--4--4---4---4--4--0---5----------------------------------------------------|
d--4--4---4---4--4--0---5----------------------------------------------------|
a--2--2---2---2--2--0---3----------------------------------------------------|
e----------------------------------------------------------------------------|

OUTRO
starts with Em, then:
(A) I think im dumb (G)
(C5) I think im dumb (Em)
(A) I think im dumb (G)
(C5) I think im dumb (Em)

_____________________________________________________________________________

Polly
_____________________________________________________________________________

TUNING:

Tune down 1/2 step

INTRO
e----------------------------------------------------------------------------|
b----------------------------3--------5--5--0--------------------------------|
g----------------5-----------2--------5--5--0--------------------------------|
d----------------5--------0--------5-----5-----------------------------------|
a--2-------------5--------0--------3-----3-----------------------------------|
e--0---x---0--3--3--x--x-------x---------------------------------------------|
play that 2 times.

VERSE
E5 G5 D5 C5

CHORUS
e----------------------------------------------------------------------------|
b--3---x---5---5--5--0---0---x---3---3--3--0---------------------------------|
g--2---x---5---5--5--0---0---x---3---3--3--0---------------------------------|
d--0---x---5---5--5------0---x---3---3--3------------------------------------|
a--0---x---3---3--3------x---x---1---1--1------------------------------------|
e------------------------3---x-----------------------------------------------|
play that 8 times.

END
e--0-------------------------------------------------------------------------|
b--0-------------------------------------------------------------------------|
g--x-------------------------------------------------------------------------|
d--2-------------------------------------------------------------------------|
a--2-------------------------------------------------------------------------|
e--0-------------------------------------------------------------------------|

_____________________________________________________________________________

On A Plain
_____________________________________________________________________________

TUNING:

Tune down 1/2 step, then drop D

VERSE
e----------------------------------------------------------------------------|
b--7---7--7------------------------------------------------------------------|
g--7---7--7---7--7--7--------------------------------------------------------|
d--7---7--7---7--7--7--------------------------------------------------------|
a--5---5--5---5--5--5--0--3---3--0--2--3--2--0-------------------------------|
e-------------5--5--5--0--3---3--0--2--3--2--0-------------------------------|

e----------------------------------------------------------------------------|
b--7---7--7------------------------------------------------------------------|
g--7---7--7---7--7--7--------------------------------------------------------|
d--7---7--7---7--7--7--------------------------------------------------------|
a--5---5--5---5--5--5--0--3---3--0--2--3--2--0-------------------------------|
e-------------5--5--5--0--3---3--0--2--3--2--0-------------------------------|

e----------------------------------------------------------------------------|
b--7---7--7--5--5--5--5--4---4--4--2--2--2-----------------------------------|
g--7---7--7--5--5--5--5--4---4--4--2--2--2-----------------------------------|
d--7---7--7--5--5--5--5--4---4--4--2--2--2--0--------------------------------|
a--5---5--5--3--3--3--3--2---2--2--0--0--0--0--------------------------------|
e----------------------------------------------------------------------------|

e----------------------------------------------------------------------------|
b--7---7--7------------------------------------------------------------------|
g--7---7--7---7--7--7--------------------------------------------------------|
d--7---7--7---7--7--7--------------------------------------------------------|
a--5---5--5---5--5--5--0--3---3--0--2--3--2--0-------------------------------|
e-------------5--5--5--0--3---3--0--2--3--2--0-------------------------------|

play all of that twice, then the chorus
e----------------------------------------------------------------------------|
b--7---7--7------------------------------------------------------------------|
g--7---7--7--7--7--7--7-10-10-10-10-10-10------------------------------------|
d--7---7--7--7--7--7--7-10-10-10-10-10-10--0---------------------------------|
a--5---5--5--5--5--5--5--8--8--8--8--8--8--0---------------------------------|
e------------5--5--5--5--8--8--8--8--8--8--0---------------------------------|
play that 4 times.

BRIDGE
e----------------------------------------------------------------------------|
b----------------------------------------------------------------------------|
g-------------------------------------------2---2-----0----------------------|
d--------3-----3---------2-----2---------2---------2-----------5---5---------|
a-----3------3----3----2----2-----2---0---------------------5------5---------|
e--3-----------------2------------------------------------5-----------0------|

e----------------------------------------------------------------------------|
b----------------------------------------------------------------------------|
g-------------------------------------------2---2-----0----------------------|
d--------3-----3---------2-----2---------2---------2-----------5---5---------|
a-----3------3----3----2----2-----2---0---------------------5------5---------|
e--3-----------------2------------------------------------5-----------0------|

e----------------------------------------------------------------------------|
b----------------------------------------------2-----------------------------|
g----------------------------------------------2------2--0-------------------|
d-------------------------------2-----2-----2------2--2-----------5---5--5---|
a-----3--3---3--3------------2-----2-----0-------------------5----5---5--5---|
e--3---------------0---2--2--------------------------------5---5-----------0-|

e----------------------------------------------------------------------------|
b--------------------------------------------2-------------------------------|
g--------------------------------------------2-----2--0----------------------|
d--------3----3------------2-----2--------2-----2--2-----5-5-5-5-5-5-5-5-5---|
a-----3-----3----3------2-----2-----2--0-----------------5-5-5-5-5-5-5-5-5---|
e--3-----------------2-----------------------------------5-5-5-5-5-5-5-5-5---|

then play the verse, and after the chorus play
e----------------------------------------------------------------------------|
b--7---7--7--7--7--7--7------------------------------------------------------|
g--7---7--7--7--7--7--7------------------------------------------------------|
d--7---7--7--7--7--7--7-10-10-10-10-10-10-0----------------------------------|
a--5---5--5--5--5--5--5-10-10-10-10-10-10-0----------------------------------|
e------------5--5--5--5--8--8--8--8--8--8-0----------------------------------|

play that 2 times, then end with,
e----------------------------------------------------------------------------|
b----------------------------------------------------------------------------|
g--7-------------------------------------------------------------------------|
d--7-------------------------------------------------------------------------|
a--5-------------------------------------------------------------------------|
e--0-------------------------------------------------------------------------|

_____________________________________________________________________________

Something In The Way
_____________________________________________________________________________

TUNING:

Tune down 1/2 step and drop D

INTRO
e----------------------------------------------------------------------------|
b----------------------------------------------------------------------------|
g----------------------------------------------------------------------------|
d----------------------------------------------------------------------------|
a-------4-----4-----------0-----0----------4-----4-----------0----0----------|
e--4--------4----4---0--------0---0---4--4-----4----4---0-------0---0--------|

VERSE
e----------------------------------------------------------------------------|
b----------------------------------------------------------------------------|
g----------------------------------------------------------------------------|
d----------------------------------------------------------------------------|
a-------------4-----------0----0----------------------------0------0---------|
e--4--------4----4--0--------0----0---4--4-4----4-4-4--0--0------0---0-------|

e----------------------------------------------------------------------------|
b----------------------------------------------------------------------------|
g----------------------------------------------------------------------------|
d----------------------------------------------------------------------------|
a----------4------4--------0-----0---------4-----4---------0-----0-----------|
e--4----4-------4---4-0--0-----0---0--4--------4---4--0--------0---0---------|

e----------------------------------------------------------------------------|
b----------------------------------------------------------------------------|
g----------------------------------------------------------------------------|
d----------------------------------------------------------------------------|
a------4-----4----------0-----0----------4-----4------------0-----0----------|
e--4-------4---4--0---0-----0---0---4--------4---4--0---0-------0---0--------|

e----------------------------------------------------------------------------|
b----------------------------------------------------------------0--0--0-----|
g----------------------------------------------------------------0--0--0-----|
d----------------------------------------------------------------0--0--0-----|
a---------4-------4----------0-----0---------4-----4-------0-----0--0--0-----|
e--4----4------4----4--0---0-----0--0--4---4-----4---4--0--------0-----0-----|

CHORUS
e----------------------------------------------------------------------------|
b----------------0---------3--3--3-0-----------------------------------------|
g----------------0---------2--2--2-0-----------------------------------------|
d--4---4-4--4--------0--------0--0-------------------------------------------|
a--4---4-4--4--------0--------0----------------------------------------------|
e--4---4-4--4--------0--------0----------------------------------------------|

play that 7 times, then
e----------------------------------------------------------------------------|
b------------------0--3------------------------------------------------------|
g------------------0--2------------------------------------------------------|
d--4---4-4--4------0---------------------------------------------------------|
a--4---4-4--4------0---------------------------------------------------------|
e--4---4-4--4------0---------------------------------------------------------|

2ND VERSE
e----------------------------------------------------------------------------|
b----------------------------------------------------------------------------|
g----------------------------------------------------------------------------|
d----------------------------------------------------------------------------|
a-------4------4--------0-----0---------4-------4----------0-----0-----------|
e--4------4--4----0---0-----0-----4---4---4---4----0--0--0-----0-------------|

e----------------------------------------------------------------------------|
b----------------------------------------------------------------------------|
g----------------------------------------------------------------------------|
d----------------------------------------------------------------------------|
a-------4-------------0----0---0---------------4---------0---------0---------|
e--4------4---4--0--0---0----0----4---4-4----4----0----0---0----0------------|

e----------------------------------------------------------------------------|
b----------------------------------------------------------------------------|
g----------------------------------------------------------------------------|
d----------------------------------------------------------------------------|
a-------4---------------0-----0--------4---------4--------0-----0------------|
e--4------4---4---0---0-----0---0--4-----4----4----0---0------0---0----------|

e------------------------------------------------------------------0--0------|
b--------------------------------------------------------------0---0--0------|
g--------------------------------------------------------------0---0--0------|
d--------------------------------------------------------------0---0--0------|
a---------4---------4-------0--------0-------4-------4---------0------0------|
e--4----4----4----4----0------0--0------4------4---4----0---0---------0------|

then play the chorus 15 times and end with,
e----------------------------------------------------------------------------|
b---------------------------------(3)----------------------------------------|
g----------------------------------------------------------------------------|
d--4---4--4--4--4--4---------------------------------------------------------|
a--4---4--4--4--4--4--0------------------------------------------------------|
e--4---4--4--4--4--4--0------------------------------------------------------|

_____________________________________________________________________________

Plateau
_____________________________________________________________________________

TUNING:

Tune down 1/2 step

INTRO
e--3------6------3------6------3------6------1-------------------------------|
b-----------------------------------------------------1----------------------|
g-----------------------------------------------0---------0------------------|
d------0------0------0------0------0------0----------------------------------|
a----2------5------2------5------2------5------------------------------------|
e--3------6------3------6------3------6------1-----1-------------------------|

play that 3 times, then
e--3------6--------------------3--------------------1------------------------|
b-----------------------6-------------6------1-------------------------------|
g------------------------------------------------0------0--------------------|
d------0------0------0------0------0------0----------------------------------|
a----2------5------2------5------2------5------------------------------------|
e--3------6------3------6------3------6------1-------------------------------|

PRE-CHORUS
e--4-------------------------------------------------------------------------|
b----------4-----------------------------------------------------------------|
g----0-----------------------------------------------------------------------|
d----------------------------------------------------------------------------|
a-------3--------------------------------------------------------------------|
e--4-------------------------------------------------------------------------|

CHORUS
e--1/3----------3------------------------------------------------------------|
b--1/3--------3-------------3------3----------------------3------------------|
g-------0-------------------3------3----------------------3------------------|
d------------------3--3-----3------3---------/3--------3-----3---------------|
a-----------------------1--------------------------1------------1------------|
e---------3--------------------1-------3--3----------------------------------|

e------------3----------------------------------3----------------------------|
b---------------3-----------3------3---3------------3----------3-------------|
g--------0------------------3------3--------0------------------3-------------|
d-----0-------------3-------3------3------0------------3-------3-------------|
a-----------------------1----------------------------------1-----------------|
e--3----------------------------1------3--------------------------1----------|

PRE OUTRO
e--4------------------------4------------6-----------------------------6\----|
b---------4-----------4----------------------------6---------------6---------|
g---------------0------------------0----------------------0------------------|
d------------0-----------------------------------------0---------------------|
a------3-----------3------------3--------------5---------------5-------------|
e--4---------------------4---------------6-----------------------------------|

OUTRO
guitar 1
e------------------------------------------------------------------------0---|
b------2-------0----------3--------0--1------2-------0--------0--------1-----|
g----2-------2---2------2--------2---------2-------2---2----2--------2-------|
d--2-------2----------0--------0---------2-------2--------3--------0---------|
a--------0-------------------3-----------------0-----------------3-----------|
e----------------------------------------------------------------------------|

guitar 2
e--------0--------------2----------0-----------0-----------------------0-----|
b------2-----2------------2--------1---------2----2---------1-0--------1-----|
g----2---------2-------------------0-------2--------2-------2-2--------0-----|
d--2-------------2----0--------0-2-------2------------2---3--------0-2-------|
a----------------------------3-----------------------------------3-----------|
e----------------------------------------------------------------------------|

play that 4 times and end with
e--0-------------------------------------------------------------------------|
b--0-------------------------------------------------------------------------|
g--2-------------------------------------------------------------------------|
d--2-------------------------------------------------------------------------|
a--0-------------------------------------------------------------------------|
e----------------------------------------------------------------------------|

_____________________________________________________________________________

Oh Me
_____________________________________________________________________________

TUNING:

Tune down 1/2 step

INTRO
Guitar 2.........E............D
e----------------0-----------------------0---0--0------0---------------------|
b----------------0-----------------------3---3--3------3---------------------|
g----------------1-----------------------0---0--0--0-------------------------|
d----------------2-----------------------4---4--4--4-------------------------|
a---------7\-----2----------7\5---5--5----------------------------7\5--------|
e--4--5/7-----0--0---4--5/7-------------------------------4--5/7-------------|

....................C...........D....................E
e--------0------0------------------------------------0-----------------------|
b--------3------3-------------------x----------------0-----------------------|
g--0-----0---0------------0---------x--(0)-----------1-----------------------|
d--4---------4------2---------2/4--------------------2-----------------------|
a--5--5-------------3---3-----3/5--------------------2-----------------------|
e--------------------------------------------0---0---0-----------------------|

play that 2 more times for the verse, then
Guitar 2..........E..................C..............................D
e-----------------0----------------------------------------------------------|
b-----------------0----------------------------------------------------------|
g-----------------1----------------------------------------------------------|
d-----------------2------------------5--5--5--5-5-5--5---5--5---7---7-----7--|
a----------7\-----2------------7\5---3--3--3--3-3-3--3---3--3---5---5-----5--|
e--4--5/7------0--0----4--5/-------------------------------------------------|

...E..................G.....E.....................G..........E
e----------------------------------------------------------------------------|
b--------------------------------------------------------9---9---9--9--------|
g------------9-------12-----9---9---9--9---9--x--12--12--9---9---9--9--9-----|
d--9---9--9--9-------12-----9---9---9--9---9--x--12--12--9---9---9--9--9-----|
a--7---7--7--7-------10-----7---7---7--7---7--x--10--10--7---7---------7-----|
e--0---------------0--------0----------------------------0-------------------|

...G..........E...............................C..............D
e--3---3--3-------------------------------------------x------------x---------|
b--3---3--3-------------------------------------------x------------x---------|
g--4---4--4---9---9--9--9---9--9----------------------x------------x---------|
d--5---5--5---9---9--9--9---9--9--------------5---5-------5--7--7-----7------|
a--5---5--5---7------7--7---7--7----------7---3---3-------3--5--5-----5------|
e--3---3--3---0------0-------------4--5/7------------------------------------|

...E
e----------------------------------------------------------------------------|
b----------------------------------------------------------------------------|
g----------------------------------------------------------------------------|
d--9---9--9--9--9------------------------------------------------------------|
a--7---7--7--7--7------------7-----------------------------------------------|
e--0----------------4---5/7--------------------------------------------------|

SOLO
...C....E............G..D........................................C
e----------------------------------------------------------------------------|
b-----------------------8^7--7-------------7--7^8--10--8--7---7--------------|
g---------------7--7^9---------9---9-----9------------------7----9^7--7--7^9-|
d-------7--7^9---------------------------------------------------------------|
a--7^9-----------------------------------------------------------------------|
e----------------------------------------------------------------------------|

...D.....E
e----------------------------------------------------------------------------|
b----------------------------------------------------------------------------|
g-------------7--7^9--(9)\---------------------------------------------------|
d--------7^9-----------------------------------------------------------------|
a--7^9------------------------------------7\---------------------------------|
e---------------------------------4--5/7-------------------------------------|

then play the verse and chorus and then
...C.......................D.......................E
e----------------------------------------------------------------------------|
b----------------------------------------------------------------------------|
g-----------------------------7------7--7/9--x-------------------------------|
d------0----------------7--7--7------7--7/9--x---7/9-------------------------|
a--10---------10--10--x----5------5-----5--------7/9--9--9-9---9-9--9--------|
e---8-----8--------8--x----5------5-----5--------5/7--7--7-7---7-7--7--x-----|
...PM...................................................................

OUTRO
...C......................D....................E
e--------------------------------------------------------7---7---------------|
b--------------------------------------------------------7---7--7---7--7\----|
g--5--5--5--5--5---x--x--5/7--7--7--7---x--x--7/9--9--9--9------9---9--9\----|
d--5--5--5--5--5---x--x--5/7--7--7--7---x--x--7/9--9--9----------------------|
a--3--3--3--3--3---x--x--3/5--5--5--5---x--x--5/7--7--7----------------------|
e----------------------------------------------------------------------------|

...C......................D....................E
e--3--3--3--3--3------------------------------------------7------------------|
b--3--3--3--3--3-----------------------------------7--7---7----7--7---7--7\--|
g--5--5--5--5--5---x--5--5/7--7--7--7---x--7--7/9--9--9---9----9--9---9--9\--|
d--5--5--5--5--5---x--5--5/7--7--7--7---x--7--7/9--9--9---9--------------9\--|
a--3--3--3--3--3---x--3--3/5--5--5--5---x--5--5/7--7--7---7--------------7\--|
e----------------------------------------------------------------------------|

...C...................D.....................E
e--3-------------------5---------------------7----7------------------7-------|
b----3-------------------5-------------------7-------7-------------7---7-----|
g------5---------5/7--------7----------7\9---9---------9---------9--------9\-|
d-------------5---------------7-----7--------9-----------9-----9-------------|
a----------3---------------------5-----------7--------------7----------------|
e--------------------------------------------0-------------------------------|

...C...................D
e--3------------------------------------5------------------------------------|
b-----3-------------------------------5---5----------------------------------|
g--------5-----------5/7-----------7---------7-------------------------------|
d-----------5-----5-------------7--------------------------------------------|
a--------------3-------------5-----------------------------------------------|
e----------------------------------------------------------------------------|

END
e--0-------------------------------------------------------------------------|
b--0-------------------------------------------------------------------------|
g--1-------------------------------------------------------------------------|
d--2-------------------------------------------------------------------------|
a--2-------------------------------------------------------------------------|
e--0-------------------------------------------------------------------------|

_____________________________________________________________________________

Lake Of Fire
_____________________________________________________________________________

TUNING:

Tune down 1/2 step

INTRO
e--------------------------------------)-(-)-(-------------------------------|
b--3--3------------3------3----3--x---5--(5)--(5)--3-------------------------|
g--3--3------------3-----------x--x---5--(5)--(5)--3--0--------------------3-|
d--5--5---5\3--3---3---5--5----x--x----------------------5--5--x--5\3--3---3-|
a--5--5---5\3--3---1---5--5------------------------------5--5--x--5\3--3---1-|
e--3--3---3\1--1-------3--3------------------------------3--3--x--3\1--1-----|

e----------------------------------------------------------------------------|
b-----------------------------------------11----11----11-----11-----11\------|
g-----5------------------------------3/10----10----10----10-----10-----------|
d--5--5--x---3--3--5---5-----------------------------------------------------|
a--3--3--x---3--3--5---5---5\3--3/5------------------------------------------|
e------------1--1--3---3---3\1--1/3------------------------------------------|

e----------------------------------------------------------------------------|
b-----6----6-----6/8---------------------------------------------------------|
g--5----5-----5----7---------------------------------------------------------|
d----------------------------------------------------------------------------|
a----------------------------------------------------------------------------|
e----------------------------------------------------------------------------|

VERSE
e------------------------------)-(-)-(---------------------------------------|
b-----------------------------5--(5)--(5)--3---------------------------------|
g-----------------------------5--(5)--(5)--3----------------------3/---------|
d---------------------------------------------5--5--5---5---------3/---------|
a--5--5---5\3--3/8---5--5---5-----------------5--5--5---5--3--3---1/---------|
e--3--3---3\1--1/6---3--3---3--------------------3--3---3--1--1--------------|

e-----------------------------------------------------------------------------|
b---------------------------------------------------11----11----11--6--6/8-8\-|
g--/5--5---5-----------------------------------3/10----10----10-----5--5/7-7\-|
d--/5--5---5--3--3--5--PM....................---------------------------------|
a--/3--3---3--3--3--5--5-5-5-5-5-5-5-5-3--8\5---------------------------------|
e-------------1--1--3--3-3-3-3-3-3-3-3-1--6\3---------------------------------|

then
e--1--1---1--1-----1--1----------1--1----------------------------------------|
b--3--3---3--3--3--1--1------0---3--3---3--2--2---2--------------------------|
g--2--2---2--2--3--3--3---3--0---2--2---2--2--2---2--------------------------|
d--0--0------0-----3--3----------0--0---0--2--2---2--------------------------|
a------------------------------------------0--0---0--------------------------|
e----------------------------------------------------------------------------|

e--1--1------------------------------------5--5------------------------------|
b--3--3---0--1--1---1/3--3---3---3---------6-----5^6^5-----------------------|
g--2--2---0--3--3---3/5--5---5---5--7--7---7-----------7---------------------|
d--0--0------3--3---3/5--5---5---5--7--7---7-------------7-------------------|
a------------1--1---1/3--3---3---3--5--5---5---------------------------------|
e----------------------------------------------------------------------------|

after 3rd time verse is played (palm muted)...
e----------------------------------------------------------------------------|
b----------------------------------------------------------------------------|
g--------------------------------------------------3-------------------------|
d--------------------------------------------------3--5----------------------|
a--5-5-5-5-5-5-5-5-3--8\5--5-5--5-5-5-5-5-5-5-5-3--1--5----------------------|
e--3-3-3-3-3-3-3-3-1--6\3--3-3--3-3-3-3-3-3-3-3-1-----3----------------------|

e----------------------------------------------------------------------------|
b-------11----11-11----11----11---11--6---6---6/8----------------------------|
g--3/10----10-------10----10---10-------5---5---7----------------------------|
d----------------------------------------------------------------------------|
a----------------------------------------------------------------------------|
e----------------------------------------------------------------------------|

e----------------------------------------------------------------------------|
b--8/11-11-11-11---11---11---11----11\6--6---6---6--8------------------------|
g--7/10---------10----10---10---10---------5---5----7------------------------|
d----------------------------------------------------------------------------|
a----------------------------------------------------------------------------|
e----------------------------------------------------------------------------|

SOLO
e------3-----)--3--------------------------------------------------------)---|
b--2/3---3--6------6----------------------------------------------------3----|
g---------------------5--3----------------------------------------------3----|
d--------------------------5--3---------------------------------3--3^5----5--|
a-------------------------------5--4--3----------------3--4--5---------------|
e---------------------------------------6--3--3---3--6-----------------------|

e----------------------------------------------------------------------------|
b---------6---6----------------------------------------------------8-----2/3-|
g--3--5^7---7----7\5--3----------------------------------------5/7----7\-----|
d------------------------5--5--3----3----3-----------------------------------|
a---------------------------------5----5----5--3-----------------------------|
e-------------------------------------------------6--3--3--3-----------------|

e--3-------------------------------------------------------------------------|
b-----3--6----3-------------3----------3-----3-------------------------------|
g----------5----3--5--------3----------3-----3-------------------------------|
d----------------------3--5----5--3^5----5------5--3-------------------------|
a-----------------------------------------------------5--4--3----------------|
e---------------------------------------------------------------6--3---3--6--|

e----------------------------------------------------------------------------|
b----------------------------------------------------------------------------|
g----------------------------------------------------------------------------|
d-----------3--3^5-----------------------------------------------------------|
a--3--4--5----------3--------------------------------------------------------|
e----------------------6--3--------------------------------------------------|


_____________________________________________________________________________

All Apologies
_____________________________________________________________________________

TUNING:

Tune down 1/2 step and drop D

INTRO
e-----------------------------------------------------------------------------|
b-----------------------------------------------------------------------------|
g-----------------------------------------------------------------------------|
d----------------------------------------10/12-12-10-9------------------------|
a--9--9-10--9-10/12-12-10--9------10---------------0-----9-10---10/12-12-10-9-|
e--0-----0-----0-------------0--0--0--0----------------0------0---------------|

e----------------------------------------------------------------------------|
b----------------------------------------------------------------------------|
g--------------11-11--9------------------------------------------------------|
d---------------0-----0--12--------------------------------------------------|
a-------10-------------------------------------------------------------------|
e--0--0-----0----------------------------------------------------------------|

e----------------------------------------------------------------------------|
b----------------------------------------------------------------------------|
g----------------------------------------------------------------------------|
d-------------------------------------10/12-12-10--9-------------------------|
a-----9-10---10/12-12-10--9---9-10--9------------------9-10--9-10/12-12-10-9-|
e--0-------0----------------0------------------------0-----------------------|

e----------------------------------------------------------------------------|
b----------------------------------------------------------------------------|
g-------------11--11--9------------------------------------------------------|
d--------------0---0-----12--------------------------------------------------|
a-----9--10----0---0---------------------------------------------------------|
e--0--------0--0---0---------------------------------------------------------|

VERSE
e----------------------------------------------------------------------------|
b----------------------------------------------------------------------------|
g----------------------------------------------------------------------------|
d-----------------------------------12-12-10-9-------------------------------|
a----9-10--9-12-12-10-9-----9-10--9-----------------9-10--9-12-12-10--9------|
e--0---------------------0-----------------------0---------------------------|

e----------------------------------------------------------------------------|
b----------------------------------------------------------------------------|
g--------------11-11-9-------------------------------------------------------|
d-----------------------12---------------------------------------------------|
a-----9-10--9----------------------------------------------------------------|
e--0-------------------------------------------------------------------------|

CHORUS
strum this for however long
e----------------------------------------------------------------------------|
b----------------------------------------------------------------------------|
g----------------------------------------------------------------------------|
d--5-------------------------------------------------------------------------|
a--5-------------------------------------------------------------------------|
e--5-------------------------------------------------------------------------|

then
e----------------------------------------------------------------------------|
b--2--2-------2------2--2---2------------------------------------------------|
g--2--2-------2------2--2---2---2---2--0-------0-----------------------------|
d--2------2-------2-----------------2--0-------0-----------------------------|
a--0---------------------------------------0---------------------------------|
e-------------------------------------------------0--------------------------|

and then the second time this is played
e----------------------------------------------------------------------------|
b--2----------2--------------2-----2---2--2---2---2--------------------------|
g--2---2---2--2---2--2-------2-----2---2--2-------2---2------2---------------|
d--2--------------------2-------2------2--2-----------2---2------------------|
a--0----------------------------0------0------------------------0------------|
e----------------------------------------------------------------------------|

e----------------------------------------------------------------------------|
b--2-----------------------2---2----2--2--2---2--2-2-2--2-2-2--2--2--0-------|
g--2-----2--------2--------2---2----2--2--2---2--2-2-2--2-2-2--2--2--0-------|
d--2--2---------2------2---2---2-------2------2--2-2-2--2-2-2--2--2--0-------|
a--0---------0---------0---0---0-------0------0--0-0-0--0-0-0--0--0--0-------|
e----------------------------------------------------------------------------|

_____________________________________________________________________________

Where Did You Sleep Last Night
_____________________________________________________________________________

TUNING:

Tune down 1/2 step

INTRO
e-----0--0-----------------------------3-------------------------------------|
b--0--0--0---------------2--2--0-------0---0--4---4--4--4--------4-----------|
g--x--2--x--2------------2--2--0-------0---0--4---4--4--4--------4-----------|
d--2-----2--2--------2------2--0---0-------0--4---4--4--4--------4-----------|
a--2-----2-----------0------0------x-------x--2------2--------2--------------|
e--0-----0-----0-2-3---------------3-------3---------------2--2-----(0)------|

e------------0--0------0--------0--(0)-0------0---0--------------------------|
b--0---0--0--0--0---0--0--0--0--0---0--0---0--0---0--------------2--0--------|
g--x---x--x--x--x---x--x--x--x--x-------------x---x--------------2--0--------|
d--2------------2---------------2-------------2--------------2---2--0--------|
a--2------------2---------------2-------------2--------------0---0-----------|
e--0------------0---------------0-------------0-------0-2-3------------------|

e------3-------------------------------------0-------------------------------|
b------0--0---4---4--4--4--4--4--4-----------0-------------------------------|
g------0--0---4---4--4--4--4--4--4-----------x-------------------------------|
d--0----------4---4--4--4--4--4--4-----2--2----------------------------------|
a--x----------2------2-----2--2--2-----2------------2------------------------|
e--3-----------------------2--2--2--0--0---------0---------------------------|

VERSE
e----------------------------------------------------------------------------|
b-------------------------------------------2----0-------0-------4--4--4-----|
g-------------------------------------------2----0-------0-------4--4--4-----|
d------2----------2------------2-----0--2------2-------0-----4---4--4--4-----|
a----2---2-----------------2------2-----0------0-------------2---------------|
e--0---------0-------0--0--0------0------------------3-----------------------|

e----------------------------0--------0--0---0---0--0---0--------------------|
b-----------------------0----0---0----0--0---0---0--0---0-----0--------------|
g------4-----------x----x----x---x--x----x----------x---------0--------------|
d------4-----------2---------2------2----2----------2------2-----------------|
a--2-------)--2--------------2-----------2----------2------2-----------------|
e---------2---0 ------0------0-----------0----------0------0-----------------|

e-------(0)-------3--------------------------------------------0-------------|
b--2---2-2-0--0---0-0-0--4---4-4-4--4--4-4-4-0--0--0-0-0--0--0-0-0-----------|
g--2---2-2-0--0---0-0-0--4---4-4-4--4--4-4-4-0--x--x-x-x--x--x-x-x-----------|
d--2-----2-0--0-----0----4---4-4-4--4--4---4----2----2----2--2---2-----------|
a--0----------x-----0----2-----2----2-----------2----2----2------2-----------|
e-------------3---------------------------------0----0----0------0-----------|

The rest is just the chords:
E A G B
comments
print report bad tab
4 comments total. Showing first comments.
0 reply
Teen Spirit wrote on April 3 2007, 02:09 pm

hey well this is not bad dude, good job it seems you spent a heck of a time doing this and it was posted like 4 days before my b.day!

0 reply
cisco21c wrote on July 21 2007, 04:15 pm

its exactly like the book.

0 reply
Avrill wrote on May 5 2008, 02:13 pm

it's good but kinda messy

I want to post or [tab]
guest
You may want to rate the tab now too:
select rating
Please do not post tabs as comments. Select "correction" instead!