Oops, an error
Loading. Please wait.

Bathwater Tab

ver2
ver2

Whole song

Interactive

More versions @911Tabs.com
7,769 views 6 this week
1 commentread comment
1 2 3 4 5
excellent!
x 2
Autoscroll
+/-
esc
set tempo
stop
Contributor
Hey! There's an official Ultimate Guitar app which is ideal
for learning songs when you're away from computer. Get the app
WARNING: You are trying to view
                                    content from Ultimate-Guitar.com
                                    in an unauthorized application,
                                    which is prohibited.

                                    Please use an official Ultimate
                                    Guitar Tabs application for iPhone,
                                    iPad or Android to access legitimate
                                    chords, guitar, bass, and drum tabs
                                    from Ultimate-Guitar.com database.

                                    Type "ultimate guitar tabs" in Apple
                                    App Store's or Android Market's
                                    search to find the application.
Bathwater
(G. Stefani, T. Kanal, T. Dumont)

This is a simple ND song...enjoy it!

Chords:
Em-022000
A5-577XXX
Am-577555 or 002210
G-355433  or 320003
B-799877
B7-797877
D-000232
C-032010

HORNS--INTRO
|---------------------|
|---------------10----|
|--9---12--11---------|
|--5---9---7----10----| x4  
|--7---10--9----12----|
|---------------------|

or--simple

|-0--3--2---5-------|
|-------------------|
|-------------------|
|-------------------| x4
|-------------------|
|-------------------| 

Guitar Intro
|---12----------------------0-----0-------0--0----|
|---12----------------------0-------3--1--0--0----|
|---12----------------------2---------------------|
|---12----------------------4---------------------|
|---12--------------------------------------------|
|---12-------5----0-----7-------------------------|


EM     EM       Am  Am  Am
You and your museum of lovers
    Em      Em                    Am  Am  AM 
The precious collection you've housed in your covers
     Em  EM               Am   Am  AM 
My simpleness threatened by my own admission

B  B   B7  B7  B7

 
   Em   Em        A5  A5  A5
And the bags are much too heavy
   Em   Em    A5  A5  A5
In my insecure condition

My pregnant mind is fat full with envy again
|-----------------------------------------------|
|-----------------------------------------------|
|-----------------------------------------------|
|-----------------------------------------------|
|----------------0-0-0--------------------------|
|---0-----0---------------7---7----7--7---7777--|
 
CHORUS:
                G   G   G   G     Am  Am  Am  Am
But I still love to wash in your old bathwater
  D   D   D   D          C   C   C   C
Love to think that you couldn't love another
   G   G   G   G       Am   D    B
I can't help it...you're my kind of man

Em  Em  A5 A5 A5
|--0--------------|
|--0--------------|
|--0--------------|
|-----------------|
|-----------------|
|-----------------|
 

Verse 2: SAME AS 1

Wanted and adored by attractive women

Bountiful selection at your discretion

I know I'm diving into my own destruction

 So why do we choose the boys that are naught?

I don't fit in so why do you want me?

And I know I can't tame you...but I just keep trying

 
CHORUS: SAME-JUST PLAY IN TWICE


'Cause I love to wash in your old bathwater

Love to think that you couldn't love another

I'm on your list with all your other women

But I still love to wash in your old bathwater

You make me feel like I couldn't love another

I can't help it...you're my kind of man

 BRIDGE:
C  C  Am Am Am
C  C  Am Am Am
C  C  Am Am Am
C  C  Am Am Am
Em Em Am Am AM
Em Em Am Am Am

   Em  Em A5 A5 A5               Em  Em  A5  A5  A5
    Why do the good girls      always want the bad boys?
|---------------------------------------------------------5-------|
|-----------------------12--------------------------------5-------|
|-----------------------12--------------------------------2-------|
|-----------------------12----------------------------------------|
|-----------------------------------------------------------------|
|-0---------------------------------------------------------------|
 
VERSE 3:
        Em   Em            A5  A5  A5
So I pacify problems with kisses and cuddles
        Em   Em            A5  A5  A5
Diligently doubtful through all kinds of trouble
        Em   Em            A5  A5  A5         B
Then I find myself choking on all my contradictions

 
CHORUS: SAME 


'Cause I love to wash in your old bathwater

Love to think that you couldn't love another

Share a toothbrush...you're my kind of man

I still love to wash in your old bathwater

Make me feel like you couldn't love another

I can't help it...you're my kind of man

 
     B          G        Am
No I can't help myself
          D             C
I can't help myself

          G                   Am
I still love to wash in your old bathwater

B

END ON
|--2----|
|--0----|
|--0----|
|--2----|
|--2----|
|--0----|


HORNS AGAIN


ENJOY!!
comments
We did not receive enough feedback on this tab! Please rate:
print report bad tab
1 2 3 4 5
1 comment total.
0 reply
marcelaguiar wrote on April 24 2010, 09:08 pm

I'll give this 5 stars cause its the closest tab so far.

However, there stll are some tings that need to be worked out.

I want to post or [tab]
guest
You may want to rate the tab now too:
select rating
Please do not post tabs as comments. Select "correction" instead!