Oops, an error
Loading. Please wait.

Dont Speak Tab

ver1
ver1
More versions @911Tabs.com
399,533 views 963 this week
27 commentsread comments
1 2 3 4 5
accurate
x 56
Autoscroll
+/-
esc
set tempo
stop
Hey! There's an official Ultimate Guitar app which is ideal
for learning songs when you're away from computer. Get the app
WARNING: You are trying to view
                                    content from Ultimate-Guitar.com
                                    in an unauthorized application,
                                    which is prohibited.

                                    Please use an official Ultimate
                                    Guitar Tabs application for iPhone,
                                    iPad or Android to access legitimate
                                    chords, guitar, bass, and drum tabs
                                    from Ultimate-Guitar.com database.

                                    Type "ultimate guitar tabs" in Apple
                                    App Store's or Android Market's
                                    search to find the application.


#----------------------------------PLEASE NOTE---------------------------------#
#This file is the author's own work and represents their interpretation of the #
#song. You may only use this file for private study, scholarship, or research. #
#------------------------------------------------------------------------------#


Date: Wed, 17 Jul 1996 11:46:05 -0700
From: David Almilli 
Subject: TAB: Don't Speak by No Doubt


--------+++++++++++ Don't Speak +++++++++++---------

Performed by No Doubt off the Tragic Kingdom album
Keep in mind this is how I think it is played.  It may be 
played totally different.  

Transcribed by David(almilli@mail.sdsu.edu)

Don't use a pick.  

|-----------------|
|-4---4---4---4---|
|-5---5---5---5---|     3 times
|---5---5---5---5-|
|-----------------|
|-----------------|


|-----------------|-----------------|-----------------|
|-3---3---1---1---|-3---3---3---3---|-1---1---3---3---|
|-3---3---1---1---|-3---3---3---3---|-1---1---3---3---|
|---5---5---3---3-|---3---3---5---5-|---3---3---3---3-|
|-----------------|-----------------|-----------------|
|-----------------|-----------------|-----------------|


|-----------------|-----------------|-----------------|-----------------|
|-4---4---3---3---|-1---1---3---3---|-3---3---4---4---|-1---1---3---3---|
|-4---4---3---3---|-1---1---3---3---|-3---3---4---4---|-1---1---3---3---|
|---5---5---5---5-|---3---3---3---3-|---5---5---5---5-|---3---3---3---3-|
|-----------------|-----------------|-----------------|-----------------|
|-----------------|-----------------|-----------------|-----------------|

|-----------------|-----------------|-----------------|-6---------------|
|-4---4---3---3---|-1---1---3---3---|-8---8---6---6---|-8---------------|
|-4---4---3---3---|-1---1---3---3---|-8---8---7---7---|-8---------------|
|---5---5---5---5-|---3---3---3---3-|--10--10---8---8-|-8---------------|
|-----------------|-----------------|-----------------|-6---------------|
|-----------------|-----------------|-----------------|-----------------|


This part I know for sure is not completely right, but it's good enough.
I'm just going to give you the basic chords, you listen to the strumming
and try to figure out the notes in between also

|-8-------------------------8----|
|-9--------6------------6---9----|
|-10---6---8---8----6---8---10---|
|-10---8---8---10---8---8---10---|
|-8----8---6---10---8---6---8----|
|------6-------8----6------------|


When ever I learn the rest or the real way to play the chorus, I'll
post it.  If anyone has any corrections or knows more, please let me know at
almilli@mail.sdsu.edu

			~David Almilli


Don't Speak-No Doubt
Tragic Kingdom
Posted By Scott



This flamenco guitarish solo by No Doubt off of their song DonÆt Speak is very simple
Just follow the tab below and youÆll get it in no time
I decided to post this tab because the one I saw before doesn't seem correct

e.----------------------------------------------
B.----------6--8--6--------------------8--6--9
G.---5--8------------7-----------5--8---------
D.-----------------------8--5--6--------------
A.---------------------------------------------  
E.---------------------------------------------

e.
B.--------6--8--6--------------6--8--6--9--8--6--6
G.--5--8-----------7--------------------------------
D.---------------------8--5--6----------------------
A.---------------------------------------------------
E.---------------------------------------------------


Date: Mon, 30 Dec 1996 16:48:54 -0600
From: Steve Jang 

"Don't Speak" - No Doubt

Tabbed by:  Steve Jang - Just a 16 year-old kid who's been playing the
guitar for
almost 2 years - but very good!  ;)

Okay, a lot of people couldn't figure out the little parts of the song
and e-mailed
me about it, so I just decided to tab out everything in the song.  It's
now complete.

BTW: The chord names in the intro and verses don't necessarily represent
the name of
the actual chords, but your fingering position.  All of these are
barre-chords.

Intro & Verse 1
  _________________
 | Cm            3X| Gm      Fm        Gm7     Gm        Fm      Gm7
E|-----------------|-----------------|-----------------|-----------------|
B|-4---4---4---4---|-3---3---1---1---|-3---3---3---3---|-1---1---3---3---|
G|-5---5---5---5---|-3---3---1---1---|-3---3---3---3---|-1---1---3---3---|
D|---5---5---5---5-|---5---5---3---3-|---3---3---5---5-|---3---3---3---3-|
A|-----------------|-----------------|-----------------|-----------------|
E|-----------------|-----------------|-----------------|-----------------|
   Cm      Gm        Fm      Gm7       Gm      Cm        Fm      Gm7
E|-----------------|-----------------|-----------------|-----------------|
B|-4---4---3---3---|-1---1---3---3---|-3---3---4---4---|-1---1---3---3---|
G|-5---5---3---3---|-1---1---3---3---|-3---3---5---5---|-1---1---3---3---|
D|---5---5---5---5-|---3---3---3---3-|---5---5---5---5-|---3---3---3---3-|
A|-----------------|-----------------|-----------------|-----------------|
E|-----------------|-----------------|-----------------|-----------------|
   Cm      Gm        Fm      Gm7      Cm7(on E)A#(on E)  C
E|-----------------|-----------------|-----------------|-----------------|
B|-4---4---3---3---|-1---1---3---3---|-8---8---6---6---|-5---------------|
G|-5---5---3---3---|-1---1---3---3---|-8---8---7---7---|-5---------------|
D|---5---5---5---5-|---3---3---3---3-|---8---8---8---8-|-5---------------|
A|-----------------|-----------------|-----------------|-3---------------|
E|-----------------|-----------------|-----------------|-----------------|

Chorus: (2X - Starts w/ "Don't speak, I know just what you're
sayin'...")
    Fm             A#m         D#          C              A#m
E|--8--x-8--x-8----6-x-6-x-6---6-x-6-x-6---8--x-8--x-8----6-x-6-x-6--|
B|--9--x-9--x-9----6-x-6-x-6---8-x-8-x-8---8--x-8--x-8----6-x-6-x-6--|
G|--10-x-10-x-10---6-x-6-x-6---8-x-8-x-8---9--x-9--x-9----6-x-6-x-6--|
D|--10-x-10-x-10---8-x-8-x-8---8-x-8-x-8---10-x-10-x-10---8-x-8-x-8--|
A|--8--x-8--x-8----8-x-8-x-8---6-x-6-x-6---10-x-10-x-10---8-x-8-x-8--|
E|-----------------6-x-6-x-6---------------8--x-8--x-8----6-x-6-x-6--|
    D#          Fm        C#   C
E|--6-x-6-x-6---8------------------|
B|--8-x-8-x-8---9---------9----8---|
G|--8-x-8-x-8---10--------10---9---|
D|--8-x-8-x-8---10--------11---10--|
A|--6-x-6-x-6---8---------11---10--|
E|------------------------9----8---|

Verse 2 (Progression is the same as Verse 1)
*Second half of Verse 2 goes like: (Starts w/ "As we die...")
    Cm    Gm    Fm    A#    D#    A#    C
E|--3-3---3-3---1-1---6-6---6-6---6-6---3--|
B|--4-4---3-3---1-1---6-6---8-8---6-6---5--|
G|--5-5---3-3---1-1---7-7---8-8---7-7---5--|
D|--5-5---5-5---3-3---8-8---8-8---8-8---5--|
A|--3-3---5-5---3-3---8-8---6-6---8-8---3--|
E|--------3-3---1-1---6-6---------6-6------|

Chorus
*The second time, before the bridge, the chord progression changes at
the Fm to:
    Fm5  D#5 C5  G#5
E|------------------|
B|------------------|
G|--10---8---5------|
D|--10---8---5---6--|
A|--8----6---3---6--|
E|---------------4--|

Bridge: (Starts w/ "It's all ending, we gotta stop pretending...")
    C#    G#    B     F#    A   C#  D#  C#5/D#5      G#
E|--4-4---4-4---2-2---2-2---5---4---6----------------4--|
B|--6-6---4-4---4-4---2-2---5---6---8----------------4--|
G|--6-6---5-5---4-4---3-3---6---6---8-----6/8--8--8--5--|
D|--6-6---6-6---4-4---4-4---7---6---8-----6/8--8--8--6--|
A|--4-4---6-6---2-2---4-4---7---4---6-----4/6--6--6--6--|
E|--------4-4---------2-2---5------------------------4--|

Solo: (All notes are picked unless shown otherwise)
*Tabbed so that it would be the easiest to play

/=slide up   h=hammer-on   p=pull-off   ^=bend   (x)=quiet

E|-----------1-3-1--------------------1-3-1--3--------1-3-1--------------|
B|--4---1--4--------3---------(1)-1/4-------------1-4--------3-----------|
G|---------------------3-0-1------------------------------------3-0--1---|
D|-----------------------------------------------------------------------|
A|-----------------------------------------------------------------------|
E|-----------------------------------------------------------------------|

E|-------------------------8---8-10-11-10-8----8-------------------------|
B|--8-9-8h9-11--9p8--------8----------------11---8-11----8------8-9-11---|
G|------------------10^----8--------------------------10---8-10----------|
D|-----------------------------------------------------------------------|
A|-----------------------------------------------------------------------|
E|-----------------------------------------------------------------------|

E|-----------------------------------------------------------------------|
B|--9h11p9-8-(11)--------------------------------------------------------|
G|---------------------------------------3-5-3---------------------------|
D|--------------------------3-5----3-5-6-------6-5h6p5-(3)---------------|
A|--------------------3/5-6-----6----------------------------------------|
E|-----------------------------------------------------------------------|

Verse 3 (Same as Verse 1)
*Right after "I can see us dying..." (Gm7), it changes to:
    F5               A#5
E|------------------------------------|
B|------------------------------------|
G|------------------------------------|
D|--3-3-3-3-3-3-3-3--8-8-8-8-8-8-8-8--|
A|--3-3-3-3-3-3-3-3--8-8-8-8-8-8-8-8--|
E|--1-1-1-1-1-1-1-1--6-6-6-6-6-6-6-6--|

Outro (Chorus is repeated w/ different lyrics)


Date: Wed, 08 Jan 1997 06:36:40 +0200
From: Yoni 


Song: Dont Speak
Artist: No doubt

tabbed by: Yoni Shaabani
Email:     collie@netvision.net.il


Tune: regular E

the verse goes like this... (I think)
------------------------------------


     Cm                        Dm              Bb
E ------------------------------------------------------
B --4------4------4------4-------6-------6------3-------
G --5------5------5------5-------7-------7------3-------
D ----5------5------5------5-------7-------7------3-----
A ------------------------------------------------------
E ------------------------------------------------------
    you and me...               we used to be together


     Dm             Bb           Cm       D
E ------------------------------------------------------
B ---6-----6--------3----3--------4----4-----7----7-----
G ---7-----7--------3----3--------5----5-----7----7-----
D -----7-----7--------3----3--------5----5-----7----7--- 
A ------------------------------------------------------
E ------------------------------------------------------
      everyday      together         always


(( and it goes like this  for the rest of the verse ...              ))
(( in the rest of the verses u need to play the chords themselves..  ))
(( but.. Im not sure about that last D part.. but u should try it u  ))
(( urself..                                                          ))


The chorus goes like this:
------------------------------

Em            Am                 D
Dont speak,  I know what you're thinking,

Bm              G
so please stop explaining,

  D                 Em
dont tell me coz it hurts  { now there's this C B thingy..)



well.. thats all.. now the bridge I might do other time
coz Im tired  :)

if someone tabbed the bridge, or correctiongs, please Email it to me , or if
you just wanna email about anything..
collie@netvision.net.il




--------+++++++++++ Don't Speak +++++++++++---------
Performed by No Doubt off the Tragic Kingdom album
Keep in mind this is how I think it is played.  It may be 
played totally different.  

Transcribed by David(almilli@mail.sdsu.edu)
Your No Doubt tab provider

Fixed errors/Additions:
1) at the last chord right before the chorus
2) one chord in the chorus
3)Added Solo

|-----------------|
|-4---4---4---4---|
|-5---5---5---5---|     3 times
|---5---5---5---5-|
|-----------------|
|-----------------|


|-----------------|-----------------|-----------------|
|-3---3---1---1---|-3---3---3---3---|-1---1---3---3---|
|-3---3---1---1---|-3---3---3---3---|-1---1---3---3---|
|---5---5---3---3-|---3---3---5---5-|---3---3---3---3-|
|-----------------|-----------------|-----------------|
|-----------------|-----------------|-----------------|


|-----------------|-----------------|-----------------|-----------------|
|-4---4---3---3---|-1---1---3---3---|-3---3---4---4---|-1---1---3---3---|
|-4---4---3---3---|-1---1---3---3---|-3---3---4---4---|-1---1---3---3---|
|---5---5---5---5-|---3---3---3---3-|---5---5---5---5-|---3---3---3---3-|
|-----------------|-----------------|-----------------|-----------------|
|-----------------|-----------------|-----------------|-----------------|

|-----------------|-----------------|-----------------|-3---------------|
|-4---4---3---3---|-1---1---3---3---|-8---8---6---6---|-4---------------|
|-4---4---3---3---|-1---1---3---3---|-8---8---7---7---|-5---------------|
|---5---5---5---5-|---3---3---3---3-|--10--10---8---8-|-5---------------|
|-----------------|-----------------|-----------------|-3---------------|
|-----------------|-----------------|-----------------|-----------------|


Chorus:

|-8-------------------------8----|
|-9--------6----------------9----|
|-10---6---8---8----6---9---10---|
|-10---8---8---10---8---10--10---|
|-8----8---6---10---8---10--8----|
|------6-------8----6---8--------|

Solo:

|-----------------------------------|------------------------------------------|
|---4h6/8-6-------------4-6h8-6-8---|---4h6/8-6-------------8-9-8-9-11--9p8----|
|-5---------7---------5-------------|-5---------7-----------8---------------10-|
|-------------8--5--6---------------|-------------8--5--6--10------------------|
|-----------------------------------|------------------------------------------|
|-----------------------------------|------------------------------------------|

|--8-10-11-10h11-8-10----8---------------------------------|
|--8------------------11---8-11----8----8-9-8-11-9h11p9p8--|
|--8----------------------------10---10--------------------|
|-10-------------------------------------------------------|
|----------------------------------------------------------|
|----------------------------------------------------------|

|---------------------------------|
|---------------------1-----------|
|---------0-----0-1-3---3-1-0h1p0-|
|---0h1-3---1-3-------------------|
|-3-------------------------------|
|---------------------------------|


Date: 01 Apr 97 11:20:39 +0100
From: William James 

 "Don't Speak" by No Doubt taken from the album "Tragic Kingdom" 
Transcribed by William James (31/3/97) 
 
Here are the various parts to the song.. not totally complete yet! 
 
Intro is a more polished version which was submitted previously... but the 
rest is my own work including the acoustic solo which i hope is correct (more 
or less!) 
 
 
Intro (Clean - don't pick) 
----- 
 
    C                  G       F         Bb      G         F       Bb 
E|:-----------------:|-----------------|-----------------|-----------------| 
B|:-4---4---4---4---:|-3---3---1---1---|-3---3---3---3---|-1---1---3---3---| 
G|:-5---5---5---5---:|-3---3---1---1---|-3---3---3---3---|-1---1---3---3---| 
D|:---5---5---5---5-:|---5---5---3---3-|---3---3---5---5-|---3---3---3---3-| 
A|:-----------------:|-----------------|-----------------|-----------------| 
E|:-----------------:|-----------------|-----------------|-----------------| 
      (3 times)        "we used to be together...." 
 
   C       G         F       Bb        G       C         F       Bb 
E|-----------------|-----------------|-----------------|-----------------| 
B|-4---4---3---3---|-1---1---3---3---|-3---3---4---4---|-1---1---3---3---| 
G|-5---5---3---3---|-1---1---3---3---|-3---3---5---5---|-1---1---3---3---| 
D|---5---5---5---5-|---3---3---3---3-|---5---5---5---5-|---3---3---3---3-| 
A|-----------------|-----------------|-----------------|-----------------| 
E|-----------------|-----------------|-----------------|-----------------| 
   "I really feel.."                                     "the end..." 
 
 
   C       G         F       Bb        F       Bb        C 
E|-----------------|-----------------|-----------------|-3---------------| 
B|-4---4---3---3---|-1---1---3---3---|-8---8---6---6---|-5---------------| 
G|-5---5---3---3---|-1---1---3---3---|-8---8---7---7---|-5---------------| 
D|---5---5---5---5-|---3---3---3---3-|--10--10---8---8-|-5---------------| 
A|-----------------|-----------------|-----------------|-3---------------| 
E|-----------------|-----------------|-----------------|-----------------| 
   "It looks as though.." 
   
Notes above represent bass - and guitar chords (later in song) 
 
 
Chorus 
------ 
 
E|-8----------------------6---------------------8-----------------| 
B|-9-----------------6----8----8-----6----8-----9-----6-----8-----| 
G|-10----------------6----8----9-----6----9-----10----6-----9-----| 
D|-10----------------8----8----10----8----10----10----8-----10----| 
A|-8-----------------8----6----10----8----10----8-----8-----10----| 
E|-------------------6---------8-----6----8-----------6-----8-----| 
   "Dont speak.." 
 
 
 
Acoustic Guitar Solo 
-------------------- 
 
E|---------------------------------------------------- 
B|----------8------------------------6/8----8~-------- 
G|-----8-10---10---7---------------8-----10----------- 
D|-/10---------------8~---5-6--/10-------------------- 
A|---------------------------------------------------- 
E|---------------------------------------------------- 
 
E|---------------------------------------------------- 
B|----------8-------------------8-9-8-9-11--9p8------- 
G|-----8-10---10--7-----------------------------10---- 
D|-/10--------------8~---5-6-------------------------- 
A|---------------------------------------------------- 
E|---------------------------------------------------- 
 
E|-x-8-10-11--10h11-8h10----8------------------------- 
B|-x---------------------11---8-11----8------8-9-11-9- 
G|-x-------------------------------10---8-10---------- 
D|---------------------------------------------------- 
A|---------------------------------------------------- 
E|---------------------------------------------------- 
   rake 
 
E|---------------------------------------------------- 
B|-9h11p9p8------------------------------------------- 
G|--------------------------------3-5-3--------------- 
D|--------------------3-5---3-5-6-------6-5h6p5~------ 
A|--------------3-5/6-----3--------------------------- 
E|---------------------------------------------------- 
 
Enjoy :=) 
 
 
---- 
Will
From tmw20@cam.ac.uk Thu May  8 14:09:47 1997
Date: Fri, 4 Apr 1997 13:23:28 +0100 (BST)
From: Tim Waugh 
To: guitar@olga.net
Subject: CRD(+TAB): Don't Speak by No Doubt

	       Don't Speak (Album version)     No Doubt

Capo on 1 (no capo for the alternate version).

  Bm
]---------------]---------------]---------------]---------------]
]3---3---3---3--]3---3---3---3--]3---3---3---3--]3---3---3---3--]
]4---4---4---4--]4---4---4---4--]4---4---4---4--]4---4---4---4--]
]--4---4---4---4]--4---4---4---4]--4---4---4---4]--4---4---4---4]
]---------------]---------------]---------------]---------------]
]---------------]---------------]---------------]---------------]


  Bm              A       Em      A       Bm      Em      A
]---------------]---------------]---------------]---------------]
]3---3---3---3--]2---2---0---0--]2---2---3---3--]0---0---2---2--]
]4---4---4---4--]2---2---0---0--]2---2---4---4--]0---0---2---2--]
]--4---4---4---4]--2---2---2---2]--2---2---4---4]--2---2---2---2]
]---------------]---------------]---------------]---------------]
]---------------]---------------]---------------]---------------]
 You and me, we used to be      | every day together, always.
                      together, |

  Bm      A       Em      A               Bm      Em      A
]---------------]---------------]---------------]---------------]
]4---4---3---3--]1---1---3---3--]3---3---4---4--]1---1---3---3--]
]5---5---3---3--]1---1---3---3--]3---3---5---5--]1---1---3---3--]
]--5---5---3---3]--3---3---3---3]--3---3---5---5]--3---3---3---3]
]---------------]---------------]---------------]---------------]
]---------------]---------------]---------------]---------------]
 I really feel, that I'm losing | I can't believe this could be
                my best friend, |                      the end.

  A       Bm      Em      A       Bm      A       B
]---------------]---------------]---------------]---------------]
]3---3---4---4--]1---1---3---3--]4---4---2---2--]4--------------]
]3---3---5---5--]1---1---3---3--]5---5---2---2--]4--------------]
]--3---3---5---5]--3---3---3---3]--5---5---2---2]4--------------]
]---------------]---------------]---------------]---------------]
]---------------]---------------]---------------]---------------]
 It looks as though you're      | and if it's real then I don't
                    letting go, |                 want to know.

CHORUS:
Em              Am                    D
Don't speak, I know just what you're saying,
B                 Am
So please stop explaining,
      Am       D        Em     Am D
Don't tell me 'cause it hurts.

Don't speak, I know what you're thinking,
I don't need your reasons,
Don't tell me 'cause it hurts.

Verse 2: [ Bm, A, Em, A etc as before ]

Our memories, they can be inviting,
But some are altogether mighty frightening,
As we die, both you and I,
With my head in my hands I sit and cry.

CHORUS

Em Dsus2 Em G

G                         F                      E7(222434)
It's all ending, we gotta stop pretending who we are...
G, hammer on Gsus2(3x0013), pull off G

Bm A Em A x3
Bm A Em -
      
Bm         A  Em           A       Em    A
You and me,   I can see us dying, always.

CHORUS, repeat a few times, fade.

Tim Waugh.
*/

comments
print report bad tab
27 comments total. Showing first comments.
0 reply
staindkid wrote on February 16 2002, 12:00 am

pretty kool

0 reply
chuckster wrote on February 16 2002, 12:00 am

Good tab!

0 reply
bubbles69 wrote on February 20 2002, 12:00 am

nice...good job!

I want to post or [tab]
guest
You may want to rate the tab now too:
select rating
Please do not post tabs as comments. Select "correction" instead!