Oops, an error
Loading. Please wait.

Dont Speak Tab

ver6
ver6
More versions @911Tabs.com
8,553 views 152 this week
no commentswrite comment
1 2 3 4 5
excellent!
x 7
Autoscroll
+/-
esc
set tempo
stop
Contributor
Difficulty
intermediate
Hey! There's an official Ultimate Guitar app which is ideal
for learning songs when you're away from computer. Get the app
WARNING: You are trying to view
                                    content from Ultimate-Guitar.com
                                    in an unauthorized application,
                                    which is prohibited.

                                    Please use an official Ultimate
                                    Guitar Tabs application for iPhone,
                                    iPad or Android to access legitimate
                                    chords, guitar, bass, and drum tabs
                                    from Ultimate-Guitar.com database.

                                    Type "ultimate guitar tabs" in Apple
                                    App Store's or Android Market's
                                    search to find the application.
Title: Don't Speak
Artist: No Doubt
Album: Tragic Kingdom (1995)
Time Signature: 4/4
Tempo: ~76BPM
Key Signature: Eb Major
Tuning: Standard

Tabbed by: Ness (10/27/2012)

Intro:

   Cm                 Cm
E|-----------------|-----------------|
B|--4---4---4---4--|--4---4---4---4--|
G|--5---5---5---5--|--5---5---5---5--|    
D|----5---5---5---5|----5---5---5---5|    
A|-----------------|-----------------| 
E|-----------------|-----------------|

Verse 1:

   Cm                 Gm      Fm        Bb      Gm        Fm      Bb
E|-----------------|-----------------|-----------------|-----------------|
B|--4---4---4---4--|--3---3---1---1--|--3---3---3---3--|--1---1---3---3--|
G|--5---5---5---5--|--3---3---1---1--|--3---3---3---3--|--1---1---3---3--|
D|----5---5---5---5|----5---5---3---3|----3---3---5---5|----3---3---3---3|
A|-----------------|-----------------|-----------------|-----------------|
E|-----------------|-----------------|-----------------|-----------------|

   Cm       Gm        Fm      Bb        Gm      Cm        Fm      Bb
E|-----------------|-----------------|-----------------|-----------------|
B|--4---4---3---3--|--1---1---3---3--|--3---3---4---4--|--1---1---3---3--|
G|--5---5---3---3--|--1---1---3---3--|--3---3---5---5--|--1---1---3---3--|
D|----5---5---5---5|----3---3---3---3|----5---5---5---5|----3---3---3---3|
A|-----------------|-----------------|-----------------|-----------------|
E|-----------------|-----------------|-----------------|-----------------|

    Cm      Gm        Fm      Bb        Eb      Bb       C
E|-----------------|-----------------|-----------------|-----------------|
B|--4---4---3---3--|--1---1---3---3--|--8---8---6---6--|-5---------------|
G|--5---5---3---3--|--1---1---3---3--|--8---8---7---7--|-5---------------|
D|----5---5---5---5|----3---3---3---3|----8---8---8---8|-5---------------|
A|-----------------|-----------------|-----------------|-3---------------|
E|-----------------|-----------------|-----------------|-----------------|

Chorus 1:
 
    Fm              Bbm               Eb              C              
E|--8---8---8---8---6---6---6---6--|--6---6---6---6---8---8---8---8--|
B|--9---9---9---9---6---6---6---6--|--8---8---8---8---8---8---8---8--|
G|--10--10--10--10--6---6---6---6--|--8---8---8---8---9---9---9---9--|
D|--10--10--10--10--8---8---8---8--|--8---8---8---8---10--10--10--10-|
A|--8---8---8---8---8---8---8---8--|--6---6---6---6---10--10--10--10-|
E|--x---x---x---x---6---6---6---6--|--x---x---x---x---8---8---8---8--|

    Bbm             C                 Fm              Bbm     C
E|--6---6---6---6---8---8---8---8--|--8---8---8---8---6---6---8---8--|
B|--6---6---6---6---8---8---8---8--|--9---9---9---9---6---6---8---8--|
G|--6---6---6---6---9---9---9---9--|--10--10--10--10--6---6---9---9--|
D|--8---8---8---8---10--10--10--10-|--10--10--10--10--8---8---10--10-|
A|--8---8---8---8---10--10--10--10-|--8---8---8---8---8---8---10--10-|
E|--6---6---6---6---8---8---8---8--|--x---x---x---x---6---6---8---8--|

    Fm              Bbm               Eb              C              
E|--8---8---8---8---6---6---6---6--|--6---6---6---6---8---8---8---8--|
B|--9---9---9---9---6---6---6---6--|--8---8---8---8---8---8---8---8--|
G|--10--10--10--10--6---6---6---6--|--8---8---8---8---9---9---9---9--|
D|--10--10--10--10--8---8---8---8--|--8---8---8---8---10--10--10--10-|
A|--8---8---8---8---8---8---8---8--|--6---6---6---6---10--10--10--10-|
E|--x---x---x---x---6---6---6---6--|--x---x---x---x---8---8---8---8--|

    Bbm             C                 Fm              Bbm     C
E|--6---6---6---6---8---8---8---8--|--8---8---8---8---6---6---8---8--|
B|--6---6---6---6---8---8---8---8--|--9---9---9---9---6---6---8---8--|
G|--6---6---6---6---9---9---9---9--|--10--10--10--10--6---6---9---9--|
D|--8---8---8---8---10--10--10--10-|--10--10--10--10--8---8---10--10-|
A|--8---8---8---8---10--10--10--10-|--8---8---8---8---8---8---10--10-|
E|--6---6---6---6---8---8---8---8--|--x---x---x---x---6---6---8---8--|



Verse 2:

   Cm                 Gm      Fm        Bb      Gm        Fm      Bb
E|-----------------|-----------------|-----------------|-----------------|
B|--4---4---4---4--|--3---3---1---1--|--3---3---3---3--|--1---1---3---3--|
G|--5---5---5---5--|--3---3---1---1--|--3---3---3---3--|--1---1---3---3--|
D|----5---5---5---5|----5---5---3---3|----3---3---5---5|----3---3---3---3|
A|-----------------|-----------------|-----------------|-----------------|
E|-----------------|-----------------|-----------------|-----------------|

    Cm      Gm        Fm      Bb        Eb      Bb        C
E|--3---3---3---3--|--1---1---1---1--|--6---6---6---6--|--3---3---3---3--|
B|--4---4---3---3--|--1---1---3---3--|--8---8---6---6--|--5---5---5---5--|
G|--5---5---3---3--|--1---1---3---3--|--8---8---7---7--|--5---5---5---5--|
D|--5---5---5---5--|--3---3---3---3--|--8---8---8---8--|--5---5---5---5--|
A|--3---3---5---5--|--3---3---1---1--|--6---6---8---8--|--3---3---3---3--|
E|--x---x---3---3--|--1---1---x---x--|--x---x---6---6--|--x---x---x---x--|

Chorus 2:

    Fm              Bbm               Eb              C              
E|--8---8---8---8---6---6---6---6--|--6---6---6---6---8---8---8---8--|
B|--9---9---9---9---6---6---6---6--|--8---8---8---8---8---8---8---8--|
G|--10--10--10--10--6---6---6---6--|--8---8---8---8---9---9---9---9--|
D|--10--10--10--10--8---8---8---8--|--8---8---8---8---10--10--10--10-|
A|--8---8---8---8---8---8---8---8--|--6---6---6---6---10--10--10--10-|
E|--x---x---x---x---6---6---6---6--|--x---x---x---x---8---8---8---8--|

    Bbm             C                 Fm              Bbm     C
E|--6---6---6---6---8---8---8---8--|--8---8---8---8---6---6---8---8--|
B|--6---6---6---6---8---8---8---8--|--9---9---9---9---6---6---8---8--|
G|--6---6---6---6---9---9---9---9--|--10--10--10--10--6---6---9---9--|
D|--8---8---8---8---10--10--10--10-|--10--10--10--10--8---8---10--10-|
A|--8---8---8---8---10--10--10--10-|--8---8---8---8---8---8---10--10-|
E|--6---6---6---6---8---8---8---8--|--x---x---x---x---6---6---8---8--|

    Fm              Bbm               Eb              C              
E|--8---8---8---8---6---6---6---6--|--6---6---6---6---8---8---8---8--|
B|--9---9---9---9---6---6---6---6--|--8---8---8---8---8---8---8---8--|
G|--10--10--10--10--6---6---6---6--|--8---8---8---8---9---9---9---9--|
D|--10--10--10--10--8---8---8---8--|--8---8---8---8---10--10--10--10-|
A|--8---8---8---8---8---8---8---8--|--6---6---6---6---10--10--10--10-|
E|--x---x---x---x---6---6---6---6--|--x---x---x---x---8---8---8---8--|

    Bbm             C                 F5  Eb5 C5  Ab5
E|--6---6---6---6---8---8---8---8--|--x---x---x---x--|
B|--6---6---6---6---8---8---8---8--|--x---x---x---x--|
G|--6---6---6---6---9---9---9---9--|--10--8---5---x--|
D|--8---8---8---8---10--10--10--10-|--10--8---5---6--|
A|--8---8---8---8---10--10--10--10-|--8---6---3---6--|
E|--6---6---6---6---8---8---8---8--|--x---x---x---4--|

Bridge:

    Db      Ab        B       Gb                         Dbsus2 Dbsus2/Eb Ab
E|--4---4---4---4--|--2---2---2---2--|-----------------|--x---x---x---x---4--|
B|--6---6---4---4--|--4---4---2---2--|-----------------|--4---4---4---4---4--|
G|--6---6---5---5--|--4---4---3---3--|--6---6---6------|--6---6---6---6---5--|
D|--6---6---6---6--|--4---4---4---4--|--7---7---7------|--6---6---6---6---6--|
A|--4---4---6---6--|--2---2---4---4--|--0---4--/6~-----|--4---4---6---6---6--|
E|--x---x---4---4--|--x---x---2---2--|-----------------|--x---x---x---x---4--|

Solo: 
                   
E|-----------3-----------|------------------------|-----------3-----------|
B|-----4--6-----6~-3-----|-----------4--/8--6--8~-|-----4--6-----6~-3-----|
G|--5-----------------3--|--------5---------------|--5-----------------3--|
D|-----------------------|--5-/6~-----------------|-----------------------|
A|-----------------------|------------------------|-----------------------|
E|-----------------------|------------------------|-----------------------|



E|--------3--4--3--4--6--|--4-p3-----|--8--10--11--10-h11-p10-p8-10-----8-----|
B|--------4--------------|--------6~-|--8----------------------------11----8--|
G|--------5--------------|-----------|--8-------------------------------------|
D|--5-/6~----------------|-----------|--10------------------------------------|
A|-----------------------|-----------|----------------------------------------|
E|-----------------------|-----------|----------------------------------------|

E|-------------------------------------------|--------------------------------|
B|--11------8---------8--9--11--9-h11-p9-p8--|--------------------------------|
G|------10-----8--10-------------------------|-----------------------------3--|
D|-------------------------------------------|-----------3--5-----3--5--6-----|
A|-------------------------------------------|--3-h5-h6--------6--------------|
E|-------------------------------------------|--------------------------------|

E|---------------------|
B|---------------------|
G|--h5--3--1--0-h1-p0--|
D|---------------------|
A|---------------------|
E|---------------------|

Verse 3:

   Cm       Gm        Fm      Bb        F5              Bb5      
E|-----------------|-----------------|--x-x-x-x-x-x-x-x-x-x-x-x-x-x-x-x--|
B|--4---4---3---3--|--1---1---3---3--|--x-x-x-x-x-x-x-x-x-x-x-x-x-x-x-x--|
G|--5---5---3---3--|--1---1---3---3--|--x-x-x-x-x-x-x-x-x-x-x-x-x-x-x-x--|
D|----5---5---5---5|----3---3---3---3|--3-3-3-3-3-3-3-3-8-8-8-8-8-8-8-8--|
A|-----------------|-----------------|--3-3-3-3-3-3-3-3-8-8-8-8-8-8-8-8--|
E|-----------------|-----------------|--1-1-1-1-1-1-1-1-6-6-6-6-6-6-6-6--|

Chorus 3/Outro:

    Fm              Bbm               Eb              C              
E|--8---8---8---8---6---6---6---6--|--6---6---6---6---8---8---8---8--|
B|--9---9---9---9---6---6---6---6--|--8---8---8---8---8---8---8---8--|
G|--10--10--10--10--6---6---6---6--|--8---8---8---8---9---9---9---9--|
D|--10--10--10--10--8---8---8---8--|--8---8---8---8---10--10--10--10-|
A|--8---8---8---8---8---8---8---8--|--6---6---6---6---10--10--10--10-|
E|--x---x---x---x---6---6---6---6--|--x---x---x---x---8---8---8---8--|

    Bbm             C                 Fm              Bbm     C
E|--6---6---6---6---8---8---8---8--|--8---8---8---8---6---6---8---8--|
B|--6---6---6---6---8---8---8---8--|--9---9---9---9---6---6---8---8--|
G|--6---6---6---6---9---9---9---9--|--10--10--10--10--6---6---9---9--|
D|--8---8---8---8---10--10--10--10-|--10--10--10--10--8---8---10--10-|
A|--8---8---8---8---10--10--10--10-|--8---8---8---8---8---8---10--10-|
E|--6---6---6---6---8---8---8---8--|--x---x---x---x---6---6---8---8--|

    Fm              Bbm               Eb              C              
E|--8---8---8---8---6---6---6---6--|--6---6---6---6---8---8---8---8--|
B|--9---9---9---9---6---6---6---6--|--8---8---8---8---8---8---8---8--|
G|--10--10--10--10--6---6---6---6--|--8---8---8---8---9---9---9---9--|
D|--10--10--10--10--8---8---8---8--|--8---8---8---8---10--10--10--10-|
A|--8---8---8---8---8---8---8---8--|--6---6---6---6---10--10--10--10-|
E|--x---x---x---x---6---6---6---6--|--x---x---x---x---8---8---8---8--|

    Bbm             C                 Fm              Bbm     C
E|--6---6---6---6---8---8---8---8--|--8---8---8---8---6---6---8---8--|
B|--6---6---6---6---8---8---8---8--|--9---9---9---9---6---6---8---8--|
G|--6---6---6---6---9---9---9---9--|--10--10--10--10--6---6---9---9--|
D|--8---8---8---8---10--10--10--10-|--10--10--10--10--8---8---10--10-|
A|--8---8---8---8---10--10--10--10-|--8---8---8---8---8---8---10--10-|
E|--6---6---6---6---8---8---8---8--|--x---x---x---x---6---6---8---8--|

    Fm              Bbm               Eb              C              
E|--8---8---8---8---6---6---6---6--|--6---6---6---6---8---8---8---8--|
B|--9---9---9---9---6---6---6---6--|--8---8---8---8---8---8---8---8--|
G|--10--10--10--10--6---6---6---6--|--8---8---8---8---9---9---9---9--|
D|--10--10--10--10--8---8---8---8--|--8---8---8---8---10--10--10--10-|
A|--8---8---8---8---8---8---8---8--|--6---6---6---6---10--10--10--10-|
E|--x---x---x---x---6---6---6---6--|--x---x---x---x---8---8---8---8--|

    Bbm             C                 Fm              Bbm     C
E|--6---6---6---6---8---8---8---8--|--8---8---8---8---6---6---8---8--|
B|--6---6---6---6---8---8---8---8--|--9---9---9---9---6---6---8---8--|
G|--6---6---6---6---9---9---9---9--|--10--10--10--10--6---6---9---9--|
D|--8---8---8---8---10--10--10--10-|--10--10--10--10--8---8---10--10-|
A|--8---8---8---8---10--10--10--10-|--8---8---8---8---8---8---10--10-|
E|--6---6---6---6---8---8---8---8--|--x---x---x---x---6---6---8---8--|

    Fm              Bbm               Eb              C              
E|--8---8---8---8---6---6---6---6--|--6---6---6---6---8---8---8---8--|
B|--9---9---9---9---6---6---6---6--|--8---8---8---8---8---8---8---8--|
G|--10--10--10--10--6---6---6---6--|--8---8---8---8---9---9---9---9--|
D|--10--10--10--10--8---8---8---8--|--8---8---8---8---10--10--10--10-|
A|--8---8---8---8---8---8---8---8--|--6---6---6---6---10--10--10--10-|
E|--x---x---x---x---6---6---6---6--|--x---x---x---x---8---8---8---8--|

    Bbm             C                 Fm              Bbm     C
E|--6---6---6---6---8---8---8---8--|--8---8---8---8---6---6---8---8--|
B|--6---6---6---6---8---8---8---8--|--9---9---9---9---6---6---8---8--|
G|--6---6---6---6---9---9---9---9--|--10--10--10--10--6---6---9---9--|
D|--8---8---8---8---10--10--10--10-|--10--10--10--10--8---8---10--10-|
A|--8---8---8---8---10--10--10--10-|--8---8---8---8---8---8---10--10-|
E|--6---6---6---6---8---8---8---8--|--x---x---x---x---6---6---8---8--|

    Fm              Bbm               Eb              C              
E|--8---8---8---8---6---6---6---6--|--6---6---6---6---8---8---8---8--|
B|--9---9---9---9---6---6---6---6--|--8---8---8---8---8---8---8---8--|
G|--10--10--10--10--6---6---6---6--|--8---8---8---8---9---9---9---9--|
D|--10--10--10--10--8---8---8---8--|--8---8---8---8---10--10--10--10-|
A|--8---8---8---8---8---8---8---8--|--6---6---6---6---10--10--10--10-|
E|--x---x---x---x---6---6---6---6--|--x---x---x---x---8---8---8---8--|

    Bbm             C                 Fm              Bbm     C
E|--6---6---6---6---8---8---8---8--|--8---8---8---8---6---6---8---8--|
B|--6---6---6---6---8---8---8---8--|--9---9---9---9---6---6---8---8--|
G|--6---6---6---6---9---9---9---9--|--10--10--10--10--6---6---9---9--|
D|--8---8---8---8---10--10--10--10-|--10--10--10--10--8---8---10--10-|
A|--8---8---8---8---10--10--10--10-|--8---8---8---8---8---8---10--10-|
E|--6---6---6---6---8---8---8---8--|--x---x---x---x---6---6---8---8--|

    Fm              Bbm               Eb              C              
E|--8---8---8---8---6---6---6---6--|--6---6---6---6---8---8---8---8--|
B|--9---9---9---9---6---6---6---6--|--8---8---8---8---8---8---8---8--|
G|--10--10--10--10--6---6---6---6--|--8---8---8---8---9---9---9---9--|
D|--10--10--10--10--8---8---8---8--|--8---8---8---8---10--10--10--10-|
A|--8---8---8---8---8---8---8---8--|--6---6---6---6---10--10--10--10-|
E|--x---x---x---x---6---6---6---6--|--x---x---x---x---8---8---8---8--|

    Bbm             C                 Fm              Bbm     C
E|--6---6---6---6---8---8---8---8--|--8---8---8---8---6---6---8---8--|
B|--6---6---6---6---8---8---8---8--|--9---9---9---9---6---6---8---8--|
G|--6---6---6---6---9---9---9---9--|--10--10--10--10--6---6---9---9--|
D|--8---8---8---8---10--10--10--10-|--10--10--10--10--8---8---10--10-|
A|--8---8---8---8---10--10--10--10-|--8---8---8---8---8---8---10--10-|
E|--6---6---6---6---8---8---8---8--|--x---x---x---x---6---6---8---8--|

    Fm              Bbm               Eb              C              
E|--8---8---8---8---6---6---6---6--|--6---6---6---6---8---8---8---8--|
B|--9---9---9---9---6---6---6---6--|--8---8---8---8---8---8---8---8--|
G|--10--10--10--10--6---6---6---6--|--8---8---8---8---9---9---9---9--|
D|--10--10--10--10--8---8---8---8--|--8---8---8---8---10--10--10--10-|
A|--8---8---8---8---8---8---8---8--|--6---6---6---6---10--10--10--10-|
E|--x---x---x---x---6---6---6---6--|--x---x---x---x---8---8---8---8--|

    Bbm             C                 Fm              Bbm     C
E|--6---6---6---6---8---8---8---8--|--8---8---8---8---6---6---8---8--|
B|--6---6---6---6---8---8---8---8--|--9---9---9---9---6---6---8---8--|
G|--6---6---6---6---9---9---9---9--|--10--10--10--10--6---6---9---9--|
D|--8---8---8---8---10--10--10--10-|--10--10--10--10--8---8---10--10-|
A|--8---8---8---8---10--10--10--10-|--8---8---8---8---8---8---10--10-|
E|--6---6---6---6---8---8---8---8--|--x---x---x---x---6---6---8---8--|
comments
print report bad tab
I want to post or [tab]
guest
You may want to rate the tab now too:
select rating
Please do not post tabs as comments. Select "correction" instead!