Oops, an error
Loading. Please wait.

Sunday Morning Bass Tab

ver2
ver2

Whole song

Interactive

More versions @911Tabs.com
997 views 6 this week
no commentswrite comment
1 2 3 4 5
accurate
x 1
Autoscroll
+/-
esc
set tempo
stop
Contributor
Hey! There's an official Ultimate Guitar app which is ideal
for learning songs when you're away from computer. Get the app
WARNING: You are trying to view
                                    content from Ultimate-Guitar.com
                                    in an unauthorized application,
                                    which is prohibited.

                                    Please use an official Ultimate
                                    Guitar Tabs application for iPhone,
                                    iPad or Android to access legitimate
                                    chords, guitar, bass, and drum tabs
                                    from Ultimate-Guitar.com database.

                                    Type "ultimate guitar tabs" in Apple
                                    App Store's or Android Market's
                                    search to find the application.
-------------------------------------------------------------------------------
			     Sunday Morning - No Doubt
-------------------------------------------------------------------------------

Tabbed By : MountApple
e-mail: titanicant@gmail.com

Tuning: Standard

Using Rock Band song increments

Drum Roll:
G|---------------------------------------------------------------------------|
D|---------------------------------------------------------------------------|
A|---------------------------------------------------------------------------|
E|---------------------------------------------------------------------------|

Intro: 4x
G|---------------------------------------------------------------------------|
D|---------------------------------------------------------------------------|
A|----2-2-----0-2-4----2-4----2----------------------------------------------|
E|0-------4-4-------------------4--------------------------------------------|

Intro A: 3x
G|---------------------------------------------------------------------------|
D|---------------------------------------------------------------------------|
A|----2-2-----0-2-4----2-4----2----------------------------------------------|
E|0-------4-4-------------------4--------------------------------------------|
1x
G|---------------------------------------------------------------------------|
D|---------------------------------------------------------------------------|
A|----2-2-----0-2-4--4--2--4--2----------------------------------------------|
E|0-------4-4---------------------4------------------------------------------|

Verse 1: 1x
G|---------------------------------------------------------------------------|
D|-----------------------2---2-----------------------------------------------|
A|----222-24--4--4-2-------------4---4-------222-24-4-4-2------------4--4----|
E|0------4-----------4-------------------0------4---------4---0--0-----------|
1x                   
G|---------------------------------------------------------------------------|
D|---------------------------------------------------------------------------|
A|0--0--0--0--4-----9\-------------------------------------------------------|
E|---------------------------------------------------------------------------|

Main riff 1: 2x
G|---------------------------------------------------------------------------|
D|---------------------------------------------------------------------------|
A|----2-2-----0-2-4----2-4----2----------------------------------------------|
E|0-------4-4-------------------4--------------------------------------------|

Verse 2: 1x
G|---------------------------------------------------------------------------|
D|---------------------2---2--------6-------------------------2--------------|
A|----222-24--4-4--2-----2--------4---4------2222-24-4-42---4---4----4---4---|
E|0------4-----------4--------------------0------4-------4-------------4-----|
1x
G|---------------------------------------------------------------------------|
D|---------------------------------------------------------------------------|
A|0--0--0--0--4-----9\-------------------------------------------------------|
E|---------------------------------------------------------------------------|

Main riff 2: 2x
G|---------------------------------------------------------------------------|
D|---------------------------------------------------------------------------|
A|----2-2-----0-2-4----2-4----2----------------------------------------------|
E|0-------4-4-------------------4--------------------------------------------|

Chorus 1: 1x
G|---------------------------------------------------------------------------|
D|7---77--7---7--------------------------------------------------------------|
A|--7---7---7---7\4-4-4-4-7-7-7-7\-------------------------------------------|
E|--------------------------------2-2-2-2-5-5-2-5----------------------------|
1x
G|---------------------------------------------------------------------------|
D|---------------------------------------------------------------------------|
A|4-4-4-4-7-7-7-7\2-2-2-2--4--2----------------------------------------------|
E|---------------------------------------------------------------------------|

Chorus 1A: 2x
G|---------------------------------------------------------------------------|
D|------2------------7-------------------------------------------------------|
A|0--04---0-4--4-6-7---7-0---------------------------------------------------|
E|---------------------------------------------------------------------------|
1x
G|---------------------------------------------------------------------------|
D|------2------------7-------------------------------------------------------|
A|0--04---0-4--4-6-7---7\----------------------------------------------------|
E|---------------------------------------------------------------------------|

Post chorus 1: 3x
G|---------------------------------------------------------------------------|
D|---------------------------------------------------------------------------|
A|----2-2-----0-2-4----2-4----2----------------------------------------------|
E|0-------4-4-------------------4--------------------------------------------|
1x
G|---------------------------------------------------------------------------|
D|---------------------------------------------------------------------------|
A|----2-2-----0-2-4------2---------------------------------------------------|
E|0-------4-4----------------------------------------------------------------|

Verse 3: 1x
G|---------------------------------------------------------------------------|
D|-----------------------2--2--2---------------------------------------------|
A|----222-24--4--4-2--------------4--4--4-------222-24-4-4-2-------2----4---4|
E|0------4-----------4----------------------0------4---------4---0---0----4--|
1x                   
G|---------------------------------------------------------------------------|
D|---------------------------------------------------------------------------|
A|0--0--0--0--4-----9\-------------------------------------------------------|
E|---------------------------------------------------------------------------|

Main riff 3: 2x
G|---------------------------------------------------------------------------|
D|---------------------------------------------------------------------------|
A|----2-2-----0-2-4----2-4----2----------------------------------------------|
E|0-------4-4-------------------4--------------------------------------------|

Chorus 2: 1x
G|---------------------------------------------------------------------------|
D|7---77--7---7--------------------------------------------------------------|
A|--7---7---7---7\4-4-4-4-7-7-7-7\-------------------------------------------|
E|--------------------------------2-2-2-2-5-5-2-5----------------------------|
1x
G|---------------------------------------------------------------------------|
D|---------------------------------------------------------------------------|
A|4-4-4-4-7-7-7-7\2-2-2-2--4--2----------------------------------------------|
E|---------------------------------------------------------------------------|

Chorus 2A: 2x
G|---------------------------------------------------------------------------|
D|------2------------7-------------------------------------------------------|
A|0--04---0-4--4-6-7---7-0---------------------------------------------------|
E|---------------------------------------------------------------------------|
1x
G|---------------------------------------------------------------------------|
D|------2------------7-------------------------------------------------------|
A|0--04---0-4--4-6-7---7\----------------------------------------------------|
E|---------------------------------------------------------------------------|

Post chorus 2: 2x
G|---------------------------------------------------------------------------|
D|---------------------------------------------------------------------------|
A|----2-2-----0-2-4----2-4----2----------------------------------------------|
E|0-------4-4-------------------4--------------------------------------------|
1x
G|---------------------------------------------------------------------------|
D|7---7---77--7---9---9---9--------------------------------------------------|
A|--7---7---7---7---9---9--9-9-9---------------------------------------------|
E|-------------------------------7-------------------------------------------|

Bridge: 4x
G|---------------------------------------------------------------------------|
D|---------------------------------------------------------------------------|
A|4444777--------------------------------------------------------------------|
E|-------722225525-----------------------------------------------------------|
2x
G|---------------------------------------------------------------------------|
D|---------------------------------------------------------------------------|
A|4--4-----------------------------------------------------------------------|
E|----000022225525-----------------------------------------------------------|
1x
G|---------------------------------------------------------------------------|
D|----------------------------7777-------------------------------------------|
A|4444------------444477779999-----------------------------------------------|
E|----000022225525-----------------------------------------------------------|

Chorus 3: 2x
G|---------------------------------------------------------------------------|
D|---------------------------------------------------------------------------|
A|4-4-4-4-7-7-7-7\-----------------------------------------------------------|
E|----------------2-2-2-2-5-5-2-5--------------------------------------------|
1x
G|---------------------------------------------------------------------------|
D|---------------------------------------------------------------------------|
A|4444444477777777999999994-----2--------------------------------------------|
E|---------------------------------------------------------------------------|

Chorus 3A: 1x
G|---------------------------------------------------------------------------|
D|------2------------7-------------------------------------------------------|
A|0--04---0-4--4-6-7---7-0---------------------------------------------------|
E|---------------------------------------------------------------------------|
1x
G|---------------------------------------------------------------------------|
D|------2----67-6------------------------------------------------------------|
A|0--04---0----7-76----------------------------------------------------------|
E|---------------------------------------------------------------------------|
1x
G|---------------------------------------------------------------------------|
D|------2------------7-------------------------------------------------------|
A|0--04---0-4--4-6-7---7\----------------------------------------------------|
E|---------------------------------------------------------------------------|

Post chorus 3: 4x
G|---------------------------------------------------------------------------|
D|---------------------------------------------------------------------------|
A|----2-2-----0-2-4----2-4----2----------------------------------------------|
E|0-------4-4-------------------4--------------------------------------------|

Outro: 4x
G|---------------------------------------------------------------------------|
D|2--2-----------------------------------------------------------------------|
A|------------2-4-4---------2------------------------------------------------|
E|------0-2-4---------0-2-4--------------------------------------------------|

Outro A: 3x
G|---------------------------------------------------------------------------|
D|2--------------------------------------------------------------------------|
A|------------2-4----------2-------------------------------------------------|
E|------0-2-4---------0-2-4--------------------------------------------------|
1x
G|---------------------------------------------------------------------------|
D|2--------------------------------------------------------------------------|
A|------------2-4------------------------------------------------------------|
E|------0-2-4----------0-2-4-2-0---------------------------------------------|

| /  slide up
| \  slide down
| h  hammer-on
| p  pull-off
| ~  vibrato
| +  harmonic
| x  Mute note
===============================================================================
comments
We did not receive enough feedback on this tab! Please rate:
print report bad tab
1 2 3 4 5
I want to post or [tab]
guest
You may want to rate the tab now too:
select rating
Please do not post tabs as comments. Select "correction" instead!