Oops, an error
Loading. Please wait.

Punk In Drublic Tab

by Nofx
3,372 views 36 this week
no commentswrite comment
1 2 3 4 5
excellent!
x 2
Autoscroll
+/-
esc
set tempo
stop
Contributor
Hey! There's an official Ultimate Guitar app which is ideal
for learning songs when you're away from computer. Get the app
WARNING: You are trying to view
                                    content from Ultimate-Guitar.com
                                    in an unauthorized application,
                                    which is prohibited.

                                    Please use an official Ultimate
                                    Guitar Tabs application for iPhone,
                                    iPad or Android to access legitimate
                                    chords, guitar, bass, and drum tabs
                                    from Ultimate-Guitar.com database.

                                    Type "ultimate guitar tabs" in Apple
                                    App Store's or Android Market's
                                    search to find the application.
LINOLEUM

|----------------|        |----------------|
|----------------|        |----------------|
|----------------|        |----------------|
|9-xxxx9-xxxx9-9-| 7x     |9-xxxx9-xxxx////|
|7-xxxx7-xxxx7-7-|        |7-xxxx7-xxxx////|
|----------------|        |----------------|


|----------------------------|----------------|----------------|----------------|
|----------------------------|----------------|----------------|----------------|
|1313-131313-131313-131313-13|55-555-555-555-5|99-999-999-999-9|99-999-988-888-8|
|x-x--x-x-x--x-x-x--x-x-x--x-|xx-xxx-xxx-xxx-x|xx-xxx-xxx-xxx-x|xx-xxx-xxx-xxx-x|
|1111-111111-111111-111111-11|33-333-333-333-3|77-777-777-777-7|77-777-766-666-6|
|----------------------------|----------------|----------------|----------------|


|----------------|
|----------------|
|----------------|
|9-xxxx9-xxxx9-9-| 2x
|7-xxxx7-xxxx7-7-|
|----------------|


|----------------|----------------|----------------|----------------|
|----------------|----------------|----------------|----------------|
|----------------|----------------|66-666-6--------|----------------|
|22-222-222-222-2|66-666-666-666-6|66-666-699-999-9|77-777-799-999-9| 2x
|22-222-222-222-2|66-666-666-666-6|44-444-499-999-9|77-777-799-999-9|
|00-000-000-000-0|44-444-444-444-4|--------77-777-7|55-555-577-777-7|


|----------------|----------------|----------------------------|----------------|
|----------------|----------------|----------------------------|----------------|
|----------------|----------------|----------------------------|----------------|
|66-666-666-666-6|----------------|----------------------------|----------------|
|77-777-777-777-7|66-666-666-666-6|1111-111111-111111-111111-11|77-777-777-777-7|
|----------------|77-777-777-777-7|9-9--9-9-9--9-9-9--9-9-9--9-|55-555-555-555-5|


|----------------|----------------|----------------|----------------|
|----------------|----------------|----------------|----------------|
|----------------|----------------|66-666-6--------|----------------|
|22-222-222-222-2|66-666-666-666-6|66-666-699-999-9|77-777-799-999-9|
|22-222-222-222-2|66-666-666-666-6|44-444-499-999-9|77-777-799-999-9|
|00-000-000-000-0|44-444-444-444-4|--------77-777-7|55-555-577-777-7|


|----------------|----------------|----------------------------|----------------|
|----------------|----------------|----------------------------|----------------|
|----------------|----------------|----------------------------|----------------|
|66-666-666-666-6|----------------|----------------------------|----------------|
|77-777-777-777-7|66-666-666-666-6|1111-111111-111111-111111-11|77-777-777-777-7|
|----------------|77-777-777-777-7|9-9--9-9-9--9-9-9--9-9-9--9-|55-555-555-555-5|


|----------------|----------------|-------------------------------|----------------|
|----------------|----------------|-------------------------------|----------------|
|----------------|----------------|-------------------------------|----------------|
|6-66666666666666|----------------|-------------------------------|----------------|
|7-77777777777777|6-66666666666666|11-1111111111111111111111111111|7-7-7777-77-7777|
|----------------|7-77777777777777|9--9-9-9-9-9-9-9-9-9-9-9-9-9-9-|5-5-5555-55-5555|
   ..............   ..............    . . . . . . . . . . . . . .


|----------------|----------------|----------------------------|----------------|
|----------------|----------------|----------------------------|----------------|
|----------------|----------------|----------------------------|----------------|
|6-6-6666-66-6666|----------------|----------------------------|----------------|
|7-7-7777-77-7777|6-6-6666-66-6666|11-11-11111111-1111-11111111|77-777-777-777-7|
|----------------|7-7-7777-77-7777|9--9--9-9-9-9--9-9--9-9-9-9-|55-555-555-555-5|


|----------------|----------------|----------------------------|----------------|
|----------------|----------------|----------------------------|----------------|
|----------------|----------------|----------------------------|----------------|
|66-666-666-666-6|----------------|----------------------------|----------------|
|77-777-777-777-7|66-666-666-666-6|1111-111111-111111-111111-11|77-777-777-777-7|
|----------------|77-777-777-777-7|9-9--9-9-9--9-9-9--9-9-9--9-|55-555-555-555-5|


|----------------|----------------|----------------------------|----------------|
|----------------|----------------|----------------------------|----------------|
|----------------|----------------|----------------------------|----------------|
|66-666-666-666-6|----------------|----------------------------|----------------|
|77-777-777-777-7|66-666-666-666-6|1111-111111-111111-111111-11|77-777-777-7////|
|----------------|77-777-777-777-7|9-9--9-9-9--9-9-9--9-9-9--9-|55-555-555-5////|


|----------------------------|----------------|----------------|----------------|
|----------------------------|----------------|----------------|----------------|
|1313-131313-131313-131313-13|55-555-555-555-5|99-999-999-999-9|99-999-988-888-8|
|x-x--x-x-x--x-x-x--x-x-x--x-|xx-xxx-xxx-xxx-x|xx-xxx-xxx-xxx-x|xx-xxx-xxx-xxx-x|
|1111-111111-111111-111111-11|33-333-333-333-3|77-777-777-777-7|77-777-766-666-6|
|----------------------------|----------------|----------------|----------------|


|----------------|       |----------------|
|----------------|       |----------------|
|----------------|       |----------------|
|9-xxxx9-xxxx9-9-| 3x    |9\\\\\\\\\\\\\\x|
|7-xxxx7-xxxx7-7-|       |7\\\\\\\\\\\\\\x|
|----------------|       |----------------|



///////////////////////////////////////////////////////////////////////////////////
LEAVE IT ALONE

Intro

e------------------------------------------------|
B------------------------------------------------|
G------------------------------------------------|
D------------------------------------------------|
A--888-77777-87-8-- x4   THEN END ON   3~--------|
E--888-88888-66-6-------------------   1~--------|

OR...

e------------------------------------------------|
B------------------------------------------------|
G------------------------------------------------|
D--333-22222-32-3-- x4 --------------------------|
A--333-33333-11-1------THEN END ON-----3~--------|
E--------------------------------------1~--------|


Verse 1
e---------------------------------------------------------------|
B---------------------------------------------------------------|
G---------------------------------------------------------------|
D-------------2-22222222--7-7777--5-5555--3-3333--5-5555--------|    X2
A-3-33333333--0-00000000--5-5555--3-3333--1-1111--3-3333--------|
E-1-11111111----------------------------------------------------|
    |------|    |------|    |--|    |--|    |--|    |-----------|
       pm          pm        pm      pm      pm      pm

Verse 1 - part 2

       (the same thing just without the palm muting)
e----------------------------------------------------------------------------|   End With
B----------------------------------------------------------------      ------|
G----------------------------------------------------------------     \------|
D-------------222222222222--777777--555555--333333--555555-------------------| X2   \/
A-3333333333--000000000000--555555--333333--111111--333333----333333---3-3---|
E-1111111111--------------------------------------------------111111---1-1---|



     Guitar 1
e-------------------------------------|
B-------------------------------------|
G-------------------------------------|
D----------------555555---------------|  X4
A-333333-6666666-333333--22-2--22-2---|
E-111111-4444444---------00-0--00-0---|
                         |-|   |-|
                          pm   pm
     Guitar 2
e----------------------------------------------------|
B----------------------------------------------------|
G-14-14-14-14-14-13-13-13-13-13-12-12-12-12-12-12--9-|
D----------------------------------------------------|   X4
A-12-12-12-12-12-11-11-11-11-11-10-10-10-10-10-10--7-|
E----------------------------------------------------|

Verse 2

e-----------------------------------------------------------------|
B-----------------------------------------------------------------|
G-----------------------------------------------------------------|
D-------------------------5-55555---------------------------------|   X2
A-3-3333333--5-55555555---3-33333---5-5555---3-3333---5-5555------|
E-1-1111111--3-33333333-------------3-3333---1-1111---3-3333------|
    |-----|    |------|     |---|     |--|     |--|     |---------|
      pm          pm          pm       pm       pm       pm

Verse 2 Part 2

e-------------------------------------------------------------|
B-------------------------------------------------------------|
G-------------------------------------------------------------|
D-555555------------------------------------------555555--5-5-|  X2
A-333333--222222--777777--555555--333333--555555--333333--3-3-|
E---------000000--555555--333333--111111--333333--------------|



     Guitar 1
e-------------------------------------|
B-------------------------------------|
G-------------------------------------|
D----------------555555---------------|  X4
A-333333-6666666-333333--22-2--22-2---|
E-111111-4444444---------00-0--00-0---|
                         |-|   |-|
                          pm   pm
     Guitar 2
e----------------------------------------------------|
B----------------------------------------------------|
G-14-14-14-14-14-13-13-13-13-13-12-12-12-12-12-12--9-|
D----------------------------------------------------|   X4
A-12-12-12-12-12-11-11-11-11-11-10-10-10-10-10-10--7-|
E----------------------------------------------------|


///////////////////////////////////////////////////////////////////////////////////
DIG

A=left guitar   B=right guitar   A&B=both
:
# intro #A !play all chords 2-3X!   %=pause
E-----------------------------------------%---------------%-|
B-----------------------------------------%---------------%-|
G---5-5-5-4-6-6-6-7-5-5-5-4-6-6-6-7-5-5-5-%46-6-6-7-5-5-5-%4|
D-----------------------------------------%---------------%-|
A---3-3-3-2-4-4-4-5-3-3-3-2-4-4-4-5-3-3-3-%24-4-4-5-3-3-3-%2|
E-----------------------------------------%---------------%-|
# intro #B !play all chords 2-3X! <<<=pick-slide %=pause
E-----------------------------------------%---------------%-|
B-----------------------------------------%---------------%-|
G-----------------------------------------%---------------%-|
D-------------------------------7-5-3-3-3-%-7-7-7-5-3-3-3-%-|
A------------------------<<<<<<<7-5-3-3-3-%27-7-7-5-3-3-3-%2|
E------------------------<<<<<<<5-3-1-1-1-%35-5-5-3-1-1-1-%3|
:
# verse #A&B *=play 6X #=play 3X
E-------------------------------------------------------------------|
B------------*---------------*---------------*---------------*------|
G----*------5--------*-----10--------*------5--------*-----10--10-97|
D---7-------5-------5------10-------7-------5-------5------10--10-97|
A---7-------3-------5-------8-------7-------3-------5-------8---8-75|
E---5---------------3---------------5---------------3---------------|
:
# riff #A *=play 6X #=play 3X h=hammer-on %=pause <<<=pick-slide
E---------------------------%---------------%3----------------------|
B----*-------#--------------%--------*------%3-------*-------*------|
G---5-------5--------*------%5------5-------%4------7-------5-------|
D---5-------5-------3-------%-------5-------%-----------------------|
A---3-------3--hh-3-3-------%--hh-3-3-------%--hh-3-5-------3----<<<|
E--------------345-31-------%--345-3--------%--345-3-------------<<<|
# riff #B *=play 6X #=play 3X h=hammer-on %=pause
E---------------------------%---------------%3----------------------|
B----*-------#--------------%--------*------%3-------*-------*------|
G---5-------5--------*------%5------5-------%4------3------10-------|
D---5-------5-------3-------%3------5-------%-----------------------|
A---3-------3--hh-3-3-------%--hh-3-3-------%--hh-3-1-------8-------|
E--------------345-31-------%--345-3--------%--345-3----------------|
:
# verse2 #A *=play 6X #=play 3X
E-------------------------------------------------------------------|
B----*-----------------------*---------------*---------------#------|
G---5--------*-------*-----12--------*------5--------*-----10--10-97|
D---5-------5-------7------12-------3-------5-------5------10--10-97|
A---3-------5-------7------10-------3-------3-------5-------8---8-75|
E-----------3-------5---------------1---------------3---------------|
# verse2 #B *=play 6X #=play 3X
E-------------------------------------------------------------------|
B----*-----------------------*---------------*---------------#------|
G---9--------*-------*-----12--------*------5--------*-----10--10-97|
D-----------5-------7------12-------3-------5-------5------10--10-97|
A---7-------5-------7------10-------3-------3-------5-------8---8-75|
E-----------3-------5---------------1---------------3---------------|
:
Then play A&Bverse2A (!end with first chord X7!)
:
# into-bridge #A&B   (Underneath...) *=play 6X
E-------------------------------------------------------|
B------------*------------------------------------------|
G----*------5--------*----------------------------------|
D---7-------5-------5-------3-------3-------3-------3---|
A---7-------3-------5-------3-------3-------3-------3---|
E---5---------------3-------0-------0-------0-------0---|
>>>>>>>>>>to next page...
:
DIG                                                                       2/2
:
# bridge #A X2 %=pause
E---%%%%%%%%%%%%%%%%%%%%%%%%%%%%%%%%%%%%%%%%%%%%%%%%%%%%%%%%%---%---|
B---%%%%%%%%%%%%%%%%%%%%%%%%%%%%%%%%%%%%%%%%%%%%%%%%%%%%%%%%%---%---|
G---%%%%%%%%%%%%%%%%%%%%%%%%%%%%%%%%%%%%%%%%%%%%%%%%%%%%%%%%%---%---|
D---%%%%%%%%%%%%%%%%%%%%%%%%%%%%%%%%%%%%%%%%%%%%%%%%%%%%%%%%%33-%33-|
A---%%%%%%%%%%%%%%%%%%%%%%%%%%%%%%%%%%%%%%%%%%%%%%%%%%%%%%%%%33-%33-|
E---%%%%%%%%%%%%%%%%%%%%%%%%%%%%%%%%%%%%%%%%%%%%%%%%%%%%%%%%%11-%11-|
# bridge #B X2 !play all chords 3X!
E---0-------3-------5-------3-------1-------0-------3-------%---%---|
B---1-------3-------5-------3-------1-------1-------3-------%---%---|
G---0-------4-------5-------4-------2-------0-------4-------%---%---|
D-----------------------------------------------------------%33-%33-|
A-----------------------------------------------------------%33-%33-|
E---C-------G-------Am------G-------F-------C-------G-------%11-%11-|
:
Then play  A&Bverse2AX2.
:
# outro #A *=play 6X #=play 3X h=hammer-on %=pause                  >
E---------------------------%---------------%3---------------------->
B----*-------#--------------%--------*------%3-------*-------*------>
G---5-------5--------*------%5------5-------%4------7-------5------->
D---5-------5-------3-------%3------5-------%----------------------->
A---3-------3--hh-3-3-------%--hh-3-3-------%--hh-3-5-------3------->
E--------------345-31-------%--345-3--------%--345-3---------------->
# outro #B *=play 6X #=play 3X h=hammer-on %=pause                  >
E---------------------------%---------------%3---------------------->
B----*-------#--------------%--------*------%3-------*-------*------>
G---5-------5--------*------%5------5-------%4------3------10------->
D---5-------5-------3-------%3------5-------%----------------------->
A---3-------3--hh-3-3-------%--hh-3-3-------%--hh-3-1-------8------->
E--------------345-31-------%--345-3--------%--345-3---------------->
>outroA                                                             >
>---------------------------%---------------%3---------------------->
>----*-------#--------------%--------*------%3-------*-------*------>
>---5-------5--------*------%5------5-------%4------7-------5------->
>---5-------5-------3-------%3------5-------%----------------------->
>---3-------3--hh-3-3-------%--hh-3-3-------%--hh-3-5-------3------->
>--------------345-31-------%--345-3--------%--345-3---------------->
>outroB                                                             >
>---------------------------%---------------%3---------------------->
>----*-------#--------------%--------*------%3-------*-------*------>
>---9-------9--------*------%5------5-------%4------3------10------->
>-------------------3-------%3------5-------%----------------------->
>---7-------7--hh-3-3-------%--hh-3-3-------%--hh-3-1-------8------->
>--------------345-31-------%--345-3--------%--345-3---------------->
>outroA
>-----------------------|
>-----------------------|
>---5---------------5\--|
>-----------------5-5\--|
>---3---------3---3-3\--|
>---------3h5---3-3-----|
>outroB
>-----------------------|
>-----------------------|
>---9---------------5\--|
>-----------------5-5\--|
>---7---------3---3-3\--|
>---------3h5---3-3-----|
:

///////////////////////////////////////////////////////////////////////////////////
THE CAUSE

A=left guitar   B=right guitar   A&B=both
:
# verse #A&B  #=play 16X palm-muted     # pre-chorus #A&B *=play 12X
E-------------------|                   E-------------------------------|
B-------------------| *=play 12X        B----*-------*------------------|
G----#-------*------|                   G---7-------4--------*-------*--|
D---4-------5-------|                   D---7-------4-------5-------7---|
A---5-------5-------|                   A---5-------2-------5-------7---|
E-----------3-------|                   E-------------------3-------5---|
:                                                          *=play 12X
# chorus #A&B *=play 5-6X                    # verse2 #A&B #=play 16X p-m
E----------------------------------------|   E-------------------------------|
B----*-------*---------------------------|   B-------------------------------|
G---7-------5--------*-----12121212121212|   G----#---------------#-------*--|
D---7-------5-------5------12121012101210|   D---7--------#------4-------5---|
A---5-------3-------5------10101010101010|   A---5-------7-------5-------5---|
E-------------------3--------------------|   E-----------5---------------3---|
:
Then play pre-chorusA&B and chorusA&BX2.
:
# bridge #B !A plays verse2A&B! m=palm-muted
E--|-----|6X|------|/----------------------|
B--|7-----8-----8--|1110-8-7-8-7-----------|
G--|--7-----7-----7|-------------9-7-------|
D--|----7-----7----|-----------------------|
A--|---------------|-----------------------|
E--|m-m-m-m-m-m-m-m|-----------------------|
:
# bridge #B !A plays pre-chorusA&B!
E|-----------|3X|----------------|----------------------------------|
B|-------------------------------|----------------------------------|
G|/14----12----11-/12----11-----7|/14----12----11-/12----11-----9---|
D|-------------------------------|----------------------------------|
A|/12----10-----9-/10-----9-----5|/12----10-----9-/10-----9-----7---|
E|-------------------------------|----------------------------------|
:               *=play 5-6X !2nd time without last 3 chords!
# chorus2 #B X2 !B plays chorusA&BX2 (!2nd time without last 3 chords!)!
E----------------------------------------|
B----*-------*-------*-------------------|
G--11------12------12------12121212121212|
D--------------------------12121012101210|
A---9------10------10------10101010101010|
E----------------------------------------|
:
# outro #A&B
E--------------------------------------------------------------------|
B--------------------------------------------------------------------|
G---------------------------------------------------------------7777\|
D------44444-----------55555554-4444---44444------------------7-7777\|
A---02455555424-44-424055555555-555502455555424-44-424055555555-5555\|
E-------------5-55-5--------------------------5-55-5---3333333-------|



///////////////////////////////////////////////////////////////////////////////////
DON'T CALL ME WHITE

# intro #A
E-------------------------------------------|
B-------------------------------------------|
G-------------------------------------------|
D---4-----7-----2-----------4-----7-----2---|
A---4-----7-----2-----------4-----7-----2---|
E---2-----5-----0-----------2-----5-----0---|
# intro #B
E-------------------------------------------|
B-------------------------------------------|
G---------------9-----------------------9---|
D---4-----7-----9-----------4-----7-----9---|
A---4-----7-----7-----------4-----7-----7---|
E---2-----5-----------------2-----5---------|
:
# riff1 #A  <=pick-slide
E-----------------------------------------------------------------------|
B-----------------------------------------------------------------------|
G-----------------------------------------------------------------------|
D-------------------------------------------4-4-4-4---6-7-7-6-----2-----|
A-------------------------------------------6-6-6-6---7-7-7-7-----2-<<<-|
E-----------------------------------------------------------------0-<<<-|
# riff1 #B
E-----------------------------------------------------------------------|
B-----------------------------------------------------------------------|
G-----------------------------------------------------------------9-----|
D---4-4-4-4---6-7-7-6---4-4-4-4---6-7-7-6---4-4-4-4---6-7-7-6-----9-----|
A---6-6-6-6---7-7-7-7---6-6-6-6---7-7-7-7---6-6-6-6---7-7-7-7-----7-<<<-|
E-------------------------------------------------------------------<<<-|
:
# verse #A&B X2 *=play 6X             # pre-chorus # *=play 6X  #=play 24X
E---------------------------------|   E-------------------------------|
B---------------------------------|   B-------------------------------|<=pick-
G----*-----*----------------------|   G----*-----*-----*-----*-----#--|  slide
D---4-----7-----6---6-7-7-6---6---|   D---4-----7-----4-----2-----7---|
A---4-----7-----7---7-7-7-7---7---|   A---4-----7-----4-----2-----7-<-|
E---2-----5-----------------------|   E---2-----5-----2-----0-----5-<-|
:
# chorus #A play every note 6X    <=pick-slide
E---------------------------------------------------|
B---------------------------------------------------|
G---------------------------------------------------|
D---4-----7-----2-----2-----4-----7-----2-----2-----|
A---4-----7-----2-----2-----4-----7-----2-----2-<<<-|
E---2-----5-----0-----0-----2-----5-----0-----0-<<<-|
# chorus #B play every note 6X
E---------------------------------------------------|
B---------------------------------------------------|
G---------------9-----9-----------------9-----9-----|
D---4-----7-----9-----9-----4-----7-----9-----9-----|
A---4-----7-----7-----7-----4-----7-----7-----7-<<<-|
E---2-----5-----------------2-----5-------------<<<-|
:
Then play verseA&BX2 and pre-chorusA&B.
                                                    2/2
# chorus2 #A play every note 6X
E-------------------------------------|
B-------------------------------------|
G-------------------------------------|
D---4-----7-----2-----2-----4-----7---|
A---4-----7-----2-----2-----4-----7---|
E---2-----5-----0-----0-----2-----5---|
# chorus2 #B play every note 6X
E-------------------------------------|
B-------------------------------------|
G---------------9-----9---------------|
D---4-----7-----9-----9-----4-----7---|
A---4-----7-----7-----7-----4-----7---|
E---2-----5-----------------2-----5---|
:
# bridge #A&B (Represents everything I hate...)  play every note 6X
E---------------------------------------------------|
B---------------------------------------------------| m=use palm-muting on
G---------------------------------------------------|   chord below
D--11----11-----6-----6-----7-----7-----2-----2-----|
A--11----11-----7-----7-----7-----7-----2-----2-<<<-| <=pick-slide
E---9-----9-----7-----7-----5-----5-----0-----0-<<<-|
:
# chorus3 #A play every note 6X
E-------------TILT-----------|
B---------------TILT---------|
G-----------------TILT-------|
D---4-----7---------TILT-----|
A---4-----7-----------TILT---|
E---2-----5-------------TILT-|
# chorus3 #B play every note 6X
E----------------------------|
B----------------------------|
G----------------------------|
D---4-----7------------------|
A---4-----7------------------|
E---2-----5------------------|
:
# bridge2 #A    (Oh, we're better of this way...) play every note 6X
E-------------------------------------|
B-------------------------------------|
G---7-----------------------7---------|
D---7-----7-----2-----2-----7-----7---|
A---5-----7-----2-----2-----5-----7---|
E---------5-----0-----0-----------5---|
# bridge2 #B    play every note 6X
E-------------------------------------|
B-------------------------------------|
G---7-----------9-----9-----7---------|
D---7-----7-----9-----9-----7-----7---|
A---5-----7-----7-----7-----5-----7---|
E---------5-----------------------5---|
:
# outro #A
E---------------------------------|
B---------------------------------|
G---------------------------------|
D---4-4-4-4---6-7-7-6-----2-2-2---|
A---6-6-6-6---7-7-7-7-----2-2-2---|
E-------------------------0-0-0---|
# outro #B
E---------------------------------|
B---------------------------------|
G-------------------------9-9-9\--|
D---4-4-4-4---6-7-7-6-----9-9-9\--|
A---6-6-6-6---7-7-7-7-----7-7-7\--|
E---------------------------------|

///////////////////////////////////////////////////////////////////////////////////
MY HEART IS YEARNING

# damp-part # played throughout the song                            >
E------------------------------------------------------------------->
B------------------------------------------------------------------->
G-----7---7---7---7---7---7---6---6---7---7---7---7---7---7---7---7->
D---9---9---9-------9---9---7---7---5---5---5-------5---5---4---4--->
A------------------------------------------------------------------->
E------------------------------------------------------------------->
>damp-part
>---------------------------------------------------------------------|
>---------------------------------------------------------------------|
>-----6---6---6---6---6---6---7---7---6---6---6---6---6---6---6---6---|
>---7---7---7-------7---7---5---5---4---4---4-------4---4---4---4-----|
>---------------------------------------------------------------------|
>---------------------------------------------------------------------|
:
# chord-part #   (Also in two ska-rhythms)
E---7-------3-------5-------2---|
B---7-------3-------5-------2---|
G---7-------4-------6-------3---|  Played throughout the song after
D---9-------5-------7-------4---|  damp-part has been played X1.
A-------------------------------|
E-------------------------------|
:
# fast-part #  played 6X in the song                                >
E---/-----palm-muted----------\------------------------------------->
B------------------------------------------------------------------->
G---4-4-2-2---------------------2-------------------------2---4-2--->
D-----------4-4-2-2-0-0-2-2-4-4---4-0-------5-4-2-0-2-4-5----------->
A------------------------------------------------------------------->
E------------------------------------------------------------------->
>fast-part
>-----------------------------------------|
>-----------------------------------------|
>-----------------------------------------|
>---2-4-5-4-2-0-2-4-------2-4-5-4-2-0-----|
>-------------------------------------4---|
>-----------------------------------------|

///////////////////////////////////////////////////////////////////////////////////
PERFECT GOVERNMENT

# intro #B???
E--------------14-15------------------------------------|
B--15----17-------------------15------------------------|
G--------------------16----14----16---------------------|
D--------------------------------------16-17-14---------|
A-----------------------------------------------17-14---|
E-------------------------------------------------------|
:
# solo-background #A???   *=play 6X
E---3-------3-----------------------3--------*--------|
B---0-------3-----------------------3-------3---------|
G---0-------0--------*-------*------0-------2---------|
D---0-------0-------2-------2-------0-------0-------0-|
A-------------------2-------3-----------------------3-|
E-------------------0---------------------------------|
# solo #B???   b=bend-up one step v=vibrato r=release bend e=bend-up 1/4 step
E---------------------------------------------------------------------------|
B--10--10--10v---81010r-8---8--------------121313r-121312-101210r-----------|
G---b---b------------b----9---9--7-9------------b--------------e--12-9----9-|
D----------------------------------------------------------------------12---|
A---------------------------------------------------------------------------|
E---------------------------------------------------------------------------|
:
# acoustic-part #B???            # end acoustic-part #A&B
E---3-3-3-3-0-0-0-0-3-3---|      E---------------|
B---3-3-3-3-0-0-1-1-3-3---|      B---3-----------|
G---0-0-0-0-0-0-0-0-0-0---|      G---2-----2-----|
D---0-0-0-0-2-2-2-2-0-0---|      D---0-----0-----|
A-----------2-2-3-3-------|      A---------3-----|
E-------------------------|      E---------------|
:
# verse #A&B
E---3-----3-----0-----------3-----------------3-----3-----------------3------|
B---3-----3-----0-----------3-----3-----------3-----3-----------------3-----3|
G---0-----0-----0-----0-----0-----2-----2-----0-----0-----0-----0-----0-----2|
D---0-----0-----2-----2-----0-----0-----0-----0-----0-----2-----2-----0-----0|
A---------------2-----3-----------------3-----------------2-----3-----------0|
E---------------------------------------------------------0------------------|
:
# verse2 #A&B    *=play 6X              ('Cause there hasn't been a sign...)
E---------------------------3---------------|
B----------*-----*----------3-----3---------|
G----*----4-----5------*----0-----2-----2---|
D---5-----4-----5-----7-----0-----0-----0---|
A---5-----2-----3-----4-----------------3---|
E---3---------------------------------------|
:
# verse3 #A&B *=play 6X  #=play 6X p-muted  (You point your fucking finger...)
E---------------------------------------------3-----3-----0-----------3------>
B---------------------------------3-----------3-----3-----0-----------3-----3>
G----#-----------#-----#-----#----2-----2-----0-----0-----0-----0-----0-----2>
D---5------#----2-----5-----5-----0-----0-----0-----0-----2-----2-----0-----0>
A---5-----5-----2-----3-----2-----------3-----------------2-----3------------>
E---3-----2-----0-----------------------------------------0------------------>
>verse3A&B
>-------------------------------|
>----------------*-----*--------|
>---2------*----4-----5---------|
>---0-----5-----4-----5-----7---|
>---3-----5-----2-----3-----4---|
>---------3---------------------|
:

PERFECT GOVERNMENT                                                        2/2
:           *=play 16X
# bridge #B palm-muted        # verse4 #A&B   (How did the cat get so fat?...)
E-------------|               E--|3-----3---|3X|---------|3-----3-----------|
B----------*--|               B--|3-----3-----0----------|3-----3-----------|
G----*----0---|               G--|0-----0-----0-----0----|0-----0-----5-----|
D---5-----2---|               D--|0-----0-----2-----2----|0-----0-----5-----|
A---5-----3---|               A--|------------2-----3----|------------3-----|
E---3---------|               E--|------------0----------|------------------|
:
# solo2-background #A???   *=play 6X
E-------------------------------------------------------------------|
B----------------------------*-------*------------------------------|
G----*---------------*------7-------5--------*------2---------------|
D---5--------*------2-------7-------5-------5-------2-------5-------|
A---5-------5-------2-------5-------3-------2-------0---5---5-------|
E---3-------2-------0-----------------------------------2---3-------|
# solo2 #B???  b=bend-up one step r=release bend v=vibrato h=hammer-on f=flute
E---------------------------------------h------\h--10------------------------|
B--15--15--rv----121313-r1213121012\---121312121012--13----/-----------------|
G---b---b-------------b--------------------------------12121412\\5---7-f-----|
D------------------------------------------------------------------------5---|
A----------------------------------------------------------------------------|
E----------------------------------------------------------------------------|

///////////////////////////////////////////////////////////////////////////////////
THE BREWS

# verse # X3 *=play 8X
E---------------------------------------------------|
B----------------------------*-----*----------------|
G----*-----*-----*-----*----4-----4------*-----*----|
D---1-----1-----4-----4-----2-----1-----4-----4-----|
A---2-----2-----4-----4-----2-----2-----4-----4-----|
E---------------2-----2-----------------2-----2-----|
:
# chorus # *=play 7X
E---------------------------------------------------|
B---------------------------------------------------|
G----*-----*-----*-----*-----*-----*-----*-----*----|
D---1-----2-----2-----4-----1-----2-----2-----4-----|
A---2-----2-----2-----4-----2-----2-----2-----4-----|
E---------0-----0-----2-----------0-----0-----2-----|
:
Then play verseX3 and chorus.
:
# bridge # *=play 7X (We got the might...)
E--------------|---------|4X|----------||
B--------------|-----------------------||
G----*-----*---|-*-----*-----*-----*---||
D---1-----1----|7-----7-----2-----5----||
A---2-----2----|5-----7-----2-----5----||
E--------------|5-----5-----0-----3----||
:
# verse2 # *=play 7X
E-------------------------------------------------------|
B-------------------------------------------------------|
G----*-----*-----*-----*-----*-----*-----*-----*-----*--|
D---7-----5-----5-----7-----7-----5-----5-----7-----7---|
A---5-----5-----5-----7-----5-----5-----5-----7-----5---|
E---5-----3-----3-----5-----5-----3-----3-----5-----5---|
:
# verse3 # *=play 8X
E-------------------------------------------------------------------|
B-------------------------------------------------------------------|
G----*---*---*---*---*---*---*---*---*---*---*---*---*---*---*------|
D---5---5---7---7---5---5---7---7---5---5---7---7---5---5---7---7---|
A---5---5---7---5---5---5---7---5---5---5---7---5---5---5---7---5---|
E---3---3---5---5---3---3---5---5---3---3---5---5---3---3---5---5---|
:
///////////////////////////////////////////////////////////////////////////////////
THE QUASSITWORSH
# intro #A   palm-muted
E------------------------------------------------------------|
B------------------------------------------------------------|
G------------------------------------------------------------|
D---2-2------------------2-2-------2-2-------2-2-------2-2---|
A---2-2------------------2-2-------2-2-------2-2-------2-2---|
E---0-0------------------0-0-------0-0-------0-0-------0-0---|
# intro #B
E------------------------------------------------------------|
B------------------------------------------------------------|
G--------------------9---------------------------------------|
D--------------------9------------------10---------7---------|
A--------------------7------------------10---------7---------|
E----------------------------------------8---------5---------|
:
# verse #A X2     palm-muted
E----------------------------------------------------------------------------|
B----------------------------------------------------------------------------|
G----------------------------------------------------------------------------|
D-----2-2----2----2-2---2-2----2----2-2---2-2----2----2-2---2-2----2----2-2--|
A-----2-2----2----2-2---2-2----2----2-2---2-2----2----2-2---2-2----2----2-2--|
E-----0-0----0----0-0---0-0----0----0-0---0-0----0----0-0---0-0----0----0-0--|
# verse #B X2
E----------------------------------------------------------------------------|
B----------------------------------------------------------------------------|
G---9------------------------------------------------------------------------|
D---9----------------------------------10-----------------7------------------|
A---7----------------------------------10-----------------7------------------|
E---------------------------------------8-----------------5------------------|
:
# verse2 # X2
E----------------------------------------------------------------------------|
B----------------------------------------------------------------------------|
G----------------------------------------------------------------------------|
D---02-02-02-02--2-2--02-02-02-02--2-2--02-02-02-02--2-2--02-02-02-02--2-2---|
A----------------2-2---------------2-2---------------2-2---------------2-2---|
E----------------0-0---------------0-0---------------0-0---------------0-0---|
# verse2 # X2
E----------------------------------------------------------------------------|
B----------------------------------------------------------------------------|
G---9------------------------------------------------------------------------|
D---9----------------------------------10-----------------7------------------|
A---7----------------------------------10-----------------7------------------|
E---------------------------------------8-----------------5------------------|
:
# verse2 #A&B X2
E-------------------------------------------------------------|
B-------------------------------------------------------------|
G---------------------5---------------------------------------|
D---2-----------------5-----------------7-----------------2---|
A---2-----------------3-----------------7-----------------2---|
E---0-----------------------------------5-----------------0---|

///////////////////////////////////////////////////////////////////////////////////
DYING DEGREE

# verse #A&B X3   X=one hell of a palm-mute
E--------------------------------------------------------|
B--------------------------------------------------------|
G----------------------------5-5-5-5---------------------|
D---5-5-5-5-5-5-7-7-7-5-XXXX-5-5-5-5-XXXX-4-4-4-4-XXXX---|
A---7-7-7-7-7-7-7-7-7-7-XXXX-3-3-3-3-XXXX-5-5-5-5-XXXX---|
E--------------------------------------------------------|
:
# pre-chorus #A&B   *=play 6X    \=slide down
E---------------------------------------|
B------------*-------*-------*----------|
G----*------7-------5-------5-----------|
D---5-------7-------5-------5-----------|
A---5-------5-------3-------3-----------|
E---3------------------------------15\--|
:
# chorus #A  *=play 12X                             >
E--------------------------------------------------->
B--------------------------------------------------->
G----*---------------------------------------------->
D---5-----------------------2-2-2-5-5-5-4-4-4-2-2-2->
A---5-----------------------2-2-2------------------->
E---3-----------------------0-0-0------------------->
# chorus #B  *=play 12X                             >
E--------------------------------------------------->
B--------------------------------------------------->
G----*-----------------------*---------------------->
D---5-----------------------2----------------------->
A---5-----------------------2----------------------->
E---3-----------------------0----------------------->
>chorusA
>---------------------------------------------------|
>----*----------------------------------------------|
>---5------------------------*----------------------|
>---5-----------------------4-----------------------|
>---3-----------------------------------------------|
>---------------------------------------------------|
>chorusB
>---------------------------------------------------|
>----*-----------------------*----------------------|
>---5-----------------------7-----------------------|
>---5-----------------------7-----------------------|
>---3-----------------------5-----------------------|
>---------------------------------------------------|
:
Then play chorusA&BX5, pre-chorusA&B and chorusA or chorusB.
:
# solo #B !GuitarA plays verseA&BX1.5!   b=bend-up to next note \=slide down
E--14---------------------------------------------|
B---------8\\\\\-----------------10b12-8--10b12---|
G---------9\\\\\------7---------------------------|
D------------------9----10------------------------|
A--------------------------10---------------------|
E-------------------------------------------------|
:
# bridge #A&B   *=play 12X   (No more eating crumps...)    # end-chord #A&B
E-------------------------------|                          E-------|
B----*---------------*-------*--|                          B-------|
G---5--------*------7-------5---|                          G-------|
D---5-------5-------7-------5---|  >>> Then play chorusA   D---2---|
A---3-------5-------5-------3---|      or chorusB.  >>>    A---2---|
E-----------3-------------------|                          E---0---|

///////////////////////////////////////////////////////////////////////////////////
FLEAS

# intro #A                  *=play 12X
E-------------------------------------------------------------------------|
B-------------------------------------------------------------------------|
G---------------------------7------------------------------------*-----*--|
D---------3-----2-----------5-----3-----2-----------------------2-----2---|
A---------------------3-----------------------3-----5-----3---------------|
E-------------------------------------------------------------------------|
# intro #B                  *=play at the end of the intro
E-------------------------------------------------------------------------|
B----------------------------*--------------------------------------------|
G--12----------12----------12---------------------------------------------|
D--12----------12----------12---------------------------------------------|
A--10----------10----------10---------------------------------------------|
E-------------------------------------------------------------------------|
:
# verse #A&B *=play 3-5X                                                  >
E------------------------------------------------------------------------->
B----*-----------*-----*-----*-----------*-----*-----*-----------------*-->
G---5------*----7-----5-----5------*----7-----5-----5------*-----*----5--->
D---5-----5-----7-----5-----5-----5-----7-----5-----5-----5-----3-----5--->
A---3-----5-----5-----3-----3-----5-----5-----3-----3-----5-----3-----3--->
E---------3-----------------------3-----------------------3-----1--------->
>verseA&B
>-------------------------|
>----*--------------------|
>---5------*-----*-----*--|
>---5-----5-----3-----3---|
>---3-----5-----3-----3---|
>---------3-----1-----1---|
:
# bridge #A
E-------------------------|
B-------------------------|
G---7---------------------|
D---5-----3-----2---------|
A---------------------3---|
E-------------------------|
# bridge #B   *=play throughout the bridge
E-------------------------|
B----*--------------------|
G--12---------------------|
D--12---------------------|
A--10---------------------|
E-------------------------|
:
# verse2 #A     (Mother had forbidden me...)   *=play 3-5X                  >
E--------------------------------------------------------------------------->
B----*-----------*-----*-----*-----------*-----*-----*-----*---------------->
G---5------*----7-----5-----5------*----7-----5-----5-----7---------7-7--*-->
D---5-----5-----7-----5-----5-----5-----7-----5-----5-----7-----5-5-7-7-2--->
A---3-----5-----5-----3-----3-----5-----5-----3-----3-----5-----5-5-5-5-2--->
E---------3-----------------------3-----------------------------3-3-----0--->
# verse2 #B                                    *=play 3-5X
E--------------------------------------------------------------------------->
B----*-----------*-----*-----*-----------*-----*-----*-----*-------------*-->
G---5------*----7-----5-----5------*----7-----5-----5-----7---------7-7-9--->
D---5-----5-----7-----5-----5-----5-----7-----5-----5-----7-----5-5-7-7-9--->
A---3-----5-----5-----3-----3-----5-----5-----3-----3-----5-----5-5-5-5-7--->
E---------3-----------------------3-----------------------------3-3--------->
:
:
:
:
:
FLEAS                                                                     2/2
:
>verse2A
>---------------------------------------------------------------------------|
>----------*-----------------*-----------*-----*-------------------------*--|
>----*----5------*-----*----5------*----5-----7---------7-7--*-----*----5---|
>---3-----5-----5-----3-----5-----5-----5-----7-----5-5-7-7-2-----3-----5---|
>---3-----3-----5-----3-----3-----5-----3-----5-----5-5-5-5-2-----3-----3---|
>---1-----------3-----1-----------3-----------------3-3-----0-----1---------|
>verse2B
>---------------------------------------------------------------------------|
>----------*-----------------*-----------*-----*-------------*-----------*--|
>----*----5------*-----*----5------*----5-----7---------7-7-9------*----5---|
>---3-----5-----5-----3-----5-----5-----5-----7-----5-5-7-7-9-----3-----5---|
>---3-----3-----5-----3-----3-----5-----3-----5-----5-5-5-5-7-----3-----3---|
>---1-----------3-----1-----------3-----------------3-3-----------1---------|
:
# outro #A
E-------------------------------------------------------|
B-------------------------------------------------------|
G---7---------------------------------------------------|
D---5-----3-----2-----------------------2---------------|
A---------------------3-----5-----3-----------------5---|
E-------------------------------------------------------|
# outro #B    *=play almost throughout the outro, let ring at the end
E-------------------------------------------------------|
B----*--------------------------------------------------|
G--12---------------------------------------------------|
D--12---------------------------------------------------|
A--10---------------------------------------------------|
E-------------------------------------------------------|
:
///////////////////////////////////////////////////////////////////////////////////
LORI MEYERS

# intro #A !play all chords 3X! !end with pick-slide!
E-------------------------------------------------------------------|
B-------------------------------------------------------------------|
G---7---9--11--11---7---9--11--11---6---7---9---9---6---7-/15--15---|
D-------------------------------------------------------------------|
A---5---7---9---9---5---7---9---9---4---5---7---7---4---5-/13--13---|
E-------------------------------------------------------------------|
# intro #B !play all chords 3X! !end with pick-slide!
E-------------------------------------------------------------------|
B-------------------------------------------------------------------|
G-------------------------------------------------------------------|
D---9---9---9---9---5---5---5---5---7---7---7---7---4---4---4---4---|
A---9---9---9---9---5---5---5---5---7---7---7---7---4---4---4---4---|
E---7---7---7---7---3---3---3---3---5---5---5---5---2---2---2---2---|
:
# verse #A&B !play all chords 3X!
E-------------------------------------------------------------------|
B-------------------------------------------------------------------|
G------------------12--12--12-----------------------7---7---7-------|
D---9---9---9---7--12--12--12--12---7---7---7---7---7---7---7---8---|
A---9---9---9---7--10--10--10---9---7---7---7---7---5---5---5---9---|
E---7---7---7---5-------------------5---5---5---5-------------------|
:
# verse-part2 #A&B !play all chords 3X! #=play 3X !end with pick-slide!
E---------------------------------------------------------------------------|
B--------------------#---#---#-----------------------#---#---#--------------|
G----#---#---#---#-12--12--12----#---#---#---#---#--7---7---7---------------|
D---9---9---9---7--12--12--12--12---7---7---7---7---7---7---7---4---4---4---|
A---9---9---9---7--10--10--10---9---7---7---7---7---5---5---5---1---1---1---|
E---7---7---7---5-------------------5---5---5---5---------------0---0---0---|
:
# verse-part3 #A&B !play all chords 3X!
E-------------------------------------------------------------------|
B-------------------------------------------------------------------|
G------------------12--12--12---------------------------------------|
D---9---9---9---7--12--12--12--12---7---7---7---7---4---4---4---4---|
A---9---9---9---7--10--10--10---9---7---7---7---7---4---4---4---4---|
E---7---7---7---5-------------------5---5---5---5---2---2---2---2---|
:
Then play A&Bverse-part2A&B.
:
# verse2 #A&B *=play 6-8X #=play 3X m=palm-muted                    >
E---mm--mm--mm--mm--mm--mm--mm--mm--mm--mm--mm--mm------------------>
B---------------------------------------------------*--------------->
G--------------------------------------------------7---------------->
D-----99--99--99--77--55--55--55------77--77--77--77---------------->
A---999999999999777755555555555555557777777777777775---------------->
E---77777777777755553333333333332222555555555555555----------------->
>verse2A&B
>---mm--mm--mm--mm--mm--mm--mm--mm--mm--mm--mm--mm------------------|
>---------------------------------------------------*---------------|
>--------------------------------------------------7-------------#--|
>-----99--99--99--77--55--55--55------77--77--77--77------------8---|
>---999999999999777755555555555555557777777777777775------------9---|
>---77777777777755553333333333332222555555555555555-----------------|
:
# verse2-part2 #A&B !play all chords 3X! (I know what regradition...)
E-------------------------------------------------------------------|
B-------------------------------------------------------------------|
G------------------12--12--12-----------------------7---7---7---7---| >>>>>
D---9---9---9---7--12--12--12--12---7---7---7---7---7---7---7---7---| to next
A---9---9---9---7--10--10--10---9---7---7---7---7---5---5---5---5---| page...
E---7---7---7---5-------------------5---5---5---5-------------------|
LORI MEYERS                                                               2/2
:
# verse2-part3 #A&B !play all chords 3X! !slow rhythm!
E-------------------------------------------------------------------|
B------------------12--12--12--12-----------------------------------|
G------------------12--12--12--12-----------------------------------|
D---9---9---9---9--12--12--12--12---7---7---7---7---4---4---4---4---|
A---9---9---9---9--10--10--10--10---7---7---7---7---4---4---4---4---|
E---7---7---7---7-------------------5---5---5---5---2---2---2---2---|
:
Then play AintroA or BintroB.
:
# outro #A #=play 3X *=play 4-5X %=pause
E---------------------------------------------------%-------%-------|
B----#---#---#---#---#---#---#---#---#---#---#---#--%---*---%--*----|
G---7---9--11---9---7---9--11--11---6---7---9---9---%6-7----%15-----|
D---------------------------------------------------%-------%-------|
A---5---7---9---7---5---7---9---9---4---5---7---7---%4-5----%13-----|
E---------------------------------------------------%-------%-------|
# outro #B #=play 3X *=play 5X %=pause
E---------------------------------------------------%-------%-------|
B--------------------#---#---#---#---#---#---#---#--%--*----%--*----|
G----#---#---#---#--7---7---7---7--14--14--14--14---%12-----%11-----|
D---9---9---9---9---7---7---7---7--14--14--14--14---%12-----%11-----|
A---9---9---9---9---5---5---5---5--12--12--12--12---%10-----%-9-----|
E---7---7---7---7-----------------------------------%-------%-------|
:

///////////////////////////////////////////////////////////////////////////////////
JEFF WEARS BIRKENTSOCKS

# intro #A             /\=palm-muted                                   >
E-----/-----------\----/-----------\----/-----------\------------------>
B---------------------------------------------------------------------->
G-------------------------------------------------------12121212121212->
D---7-9-7-9-7-9-7-9--7-9-7-9-7-9-7-9--7-9-7-9-7-9-7-9--712121212121212->
A---5-5-5-5-5-5-5-5--5-5-5-5-5-5-5-5--5-5-5-5-5-5-5-5--510101010101010->
E---------------------------------------------------------------------->
# intro #B                                                             >
E---------------------------------------------------------------------->
B---------------------------------------------------------------------->
G-------------------------------------------------------12121212121212->
D-------------------------------------------------------12121212121212->
A-------------------------------------------------------10101010101010->
E---------------------------------------------------------------------->
>introA
>-----/-----------\----/-----------\----/-----------\--------------------|
>------------------------------------------------------------------------|
>-------------------------------------------------------12121212121212---|
>---7-9-7-9-7-9-7-9--7-9-7-9-7-9-7-9--7-9-7-9-7-9-7-9--712121212121212---|
>---5-5-5-5-5-5-5-5--5-5-5-5-5-5-5-5--5-5-5-5-5-5-5-5--510101010101010---|
>------------------------------------------------------------------------|
>introB   h=hammer-on   p=pull-off
>------------------------------------------------------------------------|
>-------------------------------8h9p8-7----------------------------------|
>---7----------5h7p5-7---------------------------5h7p5-712121212121212---|
>---7---------------------------------------------------12121212121212---|
>---5---------------------------------------------------10101010101010---|
>------------------------------------------------------------------------|
:
# verse #A&B X2  /\=palm-muted
E-----/---\----/---\----/---\----/---\----/---\----/---------------------\---|
B----------------------------------------------------------------------------|
G----------------------------------------------------------------------------|
D---7-9-7-9-----------------------------7-9-7-9-------------00224455442200---|
A---5-5-5-5--5-7-5-7--7-9-7-9--5-7-5-7--5-5-5-5--5-7-5-7--00-----------------|
E------------3-3-3-3--5-5-5-5--3-3-3-3-----------3-3-3-3---------------------|
:
# chorus #A&B   *=play 4X
E---------------------------3---|
B----*-------*-------*---*--3---|
G---7----*--7----*--7---5---4---|
D---7---5---7---5---7---5---5---|
A---5---5---5---5---5---3---5---|
E-------3-------3---------------|
:
# bridge #A&B X2   /\=palm-muted
E-----/---\----/---\----/---\----/---\----/---\----/---\---------------------|
B----------------------------------------------------------------------------|
G----------------------------------------------------------------------------|
D---7-9-7-9-----------------------------7-9-7-9-----------7--7--7-7-7-7-7-7--|
A---5-5-5-5--5-7-5-7--7-9-7-9--5-7-5-7--5-5-5-5--5-7-5-7--7--7--7-7-7-7-7-7--|
E------------3-3-3-3--5-5-5-5--3-3-3-3-----------3-3-3-3--5--5--5-5-5-5-5-5--|
:
Then play verseA&BX2 and chorusA&B.
:
# bridge #A&B   *=play 4X    (Shoes...)
E-----------------------------------------------------------3---|
B----------------*---------------*---------------*----------3---|
G----*---*---*--7----*---*---*--7----*---*---*--7----*---*--4---|
D---4---2---5---7---4---2---5---7---4---2---5---7---4---2---5---|
A---5---3---5---5---5---3---5---5---5---3---5---5---5---3---5---|
E-----------3---------------3---------------3-------------------|
\                                                 2/2
:
# outro #A
E-----/-----------\----/-----------\----/-----------\----------------------|
B--------------------------------------------------------------------------|
G-------------------------------------------------------12121212121212-7---|
D---7-9-7-9-7-9-7-9--7-9-7-9-7-9-7-9--7-9-7-9-7-9-7-9--712121212121212-7---|
A---5-5-5-5-5-5-5-5--5-5-5-5-5-5-5-5--5-5-5-5-5-5-5-5--510101010101010-5---|
E--------------------------------------------------------------------------|
# outro #B   h=hammer-on   p=pull-off
E--------------------------------------------------------------------------|
B-------------------------------8h9p8-7------------------------------------|
G---7----------5h7p5-7---------------------------5h7p5-712121212121212-7---|
D---7---------------------------------------------------12121212121212-7---|
A---5---------------------------------------------------10101010101010-5---|
E--------------------------------------------------------------------------|
:
///////////////////////////////////////////////////////////////////////////////////
PUNK GUY

# verse # X3 !play all notes X6!   # verse2 # *=play 6X  (Similar to...)
E-------------------------|        E-------------------------|
B-------------------------|        B-------------------------|
G-------------------------|        G----*-----*-----#-----*--|
D---3-----5----10-----7---|        D---3-----5----10-----7---|
A---3-----5----10-----7---|        A---3-----5----10-----7---|
E---1-----3-----8-----5---|        E---1-----3-----8-----5---|
:
# chorus #   !play all notes X6!
E-------------------------------------------------|
B-------------------------------------------------|
G-------------------------------------------------|
D---------3-----2-----2-----------3-----7-----7---|
A---2-----3-----3-----3-----2-----3-----7-----7---|
E---3-----1-----------------3-----1-----5-----5---|
:
# verse3 # *=play 6X  #=play 4X with pauses
E-------------------------|
B-------------------------|
G----#-----#-----*-----*--|
D---3-----5----10-----7---|       > Then play chorus.
A---3-----5----10-----7---|
E---1-----3-----8-----5---|
:
# bridge #
E---/--------palm-muted-----------\----------------------------------------|
B--------------------------------------------------------------------------|
G--------------------------------------------------------------------------|
D---3-3-3-3-3-3-3-3-5-5-5-5-5-5-5-5--Hell he was even more punk than me!---|
A---3-3-3-3-3-3-3-3-5-5-5-5-5-5-5-5----------------------------------------|
E---1-1-1-1-1-1-1-1-3-3-3-3-3-3-3-3----------------------------------------|
:
Then play verse.
:
# outro # *=play 6X %=pause
E-------------------|
B-------------------|
G----*--------------|
D---3-----5----10---|
A---3-----5----10---|
E---1-----3-%%%-8---|
:
///////////////////////////////////////////////////////////////////////////////////
HAPPY GUY

E-------------------------------------------------|
B-------------------------------------------------|
G---5---------------------------------------------|
D-------------------------------------------------|
A---3-----------------------------------------<<<-|
E---------------------------------------------<<<-|
# intro #B   !play every note X5!
E-------------------------------------------------|
B-------------------------------------------------|
G---5-----------------------5---------------------|
D---5-----2-----3-----6-----5-----2-----3-----6---|
A---3-----2-----3-----6-----3-----2-----3-----6---|
E---------0-----1-----4-----------0-----1-----4---|
:
# intro2 #A  !GuitarB plays introB!   !play every note X5!
E-------------------------------------------------|
B-------------------------------------------------|
G---5-----4-----2-----5-----5-----4-----2-----5---|
D-------------------------------------------------|
A---3-----2-----0-----3-----3-----2-----0-----3---|
E-------------------------------------------------|
:
# verse #A   *=play 5X
E-------------------------------------------------|
B----*-----*-----*-----*-----*--------------------|
G---5-----4-----2-----5-----5------*-----------*--|
D---------------------------5-----5-----7-7-5-3---|
A---3-----2-----0-----3-----3-----2-----7-7-5-3---|
E---------------------------------------5-5-3-1---|
# verse #B   *=play 5X
E-------------------------------------------------|
B----*-----------------------*--------------------|
G---5------*-----*-----*----5------*-----------*--|
D---5-----2-----3-----6-----5-----5-----7-7-5-3---|
A---3-----2-----3-----6-----3-----2-----7-7-5-3---|
E---------0-----1-----4-----------------5-5-3-1---|
:
# verse-part2 #A *=play 5X
E-------------------------------------------------|
B----*-----*-----*-----*-----*--------------------|
G---5-----7-----7----10-----5------*-----------*--|
D---5-----------7----10-----5-----5-----7-7-5-3---|
A---3-----5-----5-----8-----3-----2-----7-7-5-3---|
E---------------------------------------5-5-3-1---|
# verse-part2 #B *=play 5X
E-------------------------------------------------|
B----*-----------*-----------*--------------------|
G---5------*----7------*----5------*-----------*--|
D---5-----5-----7-----3-----5-----5-----7-7-5-3---|
A---3-----5-----5-----3-----3-----2-----7-7-5-3---|
E---------3-----------1-----------------5-5-3-1---|
:
# verse-part3 #A&B     *=play 5X
E-------------------------------------------------|
B----*-----------------------*-----------------*--|
G---5------*-----*-----*----5------*----------5---|
D---5-----5-----8-----3-----5-----5-----3-3-3-5---|
A---3-----5-----8-----3-----3-----5-----3-3-3-3---|
E---------3-----6-----1-----------3-----1-1-1-----|
:
                                                2/2
:
# bridge #A&B X2   *=play 6X   #=play 16X palm-muted  ('Cause he knows...)
E-------------------------------------------------|
B----------------*--------------------------------|
G----*-----*----5------*-----*-----*-----#--------|
D---7-----3-----5-----5-----7-----8-----3---------|
A---7-----3-----3-----5-----7-----8-----3---------|
E---5-----1-----------3-----5-----6-----1---------|
:                                                          v=vibrato
# solo #A   !GuitarB plays introB!  p=pull-off   b=bend up to next note      >
E------------------------------------------15-------------------------------->
B---18p17p1517-18p17p1517-18p17p15--/17-18----18-17-15-17p15----15b17-15b17-->
G-----------------------------------------------------------16--------------->
D---------------------------------------------------------------------------->
A---------------------------------------------------------------------------->
E---------------------------------------------------------------------------->
>soloA
>-------------------------------|
>-15v---------------------------|
>------910p9--12-10p9-10p9------|
>-----------10-------------10---|
>-------------------------------|
>-------------------------------|
:
# outro #A   !play all notes X10!  *=play once
E-------------------------------------------|
B----------------------------------------*--|
G---5-----7-----9-----7----10----13----12---|
D---5---------------------------------------|
A---3-----5-----7-----5-----8----11----10---|
E-------------------------------------------|
# outro #B   !play all notes X10!  *=play once
E-------------------------------------------|
B----------------------------------------*--|
G---5-----------------------------------9---|
D---5-----5-----7-----5-----3-----3---------|
A---3-----2-----7-----5-----3-----3-----7---|
E---------------5-----3-----1-----1---------|
:
///////////////////////////////////////////////////////////////////////////////////
REEKO

# verse #A X3   GuitarB is quiet 'til solo    !play every note X6!
E---5-----3-----3-----1-----0-----1-----0-----1-----0-----3---|
B---6-----5-----0-----1-----1-----3-----1-----1-----1-----1---|
G---5-----5-----0-----2-----0-----2-----2-----2-----0-----0---|
D---7-----5-----0-----3-----2-----0-----2-----0-----2-----2---|
A---5-----3-----2-----3-----3-----------0-----------3-----3---|
E-------------------------------------------------------------|
:  Dm7    C     G     F     C     Dm    Am   Dm7    C     C(2)
:
# solo #B h=hammer-on /=slide-up v=vibrato p=pull-off b=bend-up one step
E-------------------------------------5-8-------------------------------->
B-------6-------------6/8-----6/8-----5---8-------6/8-----6/8-6---6------>
G---5---5-7---5-------7/9-7/9-7/9-7-5-------------7/9-7/9-7/9-7-5-7-5---->
D---5h7------------------------------------------------------------------>
A------------------------------------------------------------------------>
E------------------------------------------------------------------------>
>soloB                                                                    >
>------------------------------------------------------------------------->
>------------------------------------------/6-------------8--------8------>
>--------5---------------------------------/7-5--------------7b------5-/7->
>-7v--5h7-7---------------------2---3-2-5-------7-----5/7----------------->
>-----------------0-3-5p3-----3---3--------------------------------------->
>------------------------------------------------------------------------->
>soloB
>-8----8----8-----------------------------------------------------|
>-8h10-8h10-8-8-6-5---6-5-----------------------------------------|
>-------------9-7-5---7-5-----------------------5---7b9-7-5---5---|
>-------------------7-------------2-3-3/5-5-5/7---7---------7-----|
>-------------------------------3---------------------------------|
>-----------------------------------------------------------------|
:
# verse2 #A !play all notes X6! *=play 3X                      !pick-slide!
E---------0-----------1-----0---------------------------------------------|
B---------1-----------1-----1------------------*--*-----------------------|
G---------0-----------2-----0----10-----9-----7--5------------------------|
D---3-----2-----5-----3-----2-----------------------5-----3-----2-----0---|
A---3-----3-----5-----3-----3-----8-----7-----5--3--3-----3-----3-----3---|
E---1-----------3---------------------------------------------------------|
# verse2 #B !play all notes X6!                                !pick-slide!
E-------------------------------------------------------------------------|
B-------------------------------------------------------------------------|
G---------5----------10-----5-----7---------------------------------------|
D---3-----5-----5----10-----5-----7-----7-----3-----5-----3-----2-----0---|
A---3-----3-----5-----8-----3-----5-----7-----3-----3-----3-----3-----3---|
E---1-----------3-----------------------5-----1---------------------------|
:
# verse3 #A !B plays verse2B! !play all notes X6! *=play 3X
E---------0-----3-----1-----0---------------------------------------------|
B---------1-----0-----1-----1------------------*--*-----------------------|
G---------0-----0-----2-----0----10-----9-----7--5-12----10-----9-----7---|
D---3-----2-----0-----3-----2---------------------------------------------|
A---3-----3-----2-----3-----3-----8-----7-----5--3-10-----8-----7-----5---|
E---1---------------------------------------------------------------------|
:
>>>>>>>>>>to next page...
:
:
:
:
:
:
:
:
:
REEKO                                                                     2/2
:
# outro #A !play all notes X6! *=play once
E-------------------------------------------------------------------|
B----------------------------------------------------------------*--|
G--12----10-----9-----7----12----10-----9-----7-----9-----7-----9---|
D-------------------------------------------------------------------|
A--10-----8-----7-----5----10-----8-----7-----5-----7-----5-----7---|
E-------------------------------------------------------------------|
# outro #B !play all notes X6! *=play once
E-------------------------------------------------------------------|
B----------------------------------------------------------------*--|
G---------------------------------------------------------------5---|
D---5-----5-----5-----5-----3-----3-----3-----3-----2-----0-----5---|
A---5-----5-----5-----5-----3-----3-----3-----3-----3-----3-----3---|
E---3-----3-----3-----3-----1-----1-----1-----1---------------------|
///////////////////////////////////////////////////////////////////////////////////
SCAVENGER TYPE

E---2---|
B---3---|
G---2---|
D---0---|
A-------|
E-------|
:
# main # X4   !play every note X8!      *=play 4X
E---2-----2-----2-----3-----2-----2-----2-----3-----2-----0-----0--3---|
B---3-----2-----3-----3-----3-----2-----3-----3-----3-----3-----3--2---|
G---2-----3-----4-----0-----2-----3-----4-----0-----2-----1-----0--2---|
D---0-----4-----4-----0-----0-----4-----4-----0-----0-----0-----2---*--|
A----------------------------------------------------------------*-----|
E----------------------------------------------------------------------|
comments
We did not receive enough feedback on this tab! Please rate:
print report bad tab
1 2 3 4 5
I want to post or [tab]
guest
You may want to rate the tab now too:
select rating
Please do not post tabs as comments. Select "correction" instead!