Oops, an error
Loading. Please wait.

Cry Tab

ver1
ver1

Whole song

Interactive

More versions @911Tabs.com
2,786 views 3 this week
no commentswrite comment
1 2 3 4 5
excellent!
x 1
Autoscroll
+/-
esc
set tempo
stop
Contributor
Hey! There's an official Ultimate Guitar app which is ideal
for learning songs when you're away from computer. Get the app
WARNING: You are trying to view
                                    content from Ultimate-Guitar.com
                                    in an unauthorized application,
                                    which is prohibited.

                                    Please use an official Ultimate
                                    Guitar Tabs application for iPhone,
                                    iPad or Android to access legitimate
                                    chords, guitar, bass, and drum tabs
                                    from Ultimate-Guitar.com database.

                                    Type "ultimate guitar tabs" in Apple
                                    App Store's or Android Market's
                                    search to find the application.
#----------------------------------PLEASE NOTE---------------------------------#
#This file is the author's own work and represents their interpretation of the #
#song. You may only use this file for private study, scholarship, or research. #
#------------------------------------------------------------------------------##

                                       CRY
                             As recorded by Norther
                     (From the 2003 Album MIRROR OF MADNESS)

Words and Music by Norther
Arranged by Norther

Gtr I (E A D G B E) - 'Kride'
Gtr II (E A D G B E) - 'Pete'
Gtr III (E A D G B E) - 'Tuomas'
Gtr IV (E A D G B E) - 'Lead 1'
Gtr V (E A D G B E) - 'Lead 2'

 Intro
  Q=94
  E5                         G5    E5                F5     G5
 4/4
  Gtr I
       PM  PM  PM  PM----------|       PM  PM  PM  PM   PM|
  S S  S S S S S E S S S S S S S   S S S S S S S E S  E S S  E
|--------------------------------|-----------------------------|
|--------------------------------|-----------------------------|
|--------------------------------|-----------------------------|
|--------------------------------|-------------------10-----12-|
|-5-7----8---5---7-5-8-7-5-------|-5-7---8---5---7----8-----10-|
|------0---0---0-----------6-5-6-|-----0---0---0---0----0-0----|
|
| Gtr II
|                                                       PM|
| S H.                     S E     S H             S  E S S  E
|--------------------------------|-----------------------------|
|--------------------------------|-----------------------------|
|--------------------------------|-----------------------------|
|--------------------------------|-----------------------------|
|-2--------------------------5---|-2------------------3------5-|
|-0--------------------------3---|-0------------------1-0-0--3-|


  E5                         C5    E5
                                                            2/4
       PM  PM  PM  PM----------|         PM  PM  PM
  S S  S S S S S E S S S S S S S   S S   S S S S S S H       W
|--------------------------------|-------------------------|------|
|--------------------------------|-------------------------|------|
|--------------------------------|-------------------------|------|
|--------------------------------|-------------------------|------|
|-5-7----8---5---7-5-8-7-5---5---|-5-7-----8---5---7-------|------|
|------0---0---0-----------8---7-|-------0---0---0---------|------|
|
| S H.                     S E     S H..                 S   W
|--------------------------------|-------------------------|------|
|--------------------------------|-------------------------|------|
|--------------------------------|-------------------------|------|
|----------------------------5---|-------------------------|------|
|-2--------------------------3---|-2-----------------------|------|
|-0------------------------------|-0-----------------------|------|


   Pre-Verse
    A5E5                          A5Bb5 A5E5                          E5F5
   4/4
          PM  PM  PM  PM--------|             PM  PM  PM  PM--------|
    S  S  S S S S S S S S S S S S S S   S  S  S S S S S S S S S S S S S  S
||------------------------------------|------------------------------------|
||o-----------------------------------|------------------------------------|
||------------------------------------|------------------------------------|
||------------------------------------|-------------------------------9s10-|
||o-5--7----8---5---7-------------7s8-|-5--7----8---5---7-------------7s=8-|
||--------0---0---0---0-0-0-0-0-0-5s6-|-------0---0---0---0-0-0-0-0-0------|
|
|         PM--------------------|             PM--------------------|
|   S  S  S S S S S S S S S S S S S S   S  S  S S S S S S S S S S S S S  S
||------------------------------------|------------------------------------|
||o-----------------------------------|------------------------------------|
||------------------------------------|------------------------------------|
||------------------------------------|------------------------------------|
||o-0h=2--------------------------7s8-|-0h=2--------------------------2h=3-|
||--0-(0)-0-0-0-0-0-0-0-0-0-0-0-0-5s6-|-0-(0)-0-0-0-0-0-0-0-0-0-0-0-0-0h=1-|


  A5E5                          BbA5
        PM  PM  PM  PM--------|
  S  S  S S S S S S S S S S S S S S
|-----------------------------------|
|-----------------------------------|
|-----------------------------------|
|-----------------------------------|
|-5--7----8---5---7-------------8s7-|
|-------0---0---0---0-0-0-0-0-0-6s5-|
|
|       PM--------------------|
| S  S  S S S S S S S S S S S S S S
|-----------------------------------|
|-----------------------------------|
|-----------------------------------|
|-----------------------------------|
|-0h=2--------------------------8s7-|
|-0-(0)-0-0-0-0-0-0-0-0-0-0-0-0-6s5-|


                                        Verse
  A5E5                      D5E5F5       E5
        PM  PM  PM  PM----|
  S  S  S S S S S S S S S S S S  E       W
|-------------------------------------||------|
|------------------------------------o||------|
|-------------------------------------||------|
|---------------------------7-9-10----||-9----|
|-5--7----8---5---7---------5-7--8---o||-7----|
|-------0---0---0---0-0-0-0-----------||------|
|
|       PM-------------------------|
| S  S  S S S S S S S S S S S S  S S     W
|-------------------------------------||------|
|------------------------------------o||------|
|-------------------------------------||------|
|-------------------------------------||-2----|
|-0h=2-------------------------------o||-2----|
|-0-(0)-0-0-0-0-0-0-0-0-0-0-0-0--0-0--||-0----|


    C5    D5      E5            C5    D5D     E
    |-3-| |-3-|                 |-3-| |---3---|
    Q Q Q Q Q Q   Q.   E H      Q Q Q Q Q  a  Q
||----0-----0---|-------------|---0-------------|
||o-----0-----0-|-------------|-----0-----------|
||--------------|-------------|-----------------|
||--2-----4-----|-9-----------|-2-----4-4-(4)s5-|
||o-3-----5-----|-7-----------|-3-----5-5-(5)---|
||--------------|-------------|-----------------|
|
|   |-3-| |-3-|                 |-3-| |---3---|
|   Q Q Q Q Q Q   W             Q Q Q Q Q  a  Q
||--------------|-------------|-----------------|
||o---0-----0---|-------------|---0-------------|
||------0-----0-|-------------|-----0---7-(7)s9-|
||--5-----7-----|-2-----------|-5-----7---------|
||o-3-----5-----|-2-----------|-3-----5-5-(5)s7-|
||--------------|-0-----------|-----------------|


 1.                   2.
  E5                  E5
  PM----|             PM----|      PM|   PM|
  s s S s H.          s s S s Q.   S S E S S
|------------------||--------------------------|
|-----------------o||--------------------------|
|------------------||--------------------------|
|---------2--------||---------2--------2-------|
|-2-2---2-2-------o||-2-2---2-2----2-2-2-2-2---|
|-0-0---0-0--------||-0-0---0-0----0-0-0-0-0---|
|
| PM----|             PM----|      PM|   PM|
| s s S s H.          s s S s Q.   S S E S S
|------------------||--------------------------|
|-----------------o||--------------------------|
|------------------||--------------------------|
|---------2--------||---------2--------2-------|
|-2-2---2-2-------o||-2-2---2-2----2-2-2-2-2---|
|-0-0---0-0--------||-0-0---0-0----0-0-0-0-0---|


                              1.
    C5            E5           C5            E
                     <
                     ~~
    |-3-| |-3-|                |-3-| |---3---|
    Q Q Q Q Q Q   Q  H.        Q Q Q Q Q  a  Q
||----0-----0---|------------|---0-------------|
||o-----0-----0-|------------|-----0-----------|
||--------------|------------|-----------------|
||--2-----4-----|-9----------|-2-----4-4-(4)s5-|
||o-3-----5-----|-7--2-------|-3-----5-5-(5)s7-|
||--------------|------------|-----------------|
|
|   |-3-| |-3-|                |-3-| |---3---|
|   Q Q Q Q Q Q   W            Q Q Q Q Q  a  Q
||--------------|------------|-----------------|
||o---0-----0---|------------|---0-------------|
||------0-----0-|------------|-----0---7-(7)s9-|
||--5-----7-----|-2----------|-5-----7---------|
||o-3-----5-----|-2----------|-3-----5-5-(5)s7-|
||--------------|-0----------|-----------------|


                               2.
  E5                           C5      E   D
  PM----|      PM--|   PM|
                               |-3-|
  s s S s Q.   S S s S S S     Q Q Q E  E  Q
|---------------------------||---0--------------|
|--------------------------o||-----0------------|
|---------------------------||------------------|
|---------2-----------------||-2-----4s=5--4\---|
|-2-2---2-2----2-2-2---2-2-o||-3-----5-(5)------|
|-0-0---0-0----0-0-0---0-0--||------------------|
|
| PM----|      PM--|   PM|
|                              |-3-|
| s s S s Q.   S S s S S S     Q Q Q E  E  Q
|---------------------------||------------------|
|--------------------------o||---0--------------|
|---------------------------||-----5-7s=9--7\---|
|---------2-----------------||-5----------------|
|-2-2---2-2----2-2-2---2-2-o||-3-----5s=7--5\---|
|-0-0---0-0----0-0-0---0-0--||------------------|


   Chorus
    E5    F#E5        E5
      PM|         PM|   PM|
    E S S E E +E  S S E S S
||--------------------------|
||o-------------------------|
||--------------------------|
||--2-----4-2---------2-----|
||o-2-----4-2-(2)-----2-----|
||--0-0-0-2-0-(0)-0-0-0-0-0-|
|
|     PM|         PM|   PM|
|   E S S E E +E  S S E S S
||--------------------------|
||o-------------------------|
||--------------------------|
||--2-----4-2---------2-----|
||o-2-----4-2-(2)-----2-----|
||--0-0-0-2-0-(0)-0-0-0-0-0-|


                             E5    F#E5        E5
    PM|   PM|    PM|   PM|     PM|         PM|   PM|
  E S S E S S  E S S E S S   E S S E E +E  S S E S S
|--------------------------|-------------------------|
|--------------------------|-------------------------|
|--------------------------|-------------------------|
|-5-----4------7-----5-----|-2-----4-2---------2-----|
|--------------------------|-2-----4-2-(2)-----2-----|
|---0-0---0-0----0-0---0-0-|-0-0-0-2-0-(0)-0-0-0-0-0-|
|
|   PM|   PM|    PM|   PM|     PM|         PM|   PM|
| E S S E S S  E S S E S S   E S S E E +E  S S E S S
|--------------------------|-------------------------|
|--------------------------|-------------------------|
|--------------------------|-------------------------|
|-9-----7-----10-----9-----|-2-----4-2---------2-----|
|--------------------------|-2-----4-2-(2)-----2-----|
|---0-0---0-0----0-0---0-0-|-0-0-0-2-0-(0)-0-0-0-0-0-|


  1.                            2.
                                D5
    PM|   PM|   PM|     PM|               ~~~~
  E S S E S S E S S E   S S     H.        Q
|----------------------------||---------------|
|---------------------------o||---------------|
|----------------------------||----------[9]--|
|-4-----2-----5-----4--------||-7-------------|
|---------------------------o||-5-------------|
|---0-0---0-0---0-0-----0-0--||---------------|
|
|   PM|   PM|   PM--------|
| E S S E S S E S S S S S S     H.        Q
|----------------------------||---------------|
|---------------------------o||---------------|
|----------------------------||---------------|
|-7-----5-----2--------------||-7-------------|
|---------------------------o||-5-------/12\--|
|---0-0---0-0---0-0-0-0-0-0--||---------/12\--|


   Pre-Verse
    A5E5                          A5Bb5 A5E5                          E5 F5
          PM  PM  PM  PM--------|             PM  PM  PM  PM--------|
    S  S  S S S S S S S S S S S S S S   S  S  S S S S S S S S S S S S  S  S
||------------------------------------|---------------------------------------|
||o-----------------------------------|---------------------------------------|
||------------------------------------|---------------------------------------|
||------------------------------------|---------------------------------------|
||o-5--7----8---5---7-------------7s8-|-5--7----8---5---7-------------[7][8]--|
||--------0---0---0---0-0-0-0-0-0-5s6-|-------0---0---0---0-0-0-0-0-0---------|
|
|         PM--------------------|             PM--------------------|
|   S  S  S S S S S S S S S S S S S S   S  S  S S S S S S S S S S S S  S  S
||------------------------------------|---------------------------------------|
||o-----------------------------------|---------------------------------------|
||------------------------------------|---------------------------------------|
||------------------------------------|---------------------------------------|
||o-0h=2--------------------------7s8-|-0h=2---------------------------2h=3---|
||--0-(0)-0-0-0-0-0-0-0-0-0-0-0-0-5s6-|-0-(0)-0-0-0-0-0-0-0-0-0-0-0-0--0h=1---|


                                     1.
  A5E5                          BbA5  A5E5                      D5E5F5
        PM  PM  PM  PM--------|             PM  PM  PM  PM----|
  S  S  S S S S S S S S S S S S S S   S  S  S S S S S S S S S S S S  E
|-----------------------------------|-------------------------------------||
|-----------------------------------|------------------------------------o||
|-----------------------------------|-------------------------------------||
|-----------------------------------|---------------------------7-9-10----||
|-5--7----8---5---7-------------8s7-|-5--7----8---5---7---------5-7--8---o||
|-------0---0---0---0-0-0-0-0-0-6s5-|-------0---0---0---0-0-0-0-----------||
|
|       PM--------------------|             PM-------------------------|
| S  S  S S S S S S S S S S S S S S   S  S  S S S S S S S S S S S S  S S
|-----------------------------------|-------------------------------------||
|-----------------------------------|------------------------------------o||
|-----------------------------------|-------------------------------------||
|-----------------------------------|-------------------------------------||
|-0h=2--------------------------8s7-|-0h=2-------------------------------o||
|-0-(0)-0-0-0-0-0-0-0-0-0-0-0-0-6s5-|-0-(0)-0-0-0-0-0-0-0-0-0-0-0-0--0-0--||


  2.
   A5E5
         PM  PM  PM  PM
   S  S  S S S S S S S S S S S S S S
|---------------------------------------|
|---------------------------------------|
|---------------------------------------|
|---------------------------------------|
|--5--7----8---5---7---5-8-7-5-7-8-7----|
|--------0---0---0---0------------------|
|
|        PM------------------------|
|  S  S  S S S S S S S S S S S S S S
|---------------------------------------|
|---------------------------------------|
|---------------------------------------|
|---------------------------------------|
|--0h=2---------------------------------|
|--0-(0)-0-0-0-0-0-0-0-0-0-0-0-0-0-0----|


 Verse
                                                           1.
  E5           C5    D5      E5           C5    D5      E   E5
                                ~~                          PM----|
               |-3-| |-3-|                |-3-| |---3---|
  W            Q Q Q Q Q Q   Q  H.        Q Q Q Q Q  a  Q   s s S s H.
|----------||----0-----0---|------------|---0-------------|----------------||
|----------||o-----0-----0-|------------|-----0-----------|---------------o||
|----------||--------------|------------|-----------------|----------------||
|-9--------||--2-----4-----|-9----------|-2-----4-4-(4)s5-|---------2------||
|-7--------||o-3-----5-----|-7--2-------|-3-----5-5-(5)---|-2-2---2-2-----o||
|----------||--------------|------------|-----------------|-0-0---0-0------||
|
|                                                           PM----|
|              |-3-| |-3-|                |-3-| |---3---|
| W            Q Q Q Q Q Q   W            Q Q Q Q Q  a  Q   s s S s H.
|----------||--------------|------------|-----------------|----------------||
|----------||o---0-----0---|------------|---0-------------|---------------o||
|----------||------0-----0-|------------|-----0---7-(7)s9-|----------------||
|-2--------||--5-----7-----|-2----------|-5-----7---------|---------2------||
|-2--------||o-3-----5-----|-2----------|-3-----5-5-(5)s7-|-2-2---2-2-----o||
|-0--------||--------------|-0----------|-----------------|-0-0---0-0------||


 Keyboard Solo
  2.
  E5                       C5
  Gtr III
                                            ~~
   H..          +S   +S      Q   +S   S  S  S  Q   +S   S  S  S
|------------------------|-------------------------------------------|
|------------------------|-/17--(17)-15-13-12-13--(13)-12-13-13pb15==|
|-14b16========(14)r(14)-|-------------------------------------------|
|------------------------|-------------------------------------------|
|------------------------|-------------------------------------------|
|------------------------|-------------------------------------------|
|
| Gtrs I, II
|  W                         W
|------------------------|-------------------------------------------|
|------------------------|-------------------------------------------|
|------------------------|-------------------------------------------|
|--2---------------------|---5---------------------------------------|
|--2---------------------|---3---------------------------------------|
|--0---------------------|-------------------------------------------|


  A5
        ~~~~
   Q   +Q    Q   E  +E
|------------------------|
|-13r=(13)--12-----------|
|---------------14-(14)\-|
|------------------------|
|------------------------|
|------------------------|
|
|  W
|------------------------|
|------------------------|
|------------------------|
|--2---------------------|
|--0---------------------|
|------------------------|


  G5                                              B5
                                                   ~~
   T  T  T  T  T  T  T  T  T  T  T  T  T  T  T  T  Q   E  +E
|-19-17-15----22-19-17-15-19-17-15-----------------------------|
|----------15----------------------15--------------------------|
|-------------------------------------16-19-16-14-16--11-(11)\-|
|--------------------------------------------------------------|
|--------------------------------------------------------------|
|--------------------------------------------------------------|
|
|  H                                               H
|--------------------------------------------------------------|
|--------------------------------------------------------------|
|--------------------------------------------------------------|
|--------------------------------------------------4-----------|
|--5-----------------------------------------------2-----------|
|--3-----------------------------------------------------------|


  E5
   S  S  S  S  S  S  S  S  S  S  S  S  S  S  S  S
|----------------12-15-14-15-12-15-10-15----15-10-|
|-------12----12-------------------------13-------|
|----12----12-------------------------------------|
|-14----------------------------------------------|
|-------------------------------------------------|
|-------------------------------------------------|
|
|  W
|-------------------------------------------------|
|-------------------------------------------------|
|-------------------------------------------------|
|--2----------------------------------------------|
|--2----------------------------------------------|
|--0----------------------------------------------|


  C5
   S  S  S  S  S  S  S  S  S  S  S  S  S  S  S  S
|-12----12----12----12----12----------12----------|
|----15----13----12----10-------13-15----15-13-12-|
|----------------------------12-------------------|
|-------------------------------------------------|
|-------------------------------------------------|
|-------------------------------------------------|
|
|  W
|-------------------------------------------------|
|-------------------------------------------------|
|-------------------------------------------------|
|--5----------------------------------------------|
|--3----------------------------------------------|
|-------------------------------------------------|


  A5
   S  S  S  S  S  S  S  S  S  S  S  S  S  S  S  S
|-------12----------------------------------------|
|-13-15----15-13-12-13-15-13-12-13----13----13----|
|----------------------------------14----12----11-|
|-------------------------------------------------|
|-------------------------------------------------|
|-------------------------------------------------|
|
|  W
|-------------------------------------------------|
|-------------------------------------------------|
|-------------------------------------------------|
|--2----------------------------------------------|
|--0----------------------------------------------|
|-------------------------------------------------|


  G5           B5
                              ~~
       |--3--|  |--3---|          |--3---|
   Q   E  E  E  E  E  +E      E  +S   S  S
|-----------10----14-(14)b15-14-(14)-14-12-|
|-----10-12----12--------------------------|
|-12---------------------------------------|
|------------------------------------------|
|------------------------------------------|
|------------------------------------------|
|
|  H            H
|------------------------------------------|
|------------------------------------------|
|------------------------------------------|
|---------------4--------------------------|
|--5------------2--------------------------|
|--3---------------------------------------|


  E5
   |--3--|  |---3---|  |---3---|  |---3---|  |--3--|  |---3---|  |---3---|  |---3---|
   S  S  S  S  S    S  S  S    S  S  S    S  S  S  S  S  S    S  S  S    S  S  S    S
|----14-15-12-14---15-19-14---15-12-14---15----14-15-12-14---15-19-14---15-12-14---15-|
|-12----------------------------------------12----------------------------------------|
|-------------------------------------------------------------------------------------|
|-------------------------------------------------------------------------------------|
|-------------------------------------------------------------------------------------|
|-------------------------------------------------------------------------------------|
|
|           PM--------|           PM---|              PM--------|           PM---|
|  E        S    S     S    S     S    S     E        S    S     S    S     S    S
|-------------------------------------------------------------------------------------|
|-------------------------------------------------------------------------------------|
|-------------------------------------------------------------------------------------|
|--2------------------------2----------------2------------------------2---------------|
|--2------------------------2----------------2------------------------2---------------|
|--0--------0----0-----0----0-----0----0-----0--------0----0-----0----0-----0----0----|


  C5
   |--3--|  |---3---|  |---3---|  |---3---|  |--3--|  |---3---|  |---3---|  |---3---|
   S  S  S  S  S    S  S  S    S  S  S    S  S  S  S  S  S    S  S  S    S  S  S    S
|----14-15-12-14---15-20-14---15-12-14---15----14-15-12-14---15-20-14---15-12-14---15----|
|-13----------------------------------------13-------------------------------------------|
|----------------------------------------------------------------------------------------|
|----------------------------------------------------------------------------------------|
|----------------------------------------------------------------------------------------|
|----------------------------------------------------------------------------------------|
|
|           PM--------|           PM---|              PM--------|           PM---|
|  E        S    S     S    S     S    S     E        S    S     S    S     S    S
|----------------------------------------------------------------------------------------|
|----------------------------------------------------------------------------------------|
|--5------------------------5----------------5------------------------5------------------|
|--5------------------------5----------------5------------------------5------------------|
|--3--------3----3-----3----3-----3----3-----3--------3----3-----3----3-----3----3-------|
|----------------------------------------------------------------------------------------|


  A5
   |--3--|  |---3---|  |---3---|  |---3---|  |--3--|  |---3---|  |---3---|  |---3---|
   S  S  S  S  S    S  S  S    S  S  S    S  S  S  S  S  S    S  S  S    S  S  S    S
|-17-14-15----14---15-20-14---15-12-14---15----14-15-12-14---15-17-14---15-12-14---15-|
|----------13-------------------------------13----------------------------------------|
|-------------------------------------------------------------------------------------|
|-------------------------------------------------------------------------------------|
|-------------------------------------------------------------------------------------|
|-------------------------------------------------------------------------------------|
|
|           PM--------|           PM---|              PM--------|           PM---|
|  E        S    S     S    S     S    S     E        S    S     S    S     S    S
|-------------------------------------------------------------------------------------|
|-------------------------------------------------------------------------------------|
|--2------------------------2----------------2------------------------2---------------|
|--2------------------------2----------------2------------------------2---------------|
|--0--------0----0-----0----0-----0----0-----0--------0----0-----0----0-----0----0----|
|-------------------------------------------------------------------------------------|


  G5                                        B5
   |--3--|  |---3---|  |---3---|  |---3---|  |--3--|  |---3---|  |---3---|  |---3---|
   S  S  S  S  S    S  S  S    S  S  S    S  S  S  S  S  S    S  S  S    S  S  S    S
|-19-14-15-20-14---15-22-14---15-19-14---15-19-14-15-17-14---15-15-14---15-17-14---15----|
|----------------------------------------------------------------------------------------|
|----------------------------------------------------------------------------------------|
|----------------------------------------------------------------------------------------|
|----------------------------------------------------------------------------------------|
|----------------------------------------------------------------------------------------|
|
|           PM--------|           PM---|              PM--------|           PM---|
|  E        S    S     S    S     S    S     E        S    S     S    S     S    S
|----------------------------------------------------------------------------------------|
|----------------------------------------------------------------------------------------|
|--------------------------------------------4------------------------4------------------|
|--5------------------------5----------------4------------------------4------------------|
|--5------------------------5----------------2--------2----2-----2----2-----2----2-------|
|--3--------3----3-----3----3-----3----3-------------------------------------------------|


  E5
                                         |------5------|  |------6-------|  |------5------|
   E  +T   T  T  T  Q        T  T  T  T  T  T  T    T  T  T  T  T  T  T  T  T  T  T    T  T
|-19-(19)-17-15-14-12-------14-15-17-14-15-17-19---17-15-14-12-14-15-17-15-14-12------12-14-|
|--------------------------------------------------------------------------------15---------|
|-------------------------------------------------------------------------------------------|
|-------------------------------------------------------------------------------------------|
|-------------------------------------------------------------------------------------------|
|-------------------------------------------------------------------------------------------|
|
|      PM----------|    PM|              PM--------------|                  PM------|
|  E   S      S     S S S S  E           S       S        S        S        S       S
|-------------------------------------------------------------------------------------------|
|-------------------------------------------------------------------------------------------|
|-------------------------------------------------------------------------------------------|
|--2------------------2------2-------------------------------------2------------------------|
|--2------------------2------2-------------------------------------2------------------------|
|--0---0------0-----0-0-0-0--0-----------0-------0--------0--------0--------0-------0-------|


  C5
                                                   \0.5/
                                            |-------3-------|
   Q      +T   T  T  T  T  T  T  T  Q      +E      E        E
|----------------------12-------------------------15-------19-----|
|-13-----(13)-12-13-15----15-13-12-13-----(13)\-------------------|
|-----------------------------------------------------------------|
|-----------------------------------------------------------------|
|-----------------------------------------------------------------|
|-----------------------------------------------------------------|
|
|    PM--|              PM---|        PM--|              PM---|
|  E S S   S      S     S     S     E S S   S   S        S    S
|-----------------------------------------------------------------|
|-----------------------------------------------------------------|
|--5--------------5-----------------5-----------5-----------------|
|--5--------------5-----------------5-----------5-----------------|
|--3-3-3---3------3-----3-----3-----3-3-3---3---3--------3----3---|
|-----------------------------------------------------------------|


  A5
           ~~~~
   E      +E.      S  +S   S  Q          +S   +S       +S   +S
|-15b17==(15)-----15r(15)-12-15b17======(15)r(15)b17==(15)-(15)r\-|
|-----------------------------------------------------------------|
|-----------------------------------------------------------------|
|-----------------------------------------------------------------|
|-----------------------------------------------------------------|
|-----------------------------------------------------------------|
|
|          PM---|      PM-|         PM--|               PM-|
|  E       S  S S  S   S   S  E     S S   S    S        S    S
|-----------------------------------------------------------------|
|-----------------------------------------------------------------|
|--2---------------2----------2----------------2------------------|
|--2---------------2----------2----------------2------------------|
|--0-------0--0-0--0---0---0--0-----0-0---0----0--------0----0----|
|-----------------------------------------------------------------|


  G5                B5
   H.                      +Q
|------------------------------------|
|------------------------------------|
|-14b16-------------------(14)-------|
|------------------------------------|
|------------------------------------|
|------------------------------------|
|
|       PM--|   PM|   PM--|      PM|
|  E    S S S S S S E S S   S  S S S
|------------------------------------|
|------------------------------------|
|-------------------4----------4-----|
|--5----------5-----4----------4-----|
|--5----------5-----2-2-2---2--2-2-2-|
|--3----3-3-3-3-3-3------------------|


   Chorus
    E5    F#E5
    Gtr I
      PM|         PM|   PM|
    E S S E E +E  S S E S S
||--------------------------|
||o-------------------------|
||--------------------------|
||--2-----4-2---------2-----|
||o-2-----4-2-(2)-----2-----|
||--0-0-0-2-0-(0)-0-0-0-0-0-|
|
|   Gtr II
|     PM|         PM|   PM|
|   E S S E E +E  S S E S S
||--------------------------|
||o-------------------------|
||--------------------------|
||--2-----4-2---------2-----|
||o-2-----4-2-(2)-----2-----|
||--0-0-0-2-0-(0)-0-0-0-0-0-|


                             E5    F#E5
    PM|   PM|    PM|   PM|     PM|         PM|   PM|
  E S S E S S  E S S E S S   E S S E E +E  S S E S S
|--------------------------|-------------------------|
|--------------------------|-------------------------|
|--------------------------|-------------------------|
|-5-----4------7-----5-----|-2-----4-2---------2-----|
|--------------------------|-2-----4-2-(2)-----2-----|
|---0-0---0-0----0-0---0-0-|-0-0-0-2-0-(0)-0-0-0-0-0-|
|
|   PM|   PM|    PM|   PM|     PM|         PM|   PM|
| E S S E S S  E S S E S S   E S S E E +E  S S E S S
|--------------------------|-------------------------|
|--------------------------|-------------------------|
|--------------------------|-------------------------|
|-9-----7-----10-----9-----|-2-----4-2---------2-----|
|--------------------------|-2-----4-2-(2)-----2-----|
|---0-0---0-0----0-0---0-0-|-0-0-0-2-0-(0)-0-0-0-0-0-|


  1.                            2.
                                D5
    PM|   PM|   PM|     PM|
  E S S E S S E S S E   S S     H.        Q
|----------------------------||---------------|
|---------------------------o||---------------|
|----------------------------||---------------|
|-4-----2-----5-----4--------||-7-------------|
|---------------------------o||-5-------/12\--|
|---0-0---0-0---0-0-----0-0--||---------/12\--|
|
|   PM|   PM|   PM--------|
| E S S E S S E S S S S S S     H.        Q
|----------------------------||---------------|
|---------------------------o||---------------|
|----------------------------||---------------|
|-7-----5-----2--------------||-7-------------|
|---------------------------o||-5-------/12\--|
|---0-0---0-0---0-0-0-0-0-0--||---------/12\--|


   Pre-Verse Riff
    A5E5                          A5Bb5 A5E5                          E5F5
          PM  PM  PM  PM--------|             PM  PM  PM  PM--------|
    S  S  S S S S S S S S S S S S S S   S  S  S S S S S S S S S S S S S S
||------------------------------------|------------------------------------|
||o-----------------------------------|------------------------------------|
||------------------------------------|------------------------------------|
||------------------------------------|------------------------------------|
||o-5--7----8---5---7-------------7s8-|-5--7----8---5---7-------------7h8--|
||--------0---0---0---0-0-0-0-0-0-5s6-|-------0---0---0---0-0-0-0-0-0------|
|
|         PM--------------------|             PM--------------------|
|   S  S  S S S S S S S S S S S S S S   S  S  S S S S S S S S S S S S S S
||------------------------------------|------------------------------------|
||o-----------------------------------|------------------------------------|
||------------------------------------|------------------------------------|
||------------------------------------|------------------------------------|
||o-0h=2--------------------------7s8-|-0h=2--------------------------2h3--|
||--0-(0)-0-0-0-0-0-0-0-0-0-0-0-0-5s6-|-0-(0)-0-0-0-0-0-0-0-0-0-0-0-0-0h1--|


  A5E5                          BbA5  A5E5                      D5E5F5
        PM  PM  PM  PM--------|             PM  PM  PM  PM----|
  S  S  S S S S S S S S S S S S S S   S  S  S S S S S S S S S S S S  E
|-----------------------------------|-------------------------------------||
|-----------------------------------|------------------------------------o||
|-----------------------------------|-------------------------------------||
|-----------------------------------|---------------------------7-9-10----||
|-5--7----8---5---7-------------8s7-|-5--7----8---5---7---------5-7--8---o||
|-------0---0---0---0-0-0-0-0-0-6s5-|-------0---0---0---0-0-0-0-----------||
|
|       PM--------------------|             PM-------------------------|
| S  S  S S S S S S S S S S S S S S   S  S  S S S S S S S S S S S S  S S
|-----------------------------------|-------------------------------------||
|-----------------------------------|------------------------------------o||
|-----------------------------------|-------------------------------------||
|-----------------------------------|-------------------------------------||
|-0h=2--------------------------8s7-|-0h=2-------------------------------o||
|-0-(0)-0-0-0-0-0-0-0-0-0-0-0-0-6s5-|-0-(0)-0-0-0-0-0-0-0-0-0-0-0-0--0-0--||


   Interlude
    Gtr IV
    S S S S S S S S S S S S S S S S   S S S S S S  S S  S S S S S S S S
||----------------------------------|------------------------------------|
||o-8p7p5p0h5p0h7p0h5p0h8p0h7p0h5p0-|-8p7p5p0h5p0h12p0h10p0h8p0h7p0h5p0--|
||----------------------------------|------------------------------------|
||----------------------------------|------------------------------------|
||o---------------------------------|------------------------------------|
||----------------------------------|------------------------------------|
|
|   Gtr V
|   W                                 W
||----------------------------------|------------------------------------|
||o---------------------------------|------------------------------------|
||----------------------------------|------------------------------------|
||----------------------------------|------------------------------------|
||o---------------------------------|------------------------------------|
||----------------------------------|------------------------------------|


  S S S S S S S S S S S S S S S S   S S S S S S  S S S S S S S S S S
|---------------------------------|-----------------------------------||
|-7-5-3-0-3-0-5-0-3-0-7-0-5-0-3-0-|-7-5-3-0-3-0-10-0-8-0-7-0-5-0-7-0-o||
|---------------------------------|-----------------------------------||
|---------------------------------|-----------------------------------||
|---------------------------------|----------------------------------o||
|---------------------------------|-----------------------------------||
|
| W                                 W
|---------------------------------|-----------------------------------||
|---------------------------------|----------------------------------o||
|---------------------------------|-----------------------------------||
|---------------------------------|-----------------------------------||
|---------------------------------|----------------------------------o||
|---------------------------------|-----------------------------------||


     S  S S S S S  S S S S  S S  S S S S
||---------------------------------------|
||o-12p10p8p0h8p0h10p0h8p0h12p0h10p0h8p0-|
||---------------------------------------|
||---------------------------------------|
||o--------------------------------------|
||---------------------------------------|
|
|    S  S S S S S  S S S S  S S  S S S S
||---------------------------------------|
||o--8p=7p5p0h5p0h=7p0h5p0h=8p0h=7p0h5p0-|
||---------------------------------------|
||---------------------------------------|
||o--------------------------------------|
||---------------------------------------|


   S  S S S S S  S S  S S  S S  S S S S
|----------------------------------------|
|-12p10p8p0h8p0h15p0h13p0h12p0h10p0h8p0--|
|----------------------------------------|
|----------------------------------------|
|----------------------------------------|
|----------------------------------------|
|
|  S  S S S S S  S S  S S  S S  S S S S
|----------------------------------------|
|--8p=7p5p0h5p0h12p0h10p0h=8p0h=7p0h5p0--|
|----------------------------------------|
|----------------------------------------|
|----------------------------------------|
|----------------------------------------|


   S S S S S S S S S S  S S S S S S    S S S S S S  S S  S S  S S S S S S
|-----------------------------------|--------------------------------------||
|-10-8-7-0-7-0-8-0-7-0-10-0-8-0-7-0-|-10-8-7-0-7-0-13-0-12-0-10-0-8-0-7-0-o||
|-----------------------------------|--------------------------------------||
|-----------------------------------|--------------------------------------||
|-----------------------------------|-------------------------------------o||
|-----------------------------------|--------------------------------------||
|
|  S S S S S S S S S S  S S S S S S    S S S S S S  S S  S S  S S S S S S
|-----------------------------------|--------------------------------------||
|--7-5-3-0-3-0-5-0-3-0--7-0-5-0-3-0-|--7-5-3-0-3-0-10-0--8-0--7-0-5-0-7-0-o||
|-----------------------------------|--------------------------------------||
|-----------------------------------|--------------------------------------||
|-----------------------------------|-------------------------------------o||
|-----------------------------------|--------------------------------------||


   Chorus
    E5     F#E5
    Gtrs IV, V
     >
     W
||---------------------------|
||o-/8-----------------------|
||--/9-----------------------|
||---------------------------|
||o--------------------------|
||---------------------------|
|
|   Gtr I
|      PM|         PM|   PM|
|    E S S E E +E  S S E S S
||---------------------------|
||o--------------------------|
||---------------------------|
||---2-----4-2---------2-----|
||o--2-----4-2-(2)-----2-----|
||---0-0-0-2-0-(0)-0-0-0-0-0-|
|
|   Gtr II
|      PM|         PM|   PM|
|    E S S E E +E  S S E S S
||---------------------------|
||o--------------------------|
||---------------------------|
||---2-----4-2---------2-----|
||o--2-----4-2-(2)-----2-----|
||---0-0-0-2-0-(0)-0-0-0-0-0-|


                                     E5    F#E5
  W                                  W
|----------------------------------|-------------------------|
|----------------------------------|-------------------------|
|----------------------------------|-------------------------|
|----------------------------------|-------------------------|
|----------------------------------|-------------------------|
|----------------------------------|-------------------------|
|
|   PM--|   PM--|    PM--|   PM--|     PM|         PM|   PM|
|   |-3-|   |-3-|    |-3-|   |-3-|
| E S S S E S S S  E S S S E S S S   E S S E E +E  S S E S S
|----------------------------------|-------------------------|
|----------------------------------|-------------------------|
|----------------------------------|-------------------------|
|-5-------4--------7-------5-------|-2-----4-2---------2-----|
|----------------------------------|-2-----4-2-(2)-----2-----|
|---0-0-0---0-0-0----0-0-0---0-0-0-|-0-0-0-2-0-(0)-0-0-0-0-0-|
|
|   PM--|   PM--|    PM--|   PM--|     PM|         PM|   PM|
|   |-3-|   |-3-|    |-3-|   |-3-|
| E S S S E S S S  E S S S E S S S   E S S E E +E  S S E S S
|----------------------------------|-------------------------|
|----------------------------------|-------------------------|
|----------------------------------|-------------------------|
|-9-------7-------10-------9-------|-2-----4-2---------2-----|
|----------------------------------|-2-----4-2-(2)-----2-----|
|---0-0-0---0-0-0----0-0-0---0-0-0-|-0-0-0-2-0-(0)-0-0-0-0-0-|


  1.                                      2.
                                          D5
                                                    2/4
    PM--|   PM--|   PM--|       PM--|
    |-3-|   |-3-|   |-3-|       |-3-|
  E S S S E S S S E S S S E     S S S     W          Q     +Q
|--------------------------------------||----------|------------|
|-------------------------------------o||----------|------------|
|--------------------------------------||----------|------------|
|-4-------2-------5-------4------------||-7--------|-0b2---(0)--|
|-------------------------------------o||-5--------|------------|
|---0-0-0---0-0-0---0-0-0-------0-0-0--||----------|------------|
|
|   PM--|   PM--|   PM--------------|
|   |-3-|   |-3-|   |-3-| |-3-| |-3-|
| E S S S E S S S E S S S S S S S S S     W          Q      Q
|--------------------------------------||----------|------------|
|-------------------------------------o||----------|------------|
|--------------------------------------||----------|------------|
|-7-------5-------2--------------------||-7--------|------------|
|-------------------------------------o||-5--------|------/12\--|
|---0-0-0---0-0-0---0-0-0-0-0-0-0-0-0--||----------|------/12\--|


 Outro
  A5E5                          A5Bb5 A5E5                          E5F5
 4/4
  Gtr I
        PM  PM  PM  PM--------|             PM  PM  PM  PM--------|
  S  S  S S S S S S S S S S S S S S   S  S  S S S S S S S S S S S S S S
|-----------------------------------|------------------------------------|
|-----------------------------------|------------------------------------|
|-----------------------------------|------------------------------------|
|-----------------------------------|------------------------------------|
|-5--7----8---5---7-------------7s8-|-5--7----8---5---7-------------2h3--|
|-------0---0---0---0-0-0-0-0-0-5s6-|-------0---0---0---0-0-0-0-0-0-0h1--|
|
| Gtr II
|       PM--------------------|             PM--------------------|
| S  S  S S S S S S S S S S S S S S   S  S  S S S S S S S S S S S S S S
|-----------------------------------|------------------------------------|
|-----------------------------------|------------------------------------|
|-----------------------------------|------------------------------------|
|-----------------------------------|------------------------------------|
|-0h=2--------------------------7s8-|-0h=2--------------------------2h3--|
|-0-(0)-0-0-0-0-0-0-0-0-0-0-0-0-5s6-|-0-(0)-0-0-0-0-0-0-0-0-0-0-0-0-0h1--|


  A5E5                          BbA5  A5E5                      D5E5F5
        PM  PM  PM  PM--------|             PM  PM  PM  PM----|
  S  S  S S S S S S S S S S S S S S   S  S  S S S S S S S S S S S S  E
|-----------------------------------|------------------------------------|
|-----------------------------------|------------------------------------|
|-----------------------------------|------------------------------------|
|-----------------------------------|---------------------------7-9-10---|
|-5--7----8---5---7-------------8s7-|-5--7----8---5---7---------5-7--8---|
|-------0---0---0---0-0-0-0-0-0-6s5-|-------0---0---0---0-0-0-0----------|
|
|       PM--------------------|             PM-------------------------|
| S  S  S S S S S S S S S S S S S S   S  S  S S S S S S S S S S S S  S S
|-----------------------------------|------------------------------------|
|-----------------------------------|------------------------------------|
|-----------------------------------|------------------------------------|
|-----------------------------------|------------------------------------|
|-0h=2--------------------------8s7-|-0h=2-------------------------------|
|-0-(0)-0-0-0-0-0-0-0-0-0-0-0-0-6s5-|-0-(0)-0-0-0-0-0-0-0-0-0-0-0-0--0-0-|


  E5                         G5    E5                F5     G5
       PM  PM  PM  PM----------|       PM  PM  PM  PM   PM|
  S S  S S S S S E S S S S S S S   S S S S S S S E S  E S S  E
|--------------------------------|-----------------------------|
|--------------------------------|-----------------------------|
|--------------------------------|-----------------------------|
|--------------------------------|-------------------10-----12-|
|-5-7----8---5---7-5-8-7-5-------|-5-7---8---5---7----8-----10-|
|------0---0---0-----------6-5-6-|-----0---0---0---0----0-0----|
|
|                                                       PM|
| S H.                     S E     S H             S  E S S  E
|--------------------------------|-----------------------------|
|--------------------------------|-----------------------------|
|--------------------------------|-----------------------------|
|--------------------------------|-----------------------------|
|-2--------------------------5---|-2------------------3------5-|
|-0--------------------------3---|-0------------------1-0-0--3-|


  E5                         C5    E5             E5
       PM  PM  PM  PM--------|~~~       PM  PM  PM
  S S  S S S S S E S S S S S  E    S S  S S S S S S H
|--------------------------------|-----------------------*|
|--------------------------------|-----------------------*|
|--------------------------------|-----------------------*|
|--------------------------------|-----------------------*|
|-5-7----8---5---7-5-8-7-5---[7]-|-5-7----8---5---7------*|
|------0---0---0-----------8-----|------0---0---0--------*|
|
| S H.                     S  E    S Q.           S H
|--------------------------------|-----------------------*|
|--------------------------------|-----------------------*|
|--------------------------------|-----------------------*|
|-----------------------------5--|-----------------------*|
|-2---------------------------3--|-2--------------2------*|
|-0------------------------------|-0--------------0------*|


Duration Legend
---------------
W - whole; H - half; Q - quarter; E - 8th; S - 16th; T - 32nd; X - 64th; a - acciaccatura
+ - note tied to previous; . - note dotted; .. - note double dotted
Uncapitalized letters represent notes that are staccato (1/2 duration)
Irregular groupings are notated above the duration line
Duration letters will always appear directly above the note/fret number it represents the
duration for.  Duration letters with no fret number below them represent rests.  Multi-
bar rests are notated in the form Wxn, where n is the number of bars to rest for.  Low
melody durations appear below the staff

Tablature Legend
----------------
 h   - hammer-on
 p   - pull-off
 b   - bend
 pb  - pre-bend
 r   - bend release (if no number after the r, then release immediately)
 /\  - slide into or out of (from/to "nowhere")
 s   - legato slide
 S   - shift slide
<n>  - natural harmonic
[n]  - artificial harmonic
n(n) - tapped harmonic
 ~   - vibrato
 tr  - trill
 T   - tap
 TP  - trem. picking
 PM  - palm muting
\n/  - tremolo bar dip; n = amount to dip
 \n  - tremolo bar down
 n/  - tremolo bar up
/n\  - tremolo bar inverted dip
 =   - hold bend; also acts as connecting device for hammers/pulls
 <>  - volume swell (louder/softer)
 x   - on rhythm slash represents muted slash
 o   - on rhythm slash represents single note slash

Misc Legend
-----------
 |  - bar
||  - double bar
||o - repeat start
o|| - repeat end
*|  - double bar (ending)
 :  - bar (freetime)
 $  - Segno
 &  - Coda
Tempo markers - <E/E./Q/Q./H/H.> = BPM(8/16=s8/s16), where s8 = swing 8ths, s16 = swing 16ths


***************************************************************************************
* Generated using Power Tab Editor by Brad Larsen - http://powertab.guitarnetwork.org *
***************************************************************************************
comments
We did not receive enough feedback on this tab! Please rate:
print report bad tab
1 2 3 4 5
I want to post or [tab]
guest
You may want to rate the tab now too:
select rating
Please do not post tabs as comments. Select "correction" instead!