Oops, an error
Loading. Please wait.

Dead Tab

ver1
ver1

Whole song

Interactive

More versions @911Tabs.com
864 views 6 this week
no commentswrite comment
1 2 3 4 5
please rate
Autoscroll
+/-
esc
set tempo
stop
Contributor
Hey! There's an official Ultimate Guitar app which is ideal
for learning songs when you're away from computer. Get the app
WARNING: You are trying to view
                                    content from Ultimate-Guitar.com
                                    in an unauthorized application,
                                    which is prohibited.

                                    Please use an official Ultimate
                                    Guitar Tabs application for iPhone,
                                    iPad or Android to access legitimate
                                    chords, guitar, bass, and drum tabs
                                    from Ultimate-Guitar.com database.

                                    Type "ultimate guitar tabs" in Apple
                                    App Store's or Android Market's
                                    search to find the application.
#----------------------------------PLEASE NOTE---------------------------------#
#This file is the author's own work and represents their interpretation of the #
#song. You may only use this file for private study, scholarship, or research. #
#------------------------------------------------------------------------------##

                                      DEAD
                             As recorded by Norther
                     (From the 2003 Album MIRROR OF MADNESS)

Words and Music by Norther
Arranged by Norther

Gtr I (E A D G B E) - 'pete'
Gtr II (E A D G B E) - 'kride'
Gtr III (E A D G B E) - 'lead1'
Gtr IV (E A D G B E) - 'noise'
Gtr V (E A D G B E) - 'lead2'

 Intro
  Q=96
             E5
 4/4
  Gtr I
                PM|    PM|   PM|        PM|    PM|   PM|
  W          Q  S S Q  S S E S S    Q   S S Q  S S E S S
|----------|---------------------|-----------------------|
|----------|---------------------|-----------------------|
|----------|---------------------|-----------------------|
|----------|---------------------|-----------------------|
|----------|-2------2------2-----|--3-------3------3-----|
|----------|----0-0----0-0---0-0-|------0-0----0-0---0-0-|
|
| Gtr II
|                                   >
| W          W                     +W
|----------|---------------------|-----------------------|
|----------|---------------------|-----------------------|
|----------|---------------------|-----------------------|
|----------|-2-------------------|-(2)-------------------|
|----------|-2-------------------|-(2)-------------------|
|----------|-0-------------------|-(0)-------------------|


                                                 E5
       PM|    PM|   PM|        PM|    PM--| ~~        PM|    PM|   PM|
   Q   S S Q  S S E S S    Q   S S Q  S S S E.   Q    S S Q  S S E S S
|-----------------------|----------------------|------------------------|
|-----------------------|----------------------|------------------------|
|-----------------------|----------------------|------------------------|
|-----------------------|----------------------|------------------------|
|--5-------5------5-----|--2-------2--------5--|-2--------2------2------|
|------0-0----0-0---0-0-|------0-0----0-0-0----|------0-0----0-0---0-0--|
|
|                              Gtr IV            Gtr II
|                              TP         TP
| +W                      +Q   H          Q      H..               E
|-----------------------|----------------------|------------------------|
|-----------------------|----------------------|------------------------|
|-----------------------|----------------------|------------------------|
|-(2)-------------------|-(2)--xs=========x----|-2----------------------|
|-(2)-------------------|-(2)--xs=========x----|-2-----------------2----|
|-(0)-------------------|-(0)------------------|-0----------------------|


           PM|    PM|   PM|
      Q    S S Q  S S E S S
|---------------------------|
|---------------------------|
|---------------------------|
|---------------------------|
|-----3--------3------3-----|
|----------0-0----0-0---0-0-|
|
|  a  H..               E
|---------------------------|
|---------------------------|
|---------------------------|
|---------------------------|
|-(2)s3-----------------3---|
|---------------------------|


           PM|    PM|   PM|          PM|    PM--| ~~
      Q    S S Q  S S E S S       Q  S S Q  S S S E.
|---------------------------|--------------------------|
|---------------------------|--------------------------|
|---------------------------|--------------------------|
|---------------------------|--------------------------|
|-----5--------5------5-----|-----2------2--------5----|
|----------0-0----0-0---0-0-|--------0-0----0-0-0------|
|
|  a  H..               E      a  W
|---------------------------|--------------------------|
|---------------------------|--------------------------|
|---------------------------|--------------------------|
|---------------------------|--------------------------|
|-(3)s5-----------------5---|-(5)s7--------------------|
|---------------------------|--------------------------|


       PM|    PM|   PM|           PM|    PM|   PM|
  Q    S S Q  S S E S S        Q  S S Q  S S E S S
|-----------------------|--------------------------|
|-----------------------|--------------------------|
|-----------------------|--------------------------|
|-----------------------|--------------------------|
|-2--------2------2-----|------3------3------3-----|
|------0-0----0-0---0-0-|---------0-0----0-0---0-0-|
|
| H..               E      a   W
|-----------------------|--------------------------|
|-----------------------|--------------------------|
|-----------------------|--------------------------|
|-----------------------|--------------------------|
|-7-----------------7---|-(7)s10-------------------|
|-----------------------|--------------------------|


               PM|    PM|   PM|      PM|       PM--| ~~
   Q           S S Q  S S E S S   Q  S S Q     S S S E.
|-------------------------------|-------------------------|
|-------------------------------|-------------------------|
|-------------------------------|-------------------------|
|-------------------------------|-------------------------|
|--5---------------5------5-----|-2------2-----------5----|
|--------------0-0----0-0---0-0-|----0-0-------0-0-0------|
|
|                                              PM--| ~~
|  E   a   H..                    H        +E  S S S E.
|-------------------------------|-------------------------|
|-------------------------------|-------------------------|
|-------------------------------|-------------------------|
|-------------------------------|-------------------------|
|-10-(10)s12--------------------|-5--------(5)-------9----|
|-------------------------------|--------------0-0-0------|


     PM|    PM|   PM|      PM|     PM|    PM|
  Q  S S Q  S S E S S   Q  S S  Q  S S  E S S
|---------------------|-----------------------|
|---------------------|-----------------------|
|---------------------|-----------------------|
|---------------------|-----------------------|
|-2------2------2-----|-3-------3-------3-----|
|----0-0----0-0---0-0-|----0-0-----0-0----0-0-|
|
|    PM|    PM|   PM|      PM|     PM|    PM|
| Q  S S Q  S S E S S   Q  S S  Q  S S  E S S
|---------------------|-----------------------|
|---------------------|-----------------------|
|---------------------|-----------------------|
|---------------------|-----------------------|
|-7------7------7-----|-9------10------10-----|
|----0-0----0-0---0-0-|----0-0-----0-0----0-0-|


     PM|    PM|   PM|      PM|    PM--|  ~~~
  Q  S S Q  S S E S S   Q  S S Q  S S S  E.
|---------------------|----------------------|
|---------------------|----------------------|
|---------------------|----------------------|
|---------------------|----------------------|
|-5------5------5-----|-2------2---------5---|
|----0-0----0-0---0-0-|----0-0----0-0-0------|
|
|    PM|    PM|   PM|      PM|    PM--|  ~~~
| Q  S S Q  S S E S S   Q  S S Q  S S S  E.
|---------------------|----------------------|
|---------------------|----------------------|
|---------------------|----------------------|
|---------------------|----------------------|
|-9------9------9-----|-5------5--------[9]--|
|----0-0----0-0---0-0-|----0-0----0-0-0------|


    E5/B   E5/B   E5/B           C5     C5
       PM|    PM|   PM|      PM|    PM|   PM|
    Q  S S Q  S S E S S   Q  S S Q  S S E S S
||----------------------|---------------------|
||o---------------------|---------------------|
||----------------------|---------------------|
||----------------------|---------------------|
||o-2------2------2-----|-3------3------3-----|
||-----0-0----0-0---0-0-|----0-0----0-0---0-0-|
|
|      PM|    PM|   PM|      PM|    PM|   PM|
|   Q  S S Q  S S E S S   Q  S S Q  S S E S S
||----------------------|---------------------|
||o---------------------|---------------------|
||----------------------|---------------------|
||--2------2------2-----|-4------5------5-----|
||o-2------2------2-----|-3------3------3-----|
||-----0-0----0-0---0-0-|----0-0----0-0---0-0-|


  D      D      D5      Bm     B5       D
     PM|    PM|   PM|      PM|    PM--| ~~
  Q  S S Q  S S E S S   Q  S S Q  S S S E.
|---------------------|---------------------||
|---------------------|--------------------o||
|---------------------|---------------------||
|---------------------|---------------------||
|-5------5------5-----|-2------2--------5--o||
|----0-0----0-0---0-0-|----0-0----0-0-0-----||
|
|    PM|    PM|   PM|      PM|    PM--| ~~
| Q  S S Q  S S E S S   Q  S S Q  S S S E.
|---------------------|---------------------||
|---------------------|--------------------o||
|---------------------|---------------------||
|-4------4------7-----|-0------4--------4---||
|-5------5------5-----|-2------2--------5--o||
|----0-0----0-0---0-0-|----0-0----0-0-0-----||


 Pre-Verse
  E5E5
  PM|     PM|   PM|   PM|   PM|       PM|   PM|   PM|   PM  PM    PM|
  S S S   S S S S S S S S S S S S S   S S S S S S S S S S S S S S S S
|-----------------------------------|---------------------------------|
|-----------------------------------|---------------------------------|
|-----------------------------------|---------------------------------|
|-----------------------------------|---------------------------------|
|-----7-------2-----3-----3-----3s5-|-----7-----2-----3---3---3p2-----|
|-0-0-----0-0---0-0---0-0---0-0-----|-0-0---0-0---0-0---0---0-----5-3-|
|
| S S H..                             W
|-----------------------------------|---------------------------------|
|-----------------------------------|---------------------------------|
|-----------------------------------|---------------------------------|
|-----------------------------------|---------------------------------|
|-2-2-------------------------------|---------------------------------|
|-0-0-------------------------------|---------------------------------|


  E5E5
  PM|     PM|   PM|   PM|   PM|       PM-|   PM|   PM--|   PM   PM
  S S S   S S S S S S S S S S S S S   S  S S S S S S S S S S S  S  S S S
|-----------------------------------|------------------------------------|
|-----------------------------------|------------------------------------|
|-----------------------------------|------------------------------------|
|-----------------------------------|------------------------------------|
|-----7-------2-----3-----3-----3s5-|------7-----2-------3---3-----3p2p0-|
|-0-0-----0-0---0-0---0-0---0-0-----|-0--0---0-0---0-0-0---0----0--------|
|
|                                                               ~~~
| S S H..                             H.                        Q
|-----------------------------------|------------------------------------|
|-----------------------------------|------------------------------------|
|-----------------------------------|------------------------------------|
|-----------------------------------|------------------------------------|
|-2-2-------------------------------|--------------------------[5]-------|
|-0-0-------------------------------|------------------------------------|


      E5    B5    C5    C5    C5D5      E5    B5    C5  C5  C5B5
  Gtrs I, II
  PM|   PM|   PM|   PM|   PM|       PM|   PM|   PM|   PM  PM    PM|
  S S S S S S S S S S S S S S S S   S S S S S S S S S S S S S S S S
|---------------------------------|---------------------------------|
|---------------------------------|---------------------------------|
|---------------------------------|---------------------------------|
|---------------------------------|---------------------------------|
|-----7-----2-----3-----3-----3s5-|-----7-----2-----3---3---3p2-----|
|-0-0---0-0---0-0---0-0---0-0-----|-0-0---0-0---0-0---0---0-----5-3-|
|
| PM|   PM|   PM|   PM|   PM|       PM|   PM|   PM|   PM  PM    PM|
| S S S S S S S S S S S S S S S S   S S S S S S S S S S S S S S S S
|---------------------------------|---------------------------------|
|---------------------------------|---------------------------------|
|---------------------------------|---------------------------------|
|-----9-----4-----5-----5-----5S7-|-----9-----4-----5---5---5s4-----|
|-----7-----2-----3-----3-----3S5-|-----7-----2-----3---3---3s2-0---|
|-0-0---0-0---0-0---0-0---0-0-----|-0-0---0-0---0-0---0---0-------3-|


      E5    B5    C5    C5    C5D5      E5    B5      C5  C5  C5B5
  PM|   PM|   PM|   PM|   PM|       PM|   PM|   PM--|   PM  PM
  S S S S S S S S S S S S S S S S   S S S S S S S S S S S S S S S S
|---------------------------------|---------------------------------|
|---------------------------------|---------------------------------|
|---------------------------------|---------------------------------|
|---------------------------------|---------------------------------|
|-----7-----2-----3-----3-----3s5-|-----7-----2-------3---3---3p2p0-|
|-0-0---0-0---0-0---0-0---0-0-----|-0-0---0-0---0-0-0---0---0-------|
|
| PM|   PM|   PM|   PM|   PM|       PM|   PM|   PM--|   PM  PM    PM
| S S S S S S S S S S S S S S S S   S S S S S S S S S S S S S S S S
|---------------------------------|---------------------------------|
|---------------------------------|---------------------------------|
|---------------------------------|---------------------------------|
|-----9-----4-----5-----5-----5S7-|-----9-----4-------5---5---5s4---|
|-----7-----2-----3-----3-----3S5-|-----7-----2-------3---3---3s2-0-|
|-0-0---0-0---0-0---0-0---0-0-----|-0-0---0-0---0-0-0---0---0-------|


   Verse
        E5    B5    C5    C5    C5D5      E5    B5    C5  C5  C5B5
    Gtrs I, II
    PM|   PM|   PM|   PM|   PM|       PM|   PM|   PM|   PM  PM    PM|
    S S S S S S S S S S S S S S S S   S S S S S S S S S S S S S S S S
||----------------------------------|----------------------------------|
||o---------------------------------|----------------------------------|
||----------------------------------|----------------------------------|
||----------------------------------|----------------------------------|
||o-----7-----2-----3-----3-----3s5-|-----7-----2-----3---3---3p2------|
||--0-0---0-0---0-0---0-0---0-0-----|-0-0---0-0---0-0---0---0-----5-3--|
|
|   PM|   PM|   PM|   PM|   PM|       PM|   PM|   PM|   PM  PM    PM|
|   S S S S S S S S S S S S S S S S   S S S S S S S S S S S S S S S S
||----------------------------------|----------------------------------|
||o---------------------------------|----------------------------------|
||----------------------------------|----------------------------------|
||------9-----4-----5-----5-----5S7-|-----9-----4-----5---5---5s4------|
||o-----7-----2-----3-----3-----3S5-|-----7-----2-----3---3---3s2-0----|
||--0-0---0-0---0-0---0-0---0-0-----|-0-0---0-0---0-0---0---0-------3--|


      E5    B5    C5    C5    C D       E5    B5      C5  C5  C5B5
  PM|   PM|   PM|   PM|   PM|       PM|   PM|   PM--|   PM  PM----|
  S S S S S S S S S S S S S S S S   S S S S S S S S S S S S S S S S
|---------------------------------|----------------------------------||
|---------------------------------|---------------------------------o||
|---------------------------------|----------------------------------||
|---------------------------------|----------------------------------||
|-----7-----2-----3-----3-----3s5-|-----7-----2-------3---3---3-2-0-o||
|-0-0---0-0---0-0---0-0---0-0-----|-0-0---0-0---0-0-0---0---0--------||
|
| PM|   PM|   PM|   PM|   PM|       PM|   PM|   PM--|   PM  PM    PM
| S S S S S S S S S S S S S S S S   S S S S S S S S S S S S S S S S
|---------------------------------|----------------------------------||
|---------------------------------|---------------------------------o||
|---------------------------------|----------------------------------||
|-----9-----4-----5-----5-----2S4-|-----9-----4-------5---5---5s4----||
|-----7-----2-----3-----3-----3S5-|-----7-----2-------3---3---3s2-0-o||
|-0-0---0-0---0-0---0-0---0-0-----|-0-0---0-0---0-0-0---0---0--------||


 Chorus
  E5               C5                  E5               A5      C5    D5
  Gtr III
  ~~~~~~~~~~~~~~~~~~~~~~~~~~~          ~~~~~~~~~~~~~~~~~~~          ~~
  Q.    Q.    Q    Q.     Q.    E  E   Q.    Q.    Q    Q  E  E  E  Q   E
|----------------|-------------------|----------------|-------------------|
|----------------|-------------------|----------------|-------------------|
|-9----12----11--|-9----/14----12-11-|-9----12----11--|----9-11-12-11---9-|
|----------------|-------------------|----------------|-7-----------------|
|----------------|-------------------|----------------|-------------------|
|----------------|-------------------|----------------|-------------------|
|
| Gtrs I, II
| W                W                   W                H        Q    Q
|----------------|-------------------|----------------|-------------------|
|----------------|-------------------|----------------|-------------------|
|----------------|-------------------|----------------|-------------------|
|-2--------------|-5-----------------|-2--------------|-2--------5----7---|
|-2--------------|-3-----------------|-2--------------|-0--------3----5---|
|-0--------------|-------------------|-0--------------|-------------------|


  E5               C5
  ~~~~~~~~~~~~~~~~~~~~~~~~~~~
  Q.    Q.    Q    Q.     Q.    E  E
|----------------|-------------------|
|----------------|-------------------|
|-9----12----11--|-9----/14----12-11-|
|----------------|-------------------|
|----------------|-------------------|
|----------------|-------------------|
|
| W                W
|----------------|-------------------|
|----------------|-------------------|
|----------------|-------------------|
|-2--------------|-5-----------------|
|-2--------------|-3-----------------|
|-0--------------|-------------------|


  B5                A5        C5           D5
         ~~~~~~~~
  Q   E  Q.    Q     Q   E  E  +E      +E   +Q
|-----------------|------------------------------|
|-----------------|------------------------------|
|-9--11-12----11--|-----/9-11-(11)b12r(11)-(11)--|
|-----------------|-\7---------------------------|
|-----------------|------------------------------|
|-----------------|------------------------------|
|
| W                  H          Q            Q
|-----------------|------------------------------|
|-----------------|------------------------------|
|-----------------|------------------------------|
|-4---------------|--2----------5------------7---|
|-2---------------|--0----------3------------5---|
|-----------------|------------------------------|


   Verse
        E5    B5    C5    C5    C5D5      E5    B5    C5  C5  C5B5
    Gtr III
    >
    H               H                 W
||----------------------------------|----------------------------------|
||o---------------------------------|----------------------------------|
||--9-------------------------------|----------------------------------|
||----------------------------------|----------------------------------|
||o---------------------------------|----------------------------------|
||----------------------------------|----------------------------------|
|
|   Gtrs I, II
|   PM|   PM|   PM|   PM|   PM|       PM|   PM|   PM|   PM  PM    PM|
|   S S S S S S S S S S S S S S S S   S S S S S S S S S S S S S S S S
||----------------------------------|----------------------------------|
||o---------------------------------|----------------------------------|
||----------------------------------|----------------------------------|
||------9-----4-----5-----5-----5S7-|-----9-----4-----5---5---5s4------|
||o-----7-----2-----3-----3-----3S5-|-----7-----2-----3---3---3s2-0----|
||--0-0---0-0---0-0---0-0---0-0-----|-0-0---0-0---0-0---0---0-------3--|


      E5    B5    C5    C5    C D       E5    B5      C5  C5  C5B5
  Gtr I
  PM|   PM|   PM|   PM|   PM|       PM|   PM|   PM--|   PM  PM
  S S S S S S S S S S S S S S S S   S S S S S S S S S S S S S S S S
|---------------------------------|----------------------------------||
|---------------------------------|---------------------------------o||
|---------------------------------|----------------------------------||
|---------------------------------|----------------------------------||
|-----7-----2-----3-----3-----3s5-|-----7-----2-------3---3---3p2p0-o||
|-0-0---0-0---0-0---0-0---0-0-----|-0-0---0-0---0-0-0---0---0--------||
|
| Gtr II
| PM|   PM|   PM|   PM|   PM|       PM|   PM|   PM--|   PM  PM    PM
| S S S S S S S S S S S S S S S S   S S S S S S S S S S S S S S S S
|---------------------------------|----------------------------------||
|---------------------------------|---------------------------------o||
|---------------------------------|----------------------------------||
|-----9-----4-----5-----5-----2S4-|-----9-----4-------5---5---5s4----||
|-----7-----2-----3-----3-----3S5-|-----7-----2-------3---3---3s2-0-o||
|-0-0---0-0---0-0---0-0---0-0-----|-0-0---0-0---0-0-0---0---0--------||


 Interlude
  E5
       PM-----------------------------------------------------|
  H    s s s s s s s s   s s s s s s s s  s  s  s  s  s  s  s  s
|----------------------|-----------------------------------------|
|----------------------|-----------------------------------------|
|----------------------|-----------------------------------------|
|------5-4-2-5-4-2-5-4-|-2-5-4-2-4-2-2-2--5--4--2--5--4--2--5--4-|
|-2--------------------|-----------------------------------------|
|-0--------------------|-----------------------------------------|
|
|      PM-----------------------------------------------------|
| H    s s s s s s s s   s s s s s s s s  s  s  s  s  s  s  s  s
|----------------------|-----------------------------------------|
|----------------------|-----------------------------------------|
|----------------------|-----------------------------------------|
|-9----9-7-5-9-7-5-9-7-|-5-9-7-5-9-7-5-5-14-12-10-14-12-10-14-12-|
|-7--------------------|-----------------------------------------|
|----------------------|-----------------------------------------|


   PM---------------------------------------------------------------------|
   s  s  s  s  s  s  s  s s s s s s s s s   s s s s s s s s s s s s s s s s
|-----------------------------------------|---------------------------------|
|-----------------------------------------|---------------------------------|
|-----------------------------------------|---------------------------------|
|--5--4--2--5--4--2--5--4-2-5-4-2-4-2-2-2-|-5-4-2-5-4-2-5-4-4-2-1-4-2-1-4-2-|
|-----------------------------------------|---------------------------------|
|-----------------------------------------|---------------------------------|
|
|  PM---------------------------------------------------------------------|
|  s  s  s  s  s  s  s  s s s s s s s s s   s s s s s s s s s s s s s s s s
|-----------------------------------------|---------------------------------|
|-----------------------------------------|---------------------------------|
|-----------------------------------------|---------------------------------|
|-10-14-12-10-14-12-10-10-9-7-5-9-7-5-9-7-|-5-9-7-5-9-7-5-5-7-5-4-7-5-4-7-5-|
|-----------------------------------------|---------------------------------|
|-----------------------------------------|---------------------------------|


  PM-----------------------------------------------------------------|
  s s s s s s s s s s s s s s s s   s s s s s s s s  s s s  s s s  s s
|---------------------------------|------------------------------------|
|---------------------------------|------------------------------------|
|---------------------------------|------------------------------------|
|-1-4-2-1-4-2-1-1-----------------|------------------5-4-2--5-4-2--5-4-|
|-----------------7-5-3-7-5-3-7-5-|-3-7-5-3-7-5-3-3--------------------|
|---------------------------------|------------------------------------|
|
| PM-----------------------------------------------------------------|
| s s s s s s s s s s s s s s s s   s s s s s s s s  s s s  s s s  s s
|---------------------------------|------------------------------------|
|---------------------------------|------------------------------------|
|---------------------------------|------------------------------------|
|-4-7-5-4-7-5-4-4-5-4-2-5-4-2-5-4-|-2-5-4-2-5-4-2-2-10-9-7-10-9-7-10-9-|
|---------------------------------|------------------------------------|
|---------------------------------|------------------------------------|


  PM----------------------------------------------------------------|
  s  s s s  s s s s s s s s s s s s   s s s s s s s s s s s s s s s s
|-----------------------------------|---------------------------------|
|-----------------------------------|---------------------------------|
|-----------------------------------|---------------------------------|
|-2--5-4-2--4-2-2-2-4-2-0-4-2-0-4-2-|-0-4-2-0-4-2-0-2-4-2-1-4-2-1-4-2-|
|-----------------------------------|---------------------------------|
|-----------------------------------|---------------------------------|
|
| PM----------------------------------------------------------------|
| s  s s s  s s s s s s s s s s s s   s s s s s s s s s s s s s s s s
|-----------------------------------|---------------------------------|
|-----------------------------------|---------------------------------|
|-----------------------------------|---------------------------------|
|-7-10-9-7-10-9-7-9-9-7-5-9-7-5-9-7-|-5-9-7-5-9-7-5-7-----------------|
|-----------------------------------|-----------------9-7-6-9-7-6-9-7-|
|-----------------------------------|---------------------------------|


 Guitar Solo
  PM|         PM----------------------
  S S S S Q   S  S  S  S  S  S  S  S
|------------------------------------|
|------------------------------------|
|-------------------------------7--9-|
|-1-2-1----------------7--9-10-------|
|-------3-2---7--9-10----------------|
|------------------------------------|
|
| PM----| ~   PM----------------------
| S S S S Q   S  S  S  S  S  S  S  S
|------------------------------------|
|------------------------------------|
|------------------------------11-12-|
|---------------------10-12-14-------|
|-6-7-9-7-6--10-12-14----------------|
|------------------------------------|


 ----|
   S  S  S  S  S  S   S    S       +Q     E E
|---------------------------------------------|
|--7--8-----7--8-10-[10]-[10]b12r([10])\--5-5-|
|--------9------------------------------------|
|---------------------------------------------|
|---------------------------------------------|
|---------------------------------------------|
|
|----|
|  S  S  S  S  S  S   S   +S       +Q     E E
|---------------------------------------------|
|----12-------12-15--15--(15)b17r=(15)\---8-8-|
|-14----12-14---------------------------------|
|---------------------------------------------|
|---------------------------------------------|
|---------------------------------------------|


  Gtr I
           PM|
  +Q.   E  S  S  S  S  S  S  S      +S
|---------------------15-17-17b19==(17)r-|
|-(5)--------------17--------------------|
|---------------16-----------------------|
|------------17--------------------------|
|---------19-----------------------------|
|----------------------------------------|
|
|          PM|
| +Q.   E  S  S  S  S  S  S  S      +S
|---------------------15-----------------|
|-(8)--------------17----19-19b20==(19)r-|
|---------------16-----------------------|
|------------17--------------------------|
|---------19-----------------------------|
|----------------------------------------|


   ~~
   Q   S  S  S  S  S   a    S  S   a   S  a  E  S  S
|-17--15-14-15-14--------------------------------------|
|-----------------15-(15)s=17-12-(12)s13-10s12--8h10---|
|------------------------------------------------------|
|------------------------------------------------------|
|------------------------------------------------------|
|------------------------------------------------------|
|
|  ~~
|  Q   S  S  S  S           E  S   S   E        S  S
|-----19-17-19-17--------------------------------------|
|-19----------------------/12--------------------------|
|-----------------------------12s=14s=12---------------|
|----------------------------------------------12h14---|
|------------------------------------------------------|
|------------------------------------------------------|


   Q   E  E  S S S  S S S  S S
|-----12--8-10-8-7--------10-8-|
|------------------10-8-7------|
|--9---------------------------|
|------------------------------|
|------------------------------|
|------------------------------|
|
|  Q   E  E  S S S  S S S  S S
|-----------10-8-7--------10-8-|
|------------------10-8-7------|
|------9-----------------------|
|-\9-----10--------------------|
|------------------------------|
|------------------------------|


            |-3-|  |-3-|  |-3-| |-3-| |-3-| |-3-|
  S  S S S  S S S  S S S  S S S S S S S S S S S S
|-7--------10-8-7---------------------------------|
|---10-8-7--------10-8-7-10-8-7-------------------|
|-------------------------------9-7-5-9-7-5-------|
|-------------------------------------------9-7-5-|
|-------------------------------------------------|
|-------------------------------------------------|
|
|           |-3-|  |-3-|  |-3-| |-3-| |-3-| |-3-|
| S  S S S  S S S  S S S  S S S S S S S S S S S S
|-7--------10-8-7---------------------------------|
|---10-8-7--------10-8-7-10-8-7-------------------|
|-------------------------------9-7-5-9-7-5-------|
|-------------------------------------------9-7-5-|
|-------------------------------------------------|
|-------------------------------------------------|


  ~     PM---|
        |--3--|  |--3--|
  H     S  S  S  S  S  S  E   +E
|-----------------------------------|
|-----------------------------------|
|------------------------[7]-([7])\-|
|----------------7h=9h10------------|
|-7-----7--9-10---------------------|
|-----------------------------------|
|
| ~     PM---|
|       |--3--|  |--3--|
| H     S  S  S  S  S  S  E   +E
|-----------------------------------|
|-----------------------------------|
|------------------------12--(12)\--|
|-5-------------10h12h14------------|
|------10-12-14---------------------|
|-----------------------------------|


                                                2/4
   |--3--|  |--3--|
   S  S  S  S  S  S  E  S S  S  +S       +Q.      +Q     +Q
|----------------------------------------------|---------------|
|----------------------15---15-(15)b17==(15)---|-(15)r--(15)\--|
|-------------------14-------------------------|---------------|
|----------12h14h16----------------------------|---------------|
|-12h14h15-------------------------------------|---------------|
|----------------------------------------------|---------------|
|
|  |--3--|  |--3--|
|  S  S  S  S  S  S  E  S S  S  +S       +Q.      +Q     +Q
|-------------------12-14---14-(14)b15==(14)---|-(14)r--(14)\--|
|----------------------------------------------|---------------|
|----------11h12h14----------------------------|---------------|
|-10h12h14-------------------------------------|---------------|
|----------------------------------------------|---------------|
|----------------------------------------------|---------------|


 Intro Riff
  E5
 4/4
     PM|    PM|   PM|        PM|    PM|   PM|
  Q  S S Q  S S E S S    Q   S S Q  S S E S S
|---------------------|--------------------------|
|---------------------|--------------------------|
|---------------------|--------------------------|
|---------------------|--------------------------|
|-2------2------2-----|--3-------3------3--------|
|----0-0----0-0---0-0-|------0-0----0-0---0-0----|
|
|                        >
| W                     +W
|---------------------|--------------------------|
|---------------------|--------------------------|
|---------------------|--------------------------|
|-2-------------------|-(2)----------------------|
|-2-------------------|-(2)----------------------|
|-0-------------------|-(0)----------------------|


       PM|    PM|   PM|        PM|     PM--| ~~       PM|    PM|   PM|
   Q   S S Q  S S E S S    Q   S S Q   S S S E.    Q  S S Q  S S E S S
|-----------------------|-----------------------|-----------------------|
|-----------------------|-----------------------|-----------------------|
|-----------------------|-----------------------|-----------------------|
|-----------------------|-----------------------|-----------------------|
|--5-------5------5-----|--2-------2---------5--|--2------2------2------|
|------0-0----0-0---0-0-|------0-0-----0-0-0----|-----0-0----0-0---0-0--|
|
|                                                  >
|                                    PM----| ~~
| +W                      +H       S S S S S E.    W
|-----------------------|-----------------------|-----------------------|
|-----------------------|-----------------------|-----------------------|
|-----------------------|-----------------------|-----------------------|
|-(2)-------------------|-(2)-------------------|-----------------------|
|-(2)-------------------|-(2)----------------9--|-10--------------------|
|-(0)-------------------|-(0)--------0-0-0-0----|--0--------------------|


        PM|    PM|   PM|         PM|    PM|   PM|         PM|    PM--| ~~
    Q   S S Q  S S E S S     Q   S S Q  S S E S S     Q   S S Q  S S S E.
|------------------------|------------------------|------------------------|
|------------------------|------------------------|------------------------|
|------------------------|------------------------|------------------------|
|------------------------|------------------------|------------------------|
|---3-------3------3-----|---5-------5------5-----|---2-------2--------5---|
|-------0-0----0-0---0-0-|-------0-0----0-0---0-0-|-------0-0----0-0-0-----|
|
|  +W                       +W                       +W
|------------------------|------------------------|------------------------|
|------------------------|------------------------|------------------------|
|------------------------|------------------------|------------------------|
|------------------------|------------------------|------------------------|
|-(10)-------------------|-(10)-------------------|-(10)-------------------|
|--(0)-------------------|--(0)-------------------|--(0)-------------------|


        PM|       PM|     PM|         PM|       PM|   PM|
  Q     S S Q     S S E   S S   Q     S S Q     S S E S S
|-----------------------------|---------------------------|
|-----------------------------|---------------------------|
|-----------------------------|---------------------------|
|-----------------------------|---------------------------|
|-2---------2---------2-------|-3---------3---------3-----|
|-------0-0-------0-0-----0-0-|-------0-0-------0-0---0-0-|
|
| PM----------------------|       PM-----------------------
| S S E E   S S E E   S S E     E S S E   E S S E   E S S
|-----------------------------|---------------------------|
|-----------------------------|---------------------------|
|-----------------------------|---------------------------|
|-----------------------------|---------------------------|
|-----------------------------|---------------------------|
|-0-0-0-----0-0-0-----0-0-0---|---0-0-0-----0-0-0-----0-0-|


                                                     D
      PM|     PM|   PM|         PM|       PM--| ~~
  Q   S S Q   S S E S S   Q     S S Q     S S S E.
|-----------------------|----------------------------------|
|-----------------------|----------------------------------|
|-----------------------|----------------------------------|
|-----------------------|----------------------------------|
|-5-------5-------5-----|-2---------2-----------5----------|
|-----0-0-----0-0---0-0-|-------0-0-------0-0-0------------|
|
|-----------------|       PM------------|     PM|    PM
| E E S S E E S S E E     S S E E   S S S S   S S  S E.
|-----------------------|----------------------------------|
|-----------------------|----------------------------------|
|-----------------------|----------------------------------|
|-----------------------|----------------------------4-----|
|-----------------------|----------------------------5-----|
|-0---0-0-0---0-0-0-----|-0-0-0-----0-0-0-----0-0--0-------|


                                      Em            Em
        PM|       PM|     PM|         PM|       PM|   PM|
  Q     S S Q     S S E   S S   Q     S S Q     S S E S S
|-----------------------------|---------------------------|
|-----------------------------|---------------------------|
|-----------------------------|---------------------------|
|-----------------------------|---------------------------|
|-2---------2---------2-------|-3---------3---------3-----|
|-------0-0-------0-0-----0-0-|-------0-0-------0-0---0-0-|
|
| PM----------------------|       PM|     PM------|   PM---
| S S E E   S S E E   S S E     E S S E   S S E S S E S S
|-----------------------------|---------------------------|
|-----------------------------|---------------------------|
|-----------------------------|---------------------------|
|-----------------------------|-------5-------------5-----|
|-----------------------------|-------7-------------7-----|
|-0-0-0-----0-0-0-----0-0-0---|---0-0-0---0-0-0-0-0-0-0-0-|


        PM|       PM|     PM|         PM|       PM--| ~~
  Q     S S Q     S S E   S S   Q     S S Q     S S S E.
|-----------------------------|--------------------------------|
|-----------------------------|--------------------------------|
|-----------------------------|--------------------------------|
|-----------------------------|--------------------------------|
|-5---------5---------5-------|-2---------2-----------5--------|
|-------0-0-------0-0-----0-0-|-------0-0-------0-0-0----------|
|
|-------------------------|       PM---------------------|~~~
| S S E E   S S E E   S S E     E S S E   E S S E S S     E
|-----------------------------|--------------------------------|
|-----------------------------|--------------------------------|
|-----------------------------|--------------------------------|
|-----------------------------|--------------------------------|
|-----------------------------|--------------------------[9]---|
|-0-0-0-----0-0-0-----0-0-0---|---0-0-0-----0-0-0-0-0----------|


   Verse
        E5    B5    C5    C5    C D       E5    B5
    PM|   PM|   PM|   PM|   PM|       PM|   PM|   PM|   PM  PM    PM|
    S S S S S S S S S S S S S S S S   S S S S S S S S S S S S S S S S
||----------------------------------|----------------------------------|
||o---------------------------------|----------------------------------|
||----------------------------------|----------------------------------|
||----------------------------------|----------------------------------|
||o-----7-----2-----3-----3-----3s5-|-----7-----2-----3---3---3p2------|
||--0-0---0-0---0-0---0-0---0-0-----|-0-0---0-0---0-0---0---0-----5-3--|
|
|   PM|   PM|   PM|   PM|   PM|       PM|   PM|   PM|   PM  PM    PM|
|   S S S S S S S S S S S S S S S S   S S S S S S S S S S S S S S S S
||----------------------------------|----------------------------------|
||o---------------------------------|----------------------------------|
||----------------------------------|----------------------------------|
||------9-----4-----5-----5-----2S4-|-----9-----4-----5---5---5s4------|
||o-----7-----2-----3-----3-----3S5-|-----7-----2-----------------7-5--|
||--0-0---0-0---0-0---0-0---0-0-----|-0-0---0-0---0-0---0---0----------|


      E5    B5    C5    C5    C D       E5    B5
  PM|   PM|   PM|   PM|   PM|       PM|   PM|   PM--|   PM  PM----|
  S S S S S S S S S S S S S S S S   S S S S S S S S S S S S S S S S
|---------------------------------|------------------------------------||
|---------------------------------|-----------------------------------o||
|---------------------------------|------------------------------------||
|---------------------------------|------------------------------------||
|-----7-----2-----3-----3-----3s5-|-----7-----2-------3---3---3-2-0---o||
|-0-0---0-0---0-0---0-0---0-0-----|-0-0---0-0---0-0-0---0---0----------||
|
| PM|   PM|   PM|   PM|   PM|       PM|   PM|   PM--|   PM  PM    PM
| S S S S S S S S S S S S S S S S   S S S S S S S S S S S S S S S S
|---------------------------------|------------------------------------||
|---------------------------------|-----------------------------------o||
|---------------------------------|------------------------------------||
|-----9-----4-----5-----5-----2S4-|-----9-----4-------5---5---5s4-2----||
|-----7-----2-----3-----3-----3S5-|-----7-----2-----------------------o||
|-0-0---0-0---0-0---0-0---0-0-----|-0-0---0-0---0-0-0---0---0----------||


 Chorus
  E5               C5
  Gtr III
  ~~~~~~~~~~~~~~~~~~~~~~~~~~~
  Q.    Q.    Q    Q.     Q.    E  E
|----------------|-------------------|
|----------------|-------------------|
|-9----12----11--|-9----/14----12-11-|
|----------------|-------------------|
|----------------|-------------------|
|----------------|-------------------|
|
| Gtrs I, II
| W                W
|----------------|-------------------|
|----------------|-------------------|
|----------------|-------------------|
|-2--------------|-5-----------------|
|-2--------------|-3-----------------|
|-0--------------|-------------------|


  E5               A5      C5           D5
  ~~~~~~~~~~~~~~~~~~~                ~~~~
  Q.    Q.    Q    Q  E  E  +E      +Q    E
|----------------|--------------------------|
|----------------|--------------------------|
|-9----12----11--|----9-11-(11)b12r(11)---9-|
|----------------|-7------------------------|
|----------------|--------------------------|
|----------------|--------------------------|
|
| W                H         Q          Q
|----------------|--------------------------|
|----------------|--------------------------|
|----------------|--------------------------|
|-2--------------|-2---------5----------7---|
|-2--------------|-0---------3----------5---|
|-0--------------|--------------------------|


  E5               C5
  ~~~~~~~~~~~~~~~~~~~~~~~~~~~
  Q.    Q.    Q    Q.     Q.    E  E
|----------------|-------------------|
|----------------|-------------------|
|-9----12----11--|-9----/14----12-11-|
|----------------|-------------------|
|----------------|-------------------|
|----------------|-------------------|
|
| W                W
|----------------|-------------------|
|----------------|-------------------|
|----------------|-------------------|
|-2--------------|-5-----------------|
|-2--------------|-3-----------------|
|-0--------------|-------------------|


  B5                A5        C5           D5
         ~~~~~~~~
  Q   E  Q.    Q     Q   E  E  +E      +Q  E
|-----------------|---------------------------|
|-----------------|---------------------------|
|-9--11-12----11--|-----/9-11-(11)b12r(11)-9--|
|-----------------|-\7------------------------|
|-----------------|---------------------------|
|-----------------|---------------------------|
|
| W                  H          Q          Q
|-----------------|---------------------------|
|-----------------|---------------------------|
|-----------------|---------------------------|
|-4---------------|--2----------5----------7--|
|-2---------------|--0----------3----------5--|
|-----------------|---------------------------|


 Out-Chorus
  E5               C5
  Gtr V
  ~~~~~~~~~~~~~~~~~~~~~~~~~~~
  Q.    Q.    Q    Q.     Q.    E  E
|----------------|-------------------|
|-8----12----10--|-8----/13----12-10-|
|----------------|-------------------|
|----------------|-------------------|
|----------------|-------------------|
|----------------|-------------------|
|
| Gtr III
| ~~~~~~~~~~~~~~~~~~~~~~~~~~~
| Q.    Q.    Q    Q.     Q.    E  E
|----------------|-------------------|
|----------------|-------------------|
|-9----12----11--|-9----/14----12-11-|
|----------------|-------------------|
|----------------|-------------------|
|----------------|-------------------|
|
| Gtrs I, II
| W                W
|----------------|-------------------|
|----------------|-------------------|
|----------------|-------------------|
|-2--------------|-5-----------------|
|-2--------------|-3-----------------|
|-0--------------|-------------------|


  E5               A5       C5           D5
  ~~~~~~~~~~~~~~~~~~~~                ~~~~
  Q.    Q.    Q     Q  E  E  +E       Q     E
|----------------|-------------------12--------|
|-8----12----10--|-----8-10-(10)b12=(10)---10r-|
|----------------|-/9--------------------------|
|----------------|-----------------------------|
|----------------|-----------------------------|
|----------------|-----------------------------|
|
| ~~~~~~~~~~~~~~~~~~~~                ~~~~
| Q.    Q.    Q     Q  E  E  +E      +Q     E
|----------------|-----------------------------|
|----------------|-----------------------------|
|-9----12----11--|-----9-11-(11)b12r(11)----9--|
|----------------|--7--------------------------|
|----------------|-----------------------------|
|----------------|-----------------------------|
|
| W                 H         Q          Q
|----------------|-----------------------------|
|----------------|-----------------------------|
|----------------|-----------------------------|
|-2--------------|--2---------5----------7-----|
|-2--------------|--0---------3----------5-----|
|-0--------------|-----------------------------|


  E5               C5
  ~~~~~~~~~~~~~~~~~~~~~~~~~~~
  Q.    Q.    Q    Q.     Q.    E  E
|----------------|-------------------|
|-8----12----10--|-8----/13----12-10-|
|----------------|-------------------|
|----------------|-------------------|
|----------------|-------------------|
|----------------|-------------------|
|
| ~~~~~~~~~~~~~~~~~~~~~~~~~~~
| Q.    Q.    Q    Q.     Q.    E  E
|----------------|-------------------|
|----------------|-------------------|
|-9----12----11--|-9----/14----12-11-|
|----------------|-------------------|
|----------------|-------------------|
|----------------|-------------------|
|
| W                W
|----------------|-------------------|
|----------------|-------------------|
|----------------|-------------------|
|-2--------------|-5-----------------|
|-2--------------|-3-----------------|
|-0--------------|-------------------|


  B5                 A5        C5           D5
  ~~~~~~~~~~~~~~~~~~~~~~
  Q.      Q.    Q     Q   E  E   E      +E   +E  E
|------------------|-------------------------------|
|-8------12----10--|------8-10--10pb12=(10)r(10)-8-|
|------------------|-/9----------------------------|
|------------------|-------------------------------|
|------------------|-------------------------------|
|------------------|-------------------------------|
|
|         ~~~~~~~~
| Q    E  Q.    Q     Q   E  E  +E      +Q       E
|------------------|-------------------------------|
|------------------|-------------------------------|
|-9---11-12----11--|-----/9-11-(11)b12r(11)------9-|
|------------------|-\7----------------------------|
|------------------|-------------------------------|
|------------------|-------------------------------|
|
| W                   H          Q            Q
|------------------|-------------------------------|
|------------------|-------------------------------|
|------------------|-------------------------------|
|-4----------------|--2----------5------------7----|
|-2----------------|--0----------3------------5----|
|------------------|-------------------------------|


 Outro
  Gtrs III, V
  >
  W                             W
|---------------------|-----------------------|
|-8-------------------|-----------------------|
|-9-------------------|-----------------------|
|---------------------|-----------------------|
|---------------------|-----------------------|
|---------------------|-----------------------|
|
| Gtr I
|    PM|    PM|   PM|      PM|     PM|    PM|
| Q  S S Q  S S E S S   Q  S S  Q  S S  E S S
|---------------------|-----------------------|
|---------------------|-----------------------|
|---------------------|-----------------------|
|---------------------|-----------------------|
|-2------2------2-----|-3-------3-------3-----|
|----0-0----0-0---0-0-|----0-0-----0-0----0-0-|
|
| Gtr II
|    PM|    PM|   PM|      PM|     PM|    PM|
| Q  S S Q  S S E S S   Q  S S  Q  S S  E S S
|---------------------|-----------------------|
|---------------------|-----------------------|
|---------------------|-----------------------|
|---------------------|-----------------------|
|-7------7------7-----|-9------10------10-----|
|----0-0----0-0---0-0-|----0-0-----0-0----0-0-|


         W                     W
|---------------------|---------------------|
|---------------------|---------------------|
|---------------------|---------------------|
|---------------------|---------------------|
|---------------------|---------------------|
|---------------------|---------------------|
|
|    PM|    PM|   PM|      PM|    PM--| ~~
| Q  S S Q  S S E S S   Q  S S Q  S S S E.
|---------------------|---------------------|
|---------------------|---------------------|
|---------------------|---------------------|
|---------------------|---------------------|
|-5------5------5-----|-2------2--------5---|
|----0-0----0-0---0-0-|----0-0----0-0-0-----|
|
|    PM|    PM|   PM|      PM|    PM--| ~~
| Q  S S Q  S S E S S   Q  S S Q  S S S E.
|---------------------|---------------------|
|---------------------|---------------------|
|---------------------|---------------------|
|---------------------|---------------------|
|-9------9------9-----|-5------5--------9---|
|----0-0----0-0---0-0-|----0-0----0-0-0-----|


  Gtr I
       PM|      PM|     PM|        PM|      PM|     PM|
   Q   S S  Q   S S  E  S S    Q   S S  Q   S S  E  S S
|---------------------------|---------------------------|
|---------------------------|---------------------------|
|---------------------------|---------------------------|
|---------------------------|---------------------------|
|--2--------2--------2------|--3--------3--------3------|
|------0-0------0-0-----0-0-|------0-0------0-0-----0-0-|
|
| Gtr II
|      PM|      PM|     PM|        PM|      PM|     PM|
|  Q   S S  Q   S S  E  S S    Q   S S  Q   S S  E  S S
|---------------------------|---------------------------|
|---------------------------|---------------------------|
|---------------------------|---------------------------|
|---------------------------|---------------------------|
|-[7]------[7]------[7]-----|-[9]------[5]------[5]-----|
|------0-0------0-0-----0-0-|------0-0------0-0-----0-0-|


       PM|      PM|     PM|        PM|      PM--|  ~~~
   Q   S S  Q   S S  E  S S    Q   S S  Q   S S S  E.
|---------------------------|--------------------------|
|---------------------------|--------------------------|
|---------------------------|--------------------------|
|---------------------------|--------------------------|
|--5--------5--------5------|--2--------2----------5---|
|------0-0------0-0-----0-0-|------0-0------0-0-0------|
|
|      PM|      PM|     PM|        PM|      PM--|  ~~~
|  Q   S S  Q   S S  E  S S    Q   S S  Q   S S S  E.
|---------------------------|--------------------------|
|---------------------------|--------------------------|
|---------------------------|--------------------------|
|---------------------------|--------------------------|
|-[5]------[9]------[9]-----|-[5]------[9]--------[9]--|
|------0-0------0-0-----0-0-|------0-0------0-0-0------|


    E5     E5     E5      D5     D         D
    Gtr I
       PM|    PM|   PM|      PM|       PM|   PM|
    Q  S S Q  S S E S S   Q  S S E  E  S S E S S
||----------------------|------------------------|
||o---------------------|------------------------|
||----------------------|------------------------|
||--9------9------9-----|-7------4h=5------4-----|
||o-7------7------7-----|-5------5-(5)-----5-----|
||-----0-0----0-0---0-0-|----0-0-------0-0---0-0-|
|
|   Gtr II
|      PM|    PM|   PM|      PM|       PM|   PM|
|   Q  S S Q  S S E S S   Q  S S E  E  S S E S S
||----------------------|------------------------|
||o---------------------|------------------------|
||----------------------|------------------------|
||--9------9------9-----|-7------4h=5------7-----|
||o-7------7------7-----|-5------5-(5)-----5-----|
||-----0-0----0-0---0-0-|----0-0-------0-0---0-0-|


                       1.
  D5     D5     D5      B5     B5
     PM|    PM|   PM|      PM|       PM----|
  Q  S S Q  S S E S S   Q  S S E  E  S S S E.
|---------------------|------------------------||
|---------------------|-----------------------o||
|---------------------|------------------------||
|-7------7------7-----|-4------4h=5--------4---||
|-5------5------5-----|-2------2-(2)-------2--o||
|----0-0----0-0---0-0-|----0-0-------0-0-0-----||
|
|    PM|    PM|   PM|      PM|       PM----|
| Q  S S Q  S S E S S   Q  S S E  E  S S S E.
|---------------------|------------------------||
|---------------------|-----------------------o||
|---------------------|------------------------||
|-4------4------4-----|-4------4h=5--------4---||
|-5------5------5-----|-2------5-(5)-------5--o||
|----0-0----0-0---0-0-|----0-0-------0-0-0-----||


  2.
  B5     B5        D5   E5
                        >
     PM|     PM----|
  Q  S S E E S S S E.   W          +W           +W
|---------------------|----------|------------|--------*|
|---------------------|----------|------------|--------*|
|---------------------|----------|------------|--------*|
|-4------4h5-------7--|-9--------|-(9)--------|-(9)----*|
|-2------2---------5--|-7--------|-(7)--------|-(7)----*|
|----0-0-----0-0-0----|----------|------------|--------*|
|
|                       >
|    PM|     PM----|
| Q  S S E E S S S E.   W          +W           +W
|---------------------|----------|------------|--------*|
|---------------------|----------|------------|--------*|
|---------------------|----------|------------|--------*|
|-4------4h5-------4--|-2--------|-(2)--------|-(2)----*|
|-2------5---------5--|-2--------|-(2)--------|-(2)----*|
|----0-0-----0-0-0----|-0--------|-(0)--------|-(0)----*|


Duration Legend
---------------
W - whole; H - half; Q - quarter; E - 8th; S - 16th; T - 32nd; X - 64th; a - acciaccatura
+ - note tied to previous; . - note dotted; .. - note double dotted
Uncapitalized letters represent notes that are staccato (1/2 duration)
Irregular groupings are notated above the duration line
Duration letters will always appear directly above the note/fret number it represents the
duration for.  Duration letters with no fret number below them represent rests.  Multi-
bar rests are notated in the form Wxn, where n is the number of bars to rest for.  Low
melody durations appear below the staff

Tablature Legend
----------------
 h   - hammer-on
 p   - pull-off
 b   - bend
 pb  - pre-bend
 r   - bend release (if no number after the r, then release immediately)
 /\  - slide into or out of (from/to "nowhere")
 s   - legato slide
 S   - shift slide
  - natural harmonic
[n]  - artificial harmonic
n(n) - tapped harmonic
 ~   - vibrato
 tr  - trill
 T   - tap
 TP  - trem. picking
 PM  - palm muting
\n/  - tremolo bar dip; n = amount to dip
 \n  - tremolo bar down
 n/  - tremolo bar up
/n\  - tremolo bar inverted dip
 =   - hold bend; also acts as connecting device for hammers/pulls
 <>  - volume swell (louder/softer)
 x   - on rhythm slash represents muted slash
 o   - on rhythm slash represents single note slash

Misc Legend
-----------
 |  - bar
||  - double bar
||o - repeat start
o|| - repeat end
*|  - double bar (ending)
 :  - bar (freetime)
 $  - Segno
 &  - Coda
Tempo markers -  = BPM(8/16=s8/s16), where s8 = swing 8ths, s16 = swing 16ths


***************************************************************************************
* Generated using Power Tab Editor by Brad Larsen - http://powertab.guitarnetwork.org *
***************************************************************************************
comments
We did not receive enough feedback on this tab! Please rate:
print report bad tab
1 2 3 4 5
I want to post or [tab]
guest
You may want to rate the tab now too:
select rating
Please do not post tabs as comments. Select "correction" instead!