Oops, an error
Loading. Please wait.

Midnight Walker Tab

ver1
ver1

Whole song

Interactive

More versions @911Tabs.com
1,666 views 3 this week
5 commentsread comments
1 2 3 4 5
excellent!
x 1
add to favorites launch autoscroll
font size
0
reset
Autoscroll
+/-
esc
set tempo
stop
Contributor
WARNING: You are trying to view
                                    content from Ultimate-Guitar.com
                                    in an unauthorized application,
                                    which is prohibited.

                                    Please use an official Ultimate
                                    Guitar Tabs application for iPhone,
                                    iPad or Android to access legitimate
                                    chords, guitar, bass, and drum tabs
                                    from Ultimate-Guitar.com database.

                                    Type "ultimate guitar tabs" in Apple
                                    App Store's or Android Market's
                                    search to find the application.
#----------------------------------PLEASE NOTE---------------------------------#
#This file is the author's own work and represents their interpretation of the #
#song. You may only use this file for private study, scholarship, or research. #
#------------------------------------------------------------------------------##

                                 MIDNIGHT WALKER
                             As recorded by Norther
                     (From the 2003 Album MIRROR OF MADNESS)

Words by P. Lindroos

Music by Norther
Arranged by Norther

Gtr I (E A D G B E) - 'Lead'
Gtr II (E A D G B E) - 'Rythm'
Gtr III (E A D G B E) - 'noise'

   Intro
    Q=165
    A5                                                    F      E
   4/4
    Gtr I
      PM|   PM|   PM    PM|   PM|   PM    PM|   PM|   PM----|    PM|
    E E E E E E E E   E E E E E E E E   E E E E E E E E   E E Q  E E Q
||------------------|-----------------|-----------------|---------------|
||o-----------------|-----------------|-----------------|---------------|
||------------------|-----------------|-----------------|-----2------1--|
||--2-----3-----3---|-2-----0-----0---|-2-----3-----3---|-3-3----2-2----|
||o---0-0---0-0---0-|---0-0---0-0---0-|---0-0---0-0---0-|---------------|
||------------------|-----------------|-----------------|---------------|
|
|   Gtr II
|     PM|   PM|   PM    PM|   PM|   PM    PM|   PM|   PM----|    PM|
|   E E E E E E E E   E E E E E E E E   E E E E E E E E   E E Q  E E Q
||------------------|-----------------|-----------------|---------------|
||o-----------------|-----------------|-----------------|---------------|
||------------------|-----------------|-----------------|---------------|
||--2-----3-----3---|-2-----0-----0---|-2-----3-----3---|-----3------2--|
||o---0-0---0-0---0-|---0-0---0-0---0-|---0-0---0-0---0-|-----3------2--|
||------------------|-----------------|-----------------|-1-1-1--0-0-0--|


  A
    PM|   PM|   PM    PM|   PM|   PM
  E E E E E E E E   E E E E E E E E
|-----------------|-----------------|
|-----------------|-----------------|
|-----------------|-----------------|
|-2-----3-----3---|-2-----0-----0---|
|---0-0---0-0---0-|---0-0---0-0---0-|
|-----------------|-----------------|
|
|   PM|   PM|   PM    PM|   PM|   PM
| E E E E E E E E   E E E E E E E E
|-----------------|-----------------|
|-----------------|-----------------|
|-----------------|-----------------|
|-2-----3-----3---|-2-----0-----0---|
|---0-0---0-0---0-|---0-0---0-0---0-|
|-----------------|-----------------|


                    F5
                                        \1/
    PM|   PM|   PM
  E E E E E E E E   E E E E  E   +E    +Q
|-----------------|---------------------------||
|-----------------|--------------------------o||
|-----------------|---------------------------||
|-2-----3-----3---|-------0-[6]-([6])-([6])---||
|---0-0---0-0---0-|-0-2-3--------------------o||
|-----------------|---------------------------||
|
|                                       \1/
|   PM|   PM|   PM--------|
| E E E E E E E E   Q   E E  E   +E    +Q
|-----------------|---------------------------||
|-----------------|--------------------------o||
|-----------------|---------------------------||
|-2-----3-----3---|---------[6]-([6])-([6])---||
|---0-0---0-0---0-|-3------------------------o||
|-----------------|-1---1-1-------------------||


 Verse
  A5         G5               C5           C5    F5
  W          W                H      +E  E E E   W
|----------|----------------|------------------|---------------|
|----------|----------------|------------------|---------------|
|-2--------|----------------|-5------(5)-------|---------------|
|-2--------|-5--------------|-5------(5)---5---|-3-------------|
|-0--------|-5--------------|-3------(3)---3---|-3-------------|
|----------|-3--------------|------------------|-1-------------|
|
|               PM--|   PM|      PM|
| W          Q  E E E E E E   Q  E E  E  E E E   Q  +E  E H
|----------|----------------|------------------|---------------|
|----------|----------------|------------------|---------------|
|-2--------|----------------|---------5--4-----|---------------|
|-2--------|-5--------------|-5------------7-5-|-5--(5)s7-7----|
|-0--------|-5--------5-----|-3--3-3-----------|---------------|
|----------|-3--3-3-3-3-3-3-|------------------|---------------|


  A5         F5         C5         G5         G5
                                              PM
  W          W          W          H    +E  E E E
|----------|----------|----------|----------------|
|----------|----------|----------|----------------|
|-2--------|----------|-5--------|----------------|
|-2--------|-3--------|-5--------|-5----(5)-------|
|-0--------|-3--------|-3--------|-5----(5)---5---|
|----------|-1--------|----------|-3----(3)---3---|
|
|                                             PM
| W          W          W          H    +E  E E E
|----------|----------|----------|----------------|
|----------|----------|----------|----------------|
|-2--------|----------|-5--------|----------------|
|-2--------|-3--------|-5--------|-5----(5)-------|
|-0--------|-3--------|-3--------|-5----(5)---5---|
|----------|-1--------|----------|-3----(3)---3---|


  A5         G5
  W          W
|----------|--------------------------|
|----------|--------------------------|
|-2--------|--------------------------|
|-2--------|-5------------------------|
|-0--------|-5------------------------|
|----------|-3------------------------|
|
|               PM----------------|
| W          Q  S S S S e S S S S S S
|----------|--------------------------|
|----------|--------------------------|
|-2--------|--------------------------|
|-2--------|--------------------------|
|-0--------|-5------------------------|
|----------|-3--3-3-3---3-3-3-3-3-3---|


  C5                               F5
       PM----------------------|
  E.   S S S S S s S S S S S S S    W
|--------------------------------|--------------|
|--------------------------------|--------------|
|-5------------------------------|--------------|
|-5------------------------------|--3-----------|
|-3----3-3-3-3-3-3-3-2-2-0-0-2-2-|--3-----------|
|--------------------------------|--1-----------|
|
|    PM------------------------|
| E  S S S S S S S S S S S S S S    Q.   E H
|--------------------------------|--------------|
|--------------------------------|--------------|
|--------------------------------|-/5----4-2----|
|-5------------------------------|--------------|
|-3--3-3-3-3-3-3-3-3-2-2-0-0-----|--------------|
|----------------------------3-3-|--------------|


  A5         F5         C5         G5
  W          W          W          W
|----------|----------|----------|-------------|
|----------|----------|----------|-------------|
|-2--------|----------|-5--------|-------------|
|-2--------|-3--------|-5--------|-5-----------|
|-0--------|-3--------|-3--------|-5-----------|
|----------|-1--------|----------|-3-----------|
|
|                                        ~~~
| W          W          W          H     H
|----------|----------|----------|-------------|
|----------|----------|----------|-------------|
|-2--------|----------|-5--------|------[9]----|
|-2--------|-3--------|-5--------|-5-----------|
|-0--------|-3--------|-3--------|-5-----------|
|----------|-1--------|----------|-3-----------|


   Pre-Chorus
    A5            C5              G5                D5
    W              W              W                 W
||--------------|---------------|-----------------|---------------|
||o-------------|---------------|-----------------|---------------|
||--2-----------|--5------------|-----------------|-7-------------|
||--2-----------|--5------------|-5---------------|-7-------------|
||o-0-----------|--3------------|-5---------------|-5-------------|
||--------------|---------------|-3---------------|---------------|
|
|           PM|            PM|
|   H.      E E    H.      E  E   Q.   Q.   E S S   H    E E  E E
||--------------|---------------|-----------------|---------------|
||o-------------|---------------|-----------------|---------------|
||--------------|---------------|-7----5----4h5-4-|-------------9-|
||--7-------7-9-|-10-------9-10-|-----------------|-7----7-9-10---|
||o-------------|---------------|-----------------|---------------|
||--------------|---------------|-----------------|---------------|


  1.
  F5             G5                 A5                              G5
   W             W                  W               +H.             Q
|--------------|------------------|---------------|------------------------||
|--------------|------------------|---------------|-----------------------o||
|--------------|------------------|---------------|------------------------||
|--3-----------|-5----------------|-7-------------|-(7)-------------5------||
|--3-----------|-5----------------|-7-------------|-(7)-------------5-----o||
|--1-----------|-3----------------|-5-------------|-(5)-------------3------||
|
|                                        PM-----|          PM---------|
|  H.       Q    Q  +Q   Q  E S S   H    E E  E E    E  E  E E E  E E  E
|--------------|------------------|---------------|------------------------||
|--------------|------------------|---------------|-----------------------o||
|-10-------10--|-5--(5)--4--4-5p4-|-------------7-|--9--7------------------||
|--------------|------------------|-7----7-9-10---|-------10-9-7------10---||
|--------------|------------------|---------------|--------------10-8-----o||
|--------------|------------------|---------------|------------------------||


  2.
  F5          G5                   A5                             G5
   W           W                     W                  +H        H
|-----------|--------------------|--------------------|----------------|
|-----------|--------------------|--------------------|----------------|
|-----------|--------------------|--------------------|----------------|
|--3--------|--5-----------------|---7----------------|-(7)-------5----|
|--3--------|--5-----------------|---7----------------|-(7)-------5----|
|--1--------|--3-----------------|---5----------------|-(5)-------3----|
|
|                                             \2.5
|  ~~~~~~~~~~~~~~                                              ~~~
|  W           H     Q   E  S  S     H       +H          H     H
|-----------|--------------------|--------------------|----------------|
|-----------|-------13--12h13p12-|-[10]----([10])-----|----------------|
|-10--------|-12-----------------|--------------------|------/12-------|
|-----------|--------------------|--------------------|----------------|
|-----------|--------------------|--------------------|----------------|
|-----------|--------------------|--------------------|----------------|


 Chorus
  $
  A5             D5                G5             F5      E5
   W              W                 W              H       H
|--------------|-----------------|--------------|-----------------|
|--------------|-----------------|--------------|-----------------|
|--------------|--7--------------|--------------|-----------------|
|--7-----------|--7--------------|--5-----------|--3-------2------|
|--7-----------|--5--------------|--5-----------|--3-------2------|
|--5-----------|-----------------|--3-----------|--1-------0------|
|
|  H.       Q     Q   Q   Q   Q     H.       Q     Q   Q   Q   Q
|----------12--|---------12------|--------------|-----------------|
|--------------|-15--13------15--|--------------|-----------------|
|-14-----------|-----------------|-12-------14--|-12------14--13--|
|--------------|-----------------|--------------|-----14----------|
|--------------|-----------------|--------------|-----------------|
|--------------|-----------------|--------------|-----------------|


  A5             C5
   W              W
|--------------|---------------------|
|--------------|---------------------|
|--------------|--5------------------|
|--7-----------|--5------------------|
|--7-----------|--3------------------|
|--5-----------|---------------------|
|
|  H.       Q     Q   Q   Q       Q
|----------12--|---------12tr13------|
|--------------|-15--13----------15--|
|-14-----------|---------------------|
|--------------|---------------------|
|--------------|---------------------|
|--------------|---------------------|


  E5                F5
                     PM--------------------------|
   W                 e e  E e  E    S S   S  S S S
|-----------------|---------------------------------|
|-----------------|---------------------------------|
|-----------------|---------------------------------|
|--2--------------|---------------------------------|
|--2--------------|--3-3----3--3--------------------|
|--0--------------|--1-1----1--1----1-1---1--1-1-1--|
|
|  H.       Q        Q    Q    Q         +Q
|-----------------|---------------------------------|
|----------13b15--|-13---12---12b13r====(12)--------|
|-12--------------|---------------------------------|
|-----------------|---------------------------------|
|-----------------|---------------------------------|
|-----------------|---------------------------------|


  A5                                 D5
      PM-------------------------|      PM-------------------------------|
   E  S S S S S S S S S S  S S S S    E S S  S S S S  S     S S S  S S S S
|----------------------------------|----------------------------------------|
|----------------------------------|----------------------------------------|
|----------------------------------|----------------------------------------|
|----------------------------------|--7-------------------------------------|
|--7-------------------------------|--5-5-5--5-5-5-5--5-----5-5-5--5-5-5-5--|
|--5--5-5-5-5-5-5-5-5-5-5--5-5-5-5-|----------------------------------------|
|
|  H.                      Q          Q      Q        Q            Q
|-------------------------12-------|-----------------12tr13-----------------|
|----------------------------------|-15-----13--------------------15--------|
|-14-------------------------------|----------------------------------------|
|----------------------------------|----------------------------------------|
|----------------------------------|----------------------------------------|
|----------------------------------|----------------------------------------|


  G5                                 F5              E5
      PM-------------------------|      PM---------|    PM---------|
   E  S S S S S S S S S S  S S S S    E S S  S S S S  E S S  S S S S
|----------------------------------|---------------------------------|
|----------------------------------|---------------------------------|
|----------------------------------|---------------------------------|
|----------------------------------|---------------------------------|
|--5-------------------------------|--3---------------2--------------|
|--3--3-3-3-3-3-3-3-3-3-3--3-3-3-3-|--1-1-1--1-1-1-1--0-0-0--0-0-0-0-|
|
|  H.                      Q          Q      Q        Q      Q
|----------------------------------|---------------------------------|
|----------------------------------|------------------------12-------|
|-12----------------------14-------|-12--------------14--------------|
|----------------------------------|--------14-----------------------|
|----------------------------------|---------------------------------|
|----------------------------------|---------------------------------|


  A5                                 C5
      PM-------------------------|      PM-------------------------------|
   E  S S S S S S S S S S  S S S S    E S S  S S S S  S     S S S  S S S S
|----------------------------------|----------------------------------------|
|----------------------------------|----------------------------------------|
|----------------------------------|----------------------------------------|
|----------------------------------|--5-------------------------------------|
|--7-------------------------------|--3-3-3--3-3-3-3--3-----3-3-3--3-3-3-3--|
|--5--5-5-5-5-5-5-5-5-5-5--5-5-5-5-|----------------------------------------|
|
|  H.                      Q          Q      Q        Q            Q
|-------------------------12-------|-----------------12tr13-----------------|
|----------------------------------|-15-----13--------------------15--------|
|-14-------------------------------|----------------------------------------|
|----------------------------------|----------------------------------------|
|----------------------------------|----------------------------------------|
|----------------------------------|----------------------------------------|


  E5
      PM----------------------------|
   E  S S S S S S S S S S  S    S S S
|-------------------------------------|
|-------------------------------------|
|-------------------------------------|
|-------------------------------------|
|--2----------------------------------|
|--0--0-0-0-0-0-0-0-0-0-0--0----0-0-0-|
|
|  H.                      Q
|-------------------------------------|
|-------------------------13b15-------|
|-12----------------------------------|
|-------------------------------------|
|-------------------------------------|
|-------------------------------------|


  F5
     PM------------------------------------|
   E S S  S S S S   S     S S S    S   S S S
|---------------------------------------------|
|---------------------------------------------|
|---------------------------------------------|
|---------------------------------------------|
|--3------------------------------------------|
|--1-1-1--1-1-1-1---1-----1-1-1----1---1-1-1--|
|
|  Q      Q         Q             +Q
|---------------------------------------------|
|-13-----12-------[12]b13r======([12])--------|
|---------------------------------------------|
|---------------------------------------------|
|---------------------------------------------|
|---------------------------------------------|


   Intro
                                                          F      E
      PM|   PM|   PM    PM|   PM|   PM    PM|   PM|   PM----|    PM|
    E E E E E E E E   E E E E E E E E   E E E E E E E E   E E Q  E E Q
||------------------|-----------------|-----------------|----------------|
||o-----------------|-----------------|-----------------|----------------|
||------------------|-----------------|-----------------|-----2------1---|
||--2-----3-----3---|-2-----0-----0---|-2-----3-----3---|-3-3----2-2-----|
||o---0-0---0-0---0-|---0-0---0-0---0-|---0-0---0-0---0-|----------------|
||------------------|-----------------|-----------------|----------------|
|
|     PM|   PM|   PM    PM|   PM|   PM    PM|   PM|   PM----|    PM|
|   E E E E E E E E   E E E E E E E E   E E E E E E E E   E E Q  E E Q
||------------------|-----------------|-----------------|----------------|
||o-----------------|-----------------|-----------------|----------------|
||------------------|-----------------|-----------------|----------------|
||--2-----3-----3---|-2-----0-----0---|-2-----3-----3---|-----3------2---|
||o---0-0---0-0---0-|---0-0---0-0---0-|---0-0---0-0---0-|-----3------2---|
||------------------|-----------------|-----------------|-1-1-1--0-0-0---|


    PM|   PM|   PM    PM|   PM|   PM
  E E E E E E E E   E E E E E E E E
|-----------------|-----------------|
|-----------------|-----------------|
|-----------------|-----------------|
|-2-----3-----3---|-2-----0-----0---|
|---0-0---0-0---0-|---0-0---0-0---0-|
|-----------------|-----------------|
|
|   PM|   PM|   PM    PM|   PM|   PM
| E E E E E E E E   E E E E E E E E
|-----------------|-----------------|
|-----------------|-----------------|
|-----------------|-----------------|
|-2-----3-----3---|-2-----0-----0---|
|---0-0---0-0---0-|---0-0---0-0---0-|
|-----------------|-----------------|


                    F5
                                        \1/
    PM|   PM|   PM
  E E E E E E E E   E E E E  E   +E    +Q
|-----------------|---------------------------||
|-----------------|--------------------------o||
|-----------------|---------------------------||
|-2-----3-----3---|-------0-[6]-([6])-([6])---||
|---0-0---0-0---0-|-0-2-3--------------------o||
|-----------------|---------------------------||
|
|                                       \1/
|   PM|   PM|   PM--------|
| E E E E E E E E   Q   E E  E   +E    +Q
|-----------------|---------------------------||
|-----------------|--------------------------o||
|-----------------|---------------------------||
|-2-----3-----3---|---------[6]-([6])-([6])---||
|---0-0---0-0---0-|-3------------------------o||
|-----------------|-1---1-1-------------------||


 Verse
  A5         G5               C5           C5    F5
  W          W                H      +E  E E E   W
|----------|----------------|------------------|---------------|
|----------|----------------|------------------|---------------|
|-2--------|----------------|-5------(5)-------|---------------|
|-2--------|-5--------------|-5------(5)---5---|-3-------------|
|-0--------|-5--------------|-3------(3)---3---|-3-------------|
|----------|-3--------------|------------------|-1-------------|
|
|               PM--|   PM|      PM|
| W          Q  E E E E E E   Q  E E  E  E E E   Q  +E  E H
|----------|----------------|------------------|---------------|
|----------|----------------|------------------|---------------|
|-2--------|----------------|---------5--4-----|---------------|
|-2--------|-5--------------|-5------------7-5-|-5--(5)s7-7----|
|-0--------|-5--------5-----|-3--3-3-----------|---------------|
|----------|-3--3-3-3-3-3-3-|------------------|---------------|


  A5         F5         C5         G5         G5
                                              PM
  W          W          W          H    +E  E E E
|----------|----------|----------|----------------|
|----------|----------|----------|----------------|
|-2--------|----------|-5--------|----------------|
|-2--------|-3--------|-5--------|-5----(5)-------|
|-0--------|-3--------|-3--------|-5----(5)---5---|
|----------|-1--------|----------|-3----(3)---3---|
|
|                                             PM
| W          W          W          H    +E  E E E
|----------|----------|----------|----------------|
|----------|----------|----------|----------------|
|-2--------|----------|-5--------|----------------|
|-2--------|-3--------|-5--------|-5----(5)-------|
|-0--------|-3--------|-3--------|-5----(5)---5---|
|----------|-1--------|----------|-3----(3)---3---|


  A5         G5
  W          W
|----------|--------------------------|
|----------|--------------------------|
|-2--------|--------------------------|
|-2--------|-5------------------------|
|-0--------|-5------------------------|
|----------|-3------------------------|
|
|               PM----------------|
| W          Q  S S S S e S S S S S S
|----------|--------------------------|
|----------|--------------------------|
|-2--------|--------------------------|
|-2--------|--------------------------|
|-0--------|-5------------------------|
|----------|-3--3-3-3---3-3-3-3-3-3---|


  C5                           F5
     PM--------------------|
  Q  S S S S s S S S S S S S   W
|----------------------------|---------------------------------|
|----------------------------|---------------------------------|
|-5--------------------------|---------------------------------|
|-5--------------------------|-3-------------------------------|
|-3--3-3-3-3-3-3-2-2-0-0-----|-3-------------------------------|
|------------------------3-3-|-1-------------------------------|
|
|    PM------------------------------------------------------|
| Q  S S S S S S S S S S S S   S S S S S S S S S S S S S S S S
|----------------------------|---------------------------------|
|----------------------------|---------------------------------|
|----------------------------|---------------------------------|
|-5--------------------------|---------------------------------|
|-3--3-3-3-3-3-3-2-2-0-0-----|-3-3-2-2-0-0-3-3-2-2-0-0-3-3-2-2-|
|------------------------3-3-|---------------------------------|


  A5         F5         C5         G5
  W          W          W          W
|----------|----------|----------|-------------|
|----------|----------|----------|-------------|
|-2--------|----------|-5--------|-------------|
|-2--------|-3--------|-5--------|-5-----------|
|-0--------|-3--------|-3--------|-5-----------|
|----------|-1--------|----------|-3-----------|
|
|                                        ~~~
| W          W          W          H     H
|----------|----------|----------|-------------|
|----------|----------|----------|-------------|
|-2--------|----------|-5--------|------[9]----|
|-2--------|-3--------|-5--------|-5-----------|
|-0--------|-3--------|-3--------|-5-----------|
|----------|-1--------|----------|-3-----------|


   Pre-Chorus
    A5            C5              G5                D5
            PM|            PM|              PM|          PM-----|
    H.      E E    H.      E  E   H.        E E     H    E E  E E
||--------------|---------------|-----------------|---------------|
||o-------------|---------------|-----------------|---------------|
||--2-----------|--5------------|-----------------|-7-------------|
||--2-----------|--5------------|-5---------------|-7-------------|
||o-0-------0-0-|--3-------3--3-|-5---------------|-5----5-5--5-5-|
||--------------|---------------|-3---------3-3---|---------------|
|
|           PM|            PM|
|   H.      E E    H.      E  E   Q.   Q.   E S S   H    E E  E E
||--------------|---------------|-----------------|---------------|
||o-------------|---------------|-----------------|---------------|
||--------------|---------------|-7----5----4h5-4-|-------------9-|
||--7-------7-9-|-10-------9-10-|-----------------|-7----7-9-10---|
||o-------------|---------------|-----------------|---------------|
||--------------|---------------|-----------------|---------------|


  1.
  F5                G5
         PM-----|           PM----|
   H     E E  E E   H       E E E E
|-----------------|-------------------|
|-----------------|-------------------|
|-----------------|-------------------|
|--3--------------|-5-----------------|
|--3--------------|-5-----------------|
|--1-----1-1--1-1-|-3-------3-3-3-3---|
|
|  H.         Q     Q  +Q   Q   E S S
|-----------------|-------------------|
|-----------------|-------------------|
|-10---------10---|-5--(5)--4---4-5p4-|
|-----------------|-------------------|
|-----------------|-------------------|
|-----------------|-------------------|


  A5                         G5
                         PM|      PM|
  W               +Q     E E Q    E  E
|---------------|------------------------||
|---------------|-----------------------o||
|---------------|------------------------||
|-7-------------|-(7)--------5-----------||
|-7-------------|-(7)--------5----------o||
|-5-------------|-(5)----5-5-3----3--3---||
|
|      PM-----|          PM---------|
| H    E E  E E    E  E  E E E  E E  E
|---------------|------------------------||
|---------------|-----------------------o||
|-------------7-|--9--7------------------||
|-7----7-9-10---|-------10-9-7------10---||
|---------------|--------------10-8-----o||
|---------------|------------------------||


  2.
                                                                         D.S.
  F5              G5                    A5
                                                                        Gtr III
        PM----|          PM-----|                                       TP TP
   H    E E E E    H     E E  E  E        W                  +H         Q  Q
|---------------|---------------------|--------------------|-------------------|
|---------------|---------------------|--------------------|-------------------|
|---------------|---------------------|--------------------|-------------------|
|--3------------|--5------------------|---7----------------|-(7)---------------|
|--3------------|--5------------------|---7----------------|-(7)--------xs=x---|
|--1----1-1-1-1-|--3-----3-3--3--3----|---5----------------|-(5)--------xs=x---|
|
|                                                  \2.5
|  ~~~~~~~~~~~~~~~~~~                                               ~~~~
|  W               H     Q    E  S  S     H       +H          Q     H.
|---------------|---------------------|--------------------|-------------------|
|---------------|-------13---12h13p12-|-[10]----([10])-----|-------------------|
|-10------------|-12------------------|--------------------|------/12----------|
|---------------|---------------------|--------------------|-------------------|
|---------------|---------------------|--------------------|-------------------|
|---------------|---------------------|--------------------|-------------------|


 Breakdown
  A5                        F5
  Gtr I
   E  E E  E  E E  E  E   E  E  E E  E  E E  E
|-----------------------|----------------------|
|-----------------------|----------------------|
|---------------9----10-|-9-12-10-9------------|
|----10-9-12-10---12----|-----------12-10-9----|
|-12--------------------|-------------------10-|
|-----------------------|----------------------|
|
|             PM|            PM---|     PM--|
|  H          E E  Q      E  E  E E  E  E E  E
|-----------------------|----------------------|
|-----------------------|----------------------|
|--2--------------------|----------------------|
|--2---------------2----|----------------------|
|--0----------0-0--0----|----3--3-3-----3-3--3-|
|-----------------------|----1--1-1-----1-1--1-|


  G5                      D5
   E  E E  E  E E  E  E    E  E  E  E  E E  E E
|-----------------------|-----------------------|
|-----------------------|-10--------------------|
|---------------9----10-|----12-10-12-10-9----9-|
|----10-9-12-10---12----|------------------12---|
|-12--------------------|-----------------------|
|-----------------------|-----------------------|
|
|             PM|
|  H          E E  Q       H           H
|-----------------------|-----------------------|
|-----------------------|-----------------------|
|-----------------------|-----------------------|
|--5--------------------|--7-----------7--------|
|--5---------------5----|--5-----------5--------|
|--3----------3-3--3----|-----------------------|


  F5
   E  E E  E  E E  E  E   E  E  E E  E  E E  E
|-----------------------|----------------------|
|-----------------------|----------------------|
|---------------9----10-|-9-12-10-9------------|
|----10-9-12-10---12----|-----------12-10-9----|
|-12--------------------|-------------------10-|
|-----------------------|----------------------|
|
|  PM---------------------------------------|
|  E  E E  E  E E  E  E   E  E  E E  E  E E  E
|-----------------------|----------------------|
|-----------------------|----------------------|
|-----------------------|----------------------|
|-----------------------|----------------------|
|--3--------------------|----------------------|
|--1--1-1--1--1-1--1--1-|-1--1--1-1--1--1-1--1-|


  G5
   E  E E  E  E E  E  E    E  E  E E  E  E E  E
|-----------------------|-----------------------|
|-----------------------|-10--------------------|
|---------------9----10-|----12-10-9------------|
|----10-9-12-10---12----|------------12-10-9----|
|-12--------------------|--------------------10-|
|-----------------------|-----------------------|
|
|       PM-----------------------------------|
|  Q    E  E  E E  E  E    E  E  E E  E  E E  E
|-----------------------|-----------------------|
|-----------------------|-----------------------|
|-----------------------|-----------------------|
|-----------------------|-----------------------|
|--5--------------------|-----------------------|
|--3----3--3--3-3--3--3-|--3--3--3-3--3--3-3--3-|


   Interlude
    A                         F
     PM|      PM    PM    PM-----------|         PM----
     E  E  E  E  E  E  E  E    E  E  E  E  E  E  E  E
||--------------------------|-------------------------|
||o-------------------------|-------------------------|
||--------------------------|-10-10----10-12p10----10-|
||--------14----12----14----|-------10----------10----|
||o-12-12----12----12----12-|-------------------------|
||--------------------------|-------------------------|
|
|    PM|      PM    PM    PM-----------|         PM----
|    E  E  E  E  E  E  E  E    E  E  E  E  E  E  E  E
||--------------------------|-------------------------|
||o-------17----15----17----|-18-18----18-20p18----18-|
||--14-14----14----14----14-|-------17----------17----|
||--------------------------|-------------------------|
||o-------------------------|-------------------------|
||--------------------------|-------------------------|


  G                               A
 ----|        PM      PM      PM-----|                         ~~~~~~~~~~~
   E  E   E   E   E   E   E   E    E  E  E  E   E    E        +E     +E
|-------------------------------|------------------------------------------|
|-------[15]----[13]----[15]----|------------------------------------------|
|-12-12------12------12------12-|-------14-12-[14]-[14]b16==([14])r([14])--|
|-------------------------------|-12-12------------------------------------|
|-------------------------------|------------------------------------------|
|-------------------------------|------------------------------------------|
|
|----|        PM      PM      PM-----|                         ~~~~~~~
|  E  E   E   E   E   E   E   E    E  E  E  E   E    E        +E     +E
|-------------------------------|------------------------------------------|
|-------[15]----[13]----[15]----|------------------------------------------|
|-12-12------12------12------12-|-14-14--x-12-[14]-[14]b16==([14])r([14])--|
|-------------------------------|------------------------------------------|
|-------------------------------|------------------------------------------|
|-------------------------------|------------------------------------------|


  A                         F
   PM|      PM    PM    PM-----------|         PM----
   E  E  E  E  E  E  E  E    E  E  E  E  E  E  E  E
|-------------------------|-------------------------|
|-------------------------|-------------------------|
|-------------------------|-10-10----10-12p10----10-|
|-------14----12----14----|-------10----------10----|
|-12-12----12----12----12-|-------------------------|
|-------------------------|-------------------------|
|
|  PM|      PM    PM    PM-----------|         PM----
|  E  E  E  E  E  E  E  E    E  E  E  E  E  E  E  E
|-------------------------|-------------------------|
|-------17----15----17----|-18-18----18-20p18----18-|
|-14-14----14----14----14-|-------17----------17----|
|-------------------------|-------------------------|
|-------------------------|-------------------------|
|-------------------------|-------------------------|


  G                               A
 ----|        PM      PM      PM-----|        ~~
   E  E   E   E   E   E   E   E    E E  E  E  H
|-------------------------------|-------------------||
|-------[15]----[13]----[15]----|------------------o||
|-12-12------12------12------12-|-14-x-14-12-14-----||
|-------------------------------|-------------------||
|-------------------------------|------------------o||
|-------------------------------|-------------------||
|
|----|        PM      PM      PM-----|        ~~
|  E  E   E   E   E   E   E   E    E E  E  E  H
|-------------------------------|-------------------||
|-------[15]----[13]----[15]----|------------------o||
|-12-12------12------12------12-|-14-x-14-12-14-----||
|-------------------------------|-------------------||
|-------------------------------|------------------o||
|-------------------------------|-------------------||


 Guitar Solo
  A5               E5
                    ~~~~~~          ~~~
   Q.   Q.    Q     H         +E    Q.
|----------------|--------------------------|
|----------------|--------------------------|
|-------9----12--|-12b14=====(12)r-12-------|
|-/7-------------|--------------------------|
|----------------|--------------------------|
|----------------|--------------------------|
|
|                              PM------|
|  W                H          e    S  S Q
|----------------|--------------------------|
|----------------|--------------------------|
|----------------|--------------------------|
|--2-------------|--------------------------|
|--0-------------|--2--------------------2--|
|----------------|--0----------0----0--0-0--|


  A5                                     C5          C5
                                          ~~
   Q.      Q          +Q          S  S    W
|--------------------------------------|------------------------|
|-12b13---12b13======(12)r-------12p10-|------------------------|
|--------------------------------------|-12---------------------|
|--------------------------------------|------------------------|
|--------------------------------------|------------------------|
|--------------------------------------|------------------------|
|
|                PM-----------------|        PM----|    PM----|
|  H             S S   S   S S S  S  S    Q  S S S S Q  S S S S
|--------------------------------------|------------------------|
|--------------------------------------|------------------------|
|--------------------------------------|------------------------|
|--2-----------------------------------|--5----------5----------|
|--0-------------0-0---0---0-2-2--3--3-|--3--3-3-3-3-3--3-3-3-3-|
|--------------------------------------|------------------------|


  D5                      D5
   S  S  S  S  S  S  S  S  S  S  S  S  S  S  S  S
|-12----------------------------------------------|
|----15-13-12-15-13-12-12-13-12-15-13-12-12-13-12-|
|-------------------------------------------------|
|-------------------------------------------------|
|-------------------------------------------------|
|-------------------------------------------------|
|
|              PM------|               PM------|
|  Q           S  S  S  S  Q           S  S  S  S
|-------------------------------------------------|
|-------------------------------------------------|
|-------------------------------------------------|
|--7-----------------------7----------------------|
|--5-----------5--5--5--5--5-----------5--5--5--5-|
|-------------------------------------------------|


  G5                      G5
   S  S  S  S  S  S  S  S  S  S  S  S  E   E
|-------------------------------------12-------|
|-15-13-12-12-13-12-15-13-12-13-12-12----------|
|----------------------------------------------|
|----------------------------------------------|
|----------------------------------------------|
|----------------------------------------------|
|
|              PM------|               PM----|
|  Q           S  S  S  S  Q           S S S S
|----------------------------------------------|
|----------------------------------------------|
|----------------------------------------------|
|----------------------------------------------|
|--5-----------------------5-------------------|
|--3-----------3--3--3--3--3-----------3-3-3-3-|


  A5                      A5
   S  S  S  S  S  S  S  S  S  S  S  S  S  S  S  S
|-17-15-13-12-------12----------------------------|
|-------------15-13----15-13-12-------13-12-------|
|-------------------------------14-12-------14-12-|
|-------------------------------------------------|
|-------------------------------------------------|
|-------------------------------------------------|
|
|              PM------|               PM------|
|  Q           S  S  S  S  Q           S  S  S  S
|-------------------------------------------------|
|-------------------------------------------------|
|-------------------------------------------------|
|-------------------------------------------------|
|--7-----------------------7----------------------|
|--5-----------5--5--5--5--5-----------5--5--5--5-|


  A5                     G5
   S  S  S  S  S  S  S S  Q   +Q
|-----------------------------------|
|-----------------------------------|
|-10----12-10-----------------------|
|----14-------14-12-10-9------------|
|------------------------12--(12)\--|
|-----------------------------------|
|
|              PM------|
|  Q           S  S  S S  H
|-----------------------------------|
|-----------------------------------|
|-----------------------------------|
|-----------------------------------|
|--7----------------------5---------|
|--5-----------5--5--5-5--3---------|


 2 Guitar Solo
  A5                                           E5
                                                                              ~~~
   H                 E       +E     E    E      E  E    +E        +E     E    Q.
|--------------------------------------------|-12-15---(15)b17r==(15)---14-----------------|
|-15b17-------------15b17r==(15)---12---15---|-------------------------------15------------|
|--------------------------------------------|---------------------------------------------|
|--------------------------------------------|---------------------------------------------|
|--------------------------------------------|---------------------------------------------|
|--------------------------------------------|---------------------------------------------|
|
|       PM---------------------------------|       PM------------------------------------|
|  E    S S S S S S  S    S   S  S  S S  S S    E  S S   S     S   S  S  S S  S  S S S S S
|--------------------------------------------|---------------------------------------------|
|--------------------------------------------|---------------------------------------------|
|--------------------------------------------|---------------------------------------------|
|--------------------------------------------|---------------------------------------------|
|--7-----------------------------------------|--2------------------------------------------|
|--5----5-5-5-5-5-5--5----5---5--5--5-5--5-5-|--0--0-0---0-----0---0--0--0-0--0--0-0-0-0-0-|


  A5                                                        C5
   |---3---|    |----3----|    |----3----|    |---3---|      |-3-|
   E  E    E    E    E    E    E    E    E    E   E   E      E E E Q       H
|-17-15---14----------------------------------------------|--------------------------------|
|--------------17---15---13-------------------------------|--------------------------------|
|-----------------------------16---14---12---10---9---7---|--------------------------------|
|---------------------------------------------------------|-10-9-7-5-----------------------|
|---------------------------------------------------------|----------------7---------------|
|---------------------------------------------------------|--------------------------------|
|
|       PM----------------------------------------------|          PM--------------------|
|  E    S    S  S S    S    S  S S    S    S  S S   S   S    Q     S S S S S S S S S S S S
|---------------------------------------------------------|--------------------------------|
|---------------------------------------------------------|--------------------------------|
|---------------------------------------------------------|--------------------------------|
|---------------------------------------------------------|--5-----------------------------|
|--7------------------------------------------------------|--3-----3-3-3-3-3-3-3-3-3-3-3-3-|
|--5----5----5--5-5----5----5--5-5----5----5--5-5---5---5-|--------------------------------|


  F5
  |---------8:6---------|  |---3---|  |------------8:6-------------|  |---3---|
  S S S    S S S   S    S  S  S    S  S  S    S    S  S  S    S    S  S  S    S
|-------------------------------------------------------------------------------|
|-------------------------------------------------------------------------------|
|-------------------------------------------------12--------------12-12-13---14-|
|------------------------------------12-13---14------12-13---14-----------------|
|-7-8-9---10-7-8---9---10-10-11---12--------------------------------------------|
|-------------------------------------------------------------------------------|
|
|       PM-----------------------------------------------------------------|
| E     S    S   S   S     S    S     S    S    S     S    S    S     S    S
|-------------------------------------------------------------------------------|
|-------------------------------------------------------------------------------|
|-------------------------------------------------------------------------------|
|-------------------------------------------------------------------------------|
|-3-----------------------------------------------------------------------------|
|-1-----1----1---1---1-----1----1-----1----1----1-----1----1----1-----1----1----|


  G5
   |-----------8:6------------|  |---3---|
   S  S  S    S  S  S    S    S  S  S    S  Q            a       +Q
|-----------------------------------------------------------------------------|
|------------13-13-------------------------15b17-------[17]pb19r(17)----------|
|-12-13-14---------14---13---12-12-13---14------------------------------------|
|-----------------------------------------------------------------------------|
|-----------------------------------------------------------------------------|
|-----------------------------------------------------------------------------|
|
|          PM------------------------------------------------------------|
|  E       S     S    S    S     S    S     S    S S S            S  S S S
|-----------------------------------------------------------------------------|
|-----------------------------------------------------------------------------|
|-----------------------------------------------------------------------------|
|-----------------------------------------------------------------------------|
|--5--------------------------------------------------------------------------|
|--3-------3-----3----3----3-----3----3-----3----3-3-3------------3--3-3-3----|


  A5
   S  S  S  S  S  S  S  S  S  S  S  S  S  S  S  S
|-15p12----12h15p12----12h15p12----12h15p12----12h|
|-------15----------15----------15----------15----|
|-------------------------------------------------|
|-------------------------------------------------|
|-------------------------------------------------|
|-------------------------------------------------|
|
|        PM----------------------------------------
|  E     S  S  S  S  S  S  S  S  S  S  S  S  S  S
|-------------------------------------------------|
|-------------------------------------------------|
|-------------------------------------------------|
|-------------------------------------------------|
|--7----------------------------------------------|
|--5-----5--5--5--5--5--5--5--5--5--5--5--5--5--5-|


                          G5
   S  S  S  S  S  S  S  S  S  S  S  S  S  S  S  S
|-17p12----12h17p12----12h17p12----12h17-12----12-|
|-------15----------15----------15----------15----|
|-------------------------------------------------|
|-------------------------------------------------|
|-------------------------------------------------|
|-------------------------------------------------|
|
|----------------------|
|  S  S  S  S  S  S  S  S  H
|-------------------------------------------------|
|-------------------------------------------------|
|-------------------------------------------------|
|-------------------------------------------------|
|--------------------------5----------------------|
|--5--5--5--5--5--5--5--5--3----------------------|


 Keyboard Solo
  A5
           \0.5/     \0.5/            \2
   Q      +E        +E        +E     +Q.
|-17-----(17)------(17)------(17)---(17)-----------|
|--------------------------------------------------|
|--------------------------------------------------|
|--------------------------------------------------|
|--------------------------------------------------|
|--------------------------------------------------|
|
|  PM-----------------------------------------------
|  E S S   S     S   S     S   S  S   S  S S S S S
|--------------------------------------------------|
|--------------------------------------------------|
|--------------------------------------------------|
|--------------------------------------------------|
|--7-----------------------------------------------|
|--5-5-5---5-----5---5-----5---5--5---5--5-5-5-5-5-|


  G#
  W
|---------------------------------|
|---------------------------------|
|---------------------------------|
|---------------------------------|
|---------------------------------|
|---------------------------------|
|
|-------------------------------|
| S S S S S S S S S S S S S S S S
|---------------------------------|
|---------------------------------|
|---------------------------------|
|---------------------------------|
|---------------------------------|
|-4-4-4-4-4-4-4-4-4-4-4-4-4-4-4-4-|


  G                                 D
  PM--------------------------------------------------------------|
  S S S S S S S S S S S S S S S S   S S S S S S S S S S S S S S S S
|---------------------------------|---------------------------------|
|---------------------------------|---------------------------------|
|---------------------------------|---------------------------------|
|---------------------------------|---------------------------------|
|---------------------------------|-5-5-5-5-5-5-5-5-5-5-5-5-5-5-5-5-|
|-3-3-3-3-3-3-3-3-3-3-3-3-3-3-3-3-|---------------------------------|
|
| PM--------------------------------------------------------------|
| S S S S S S S S S S S S S S S S   S S S S S S S S S S S S S S S S
|---------------------------------|---------------------------------|
|---------------------------------|---------------------------------|
|---------------------------------|---------------------------------|
|---------------------------------|---------------------------------|
|---------------------------------|---------------------------------|
|-3-3-3-3-3-3-3-3-3-3-3-3-3-3-3-3-|-2-2-2-2-2-2-2-2-2-2-2-2-2-2-2-2-|


  F5
       PM----------------------------------------------------------|
   E   S S S S S S S S S S S S S S   S S S S S S S S S S S S S S S S
|----------------------------------|---------------------------------|
|----------------------------------|---------------------------------|
|----------------------------------|---------------------------------|
|-10-------------------------------|---------------------------------|
|--8---8-8-8-8-8-8-8-8-8-8-8-8-8-8-|-8-8-8-8-8-8-8-8-8-8-8-8-8-8-8-8-|
|----------------------------------|---------------------------------|
|
|  PM--------------------------------------------------------------|
|  S S S S S S S S S S S S S S S S   S S S S S S S S S S S S S S S S
|----------------------------------|---------------------------------|
|----------------------------------|---------------------------------|
|----------------------------------|---------------------------------|
|----------------------------------|---------------------------------|
|----------------------------------|---------------------------------|
|--1-1-1-1-1-1-1-1-1-1-1-1-1-1-1-1-|-1-1-1-1-1-1-1-1-1-1-1-1-1-1-1-1-|


  G
   PM----------------------------------------------
   S  S  S  S  S  S  S  S  S  S  S  S  S  S  S  S
|-------------------------------------------------|
|-------------------------------------------------|
|-------------------------------------------------|
|-------------------------------------------------|
|-10-10-10-10-10-10-10-10-10-10-10-10-10-10-10-10-|
|-------------------------------------------------|
|
|  PM----------------------------------------------
|  S  S  S  S  S  S  S  S  S  S  S  S  S  S  S  S
|-------------------------------------------------|
|-------------------------------------------------|
|-------------------------------------------------|
|-------------------------------------------------|
|-------------------------------------------------|
|--3--3--3--3--3--3--3--3--3--3--3--3--3--3--3--3-|


                                                    A
 ----------------------------------------------|
   S  S  S  S  S  S  S  S  S  S  S  S  S  S  S  S    W
|-------------------------------------------------|-------|
|-------------------------------------------------|-------|
|-------------------------------------------------|-------|
|-------------------------------------------------|-------|
|-10-10-10-10-10-10-10-10-10-10-10-10-10-10-10-10-|-12----|
|-------------------------------------------------|-------|
|
|----------------------------------------------|
|  S  S  S  S  S  S  S  S  S  S  S  S  S  S  S  S    W
|-------------------------------------------------|-------|
|-------------------------------------------------|-------|
|-------------------------------------------------|-------|
|-------------------------------------------------|-------|
|-------------------------------------------------|-------|
|--3--3--3--3--3--3--3--3--3--3--3--3--3--3--3--3-|--5----|


 Out-Chorus
  A5             D5                    G5             F5      E5
   W              W                     W              H       H
|--------------|---------------------|--------------|-----------------|
|--------------|---------------------|--------------|-----------------|
|--------------|--7------------------|--------------|-----------------|
|--7-----------|--7------------------|--5-----------|--3-------2------|
|--7-----------|--5------------------|--5-----------|--3-------2------|
|--5-----------|---------------------|--3-----------|--1-------0------|
|
|  H.       Q     Q   Q   Q       Q     H.       Q     Q   Q   Q   Q
|----------12--|---------12tr13------|--------------|-----------------|
|--------------|-15--13----------15--|--------------|-----------------|
|-14-----------|---------------------|-12-------14--|-12------14--13--|
|--------------|---------------------|--------------|-----14----------|
|--------------|---------------------|--------------|-----------------|
|--------------|---------------------|--------------|-----------------|


  A5             C5                    E5                F5
                                                          PM|
   W              W                     W                 e e  Q   H
|--------------|---------------------|-----------------|-----------------------|
|--------------|---------------------|-----------------|-----------------------|
|--------------|--5------------------|-----------------|-----------------------|
|--7-----------|--5------------------|--2--------------|-----------------------|
|--7-----------|--3------------------|--2--------------|--3-3------------------|
|--5-----------|---------------------|--0--------------|--1-1------------------|
|
|                                                                          ~~~~
|  H.       Q     Q   Q   Q       Q     H.       Q        Q    Q   Q      +Q
|----------12--|---------12tr13------|-----------------|-----------------------|
|--------------|-15--13----------15--|----------13b15--|-13---12--12b13r=(12)--|
|-14-----------|---------------------|-12--------------|-----------------------|
|--------------|---------------------|-----------------|-----------------------|
|--------------|---------------------|-----------------|-----------------------|
|--------------|---------------------|-----------------|-----------------------|


  A5                                 D5
      PM-------------------------|      PM-------------------------------|
   E  S S S S S S S S S S  S S S S    E S S  S S S S  S     S S S  S S S S
|----------------------------------|----------------------------------------|
|----------------------------------|----------------------------------------|
|----------------------------------|----------------------------------------|
|----------------------------------|--7-------------------------------------|
|--7-------------------------------|--5-5-5--5-5-5-5--5-----5-5-5--5-5-5-5--|
|--5--5-5-5-5-5-5-5-5-5-5--5-5-5-5-|----------------------------------------|
|
|  H.                      Q          Q      Q        Q            Q
|-------------------------12-------|-----------------12tr13-----------------|
|----------------------------------|-15-----13--------------------15--------|
|-14-------------------------------|----------------------------------------|
|----------------------------------|----------------------------------------|
|----------------------------------|----------------------------------------|
|----------------------------------|----------------------------------------|


  G5                                 F5              E5
      PM-------------------------|      PM---------|    PM---------|
   E  S S S S S S S S S S  S S S S    E S S  S S S S  E S S  S S S S
|----------------------------------|---------------------------------|
|----------------------------------|---------------------------------|
|----------------------------------|---------------------------------|
|----------------------------------|---------------------------------|
|--5-------------------------------|--3---------------2--------------|
|--3--3-3-3-3-3-3-3-3-3-3--3-3-3-3-|--1-1-1--1-1-1-1--0-0-0--0-0-0-0-|
|
|  H.                      Q          Q      Q        Q      Q
|----------------------------------|---------------------------------|
|----------------------------------|------------------------12-------|
|-12----------------------14-------|-12--------------14--------------|
|----------------------------------|--------14-----------------------|
|----------------------------------|---------------------------------|
|----------------------------------|---------------------------------|


  A5                                 C5
      PM-------------------------|      PM-------------------------------|
   E  S S S S S S S S S S  S S S S    E S S  S S S S  S     S S S  S S S S
|----------------------------------|----------------------------------------|
|----------------------------------|----------------------------------------|
|----------------------------------|----------------------------------------|
|----------------------------------|--5-------------------------------------|
|--7-------------------------------|--3-3-3--3-3-3-3--3-----3-3-3--3-3-3-3--|
|--5--5-5-5-5-5-5-5-5-5-5--5-5-5-5-|----------------------------------------|
|
|  H.                      Q          Q      Q        Q            Q
|-------------------------12-------|-----------------12tr13-----------------|
|----------------------------------|-15-----13--------------------15--------|
|-14-------------------------------|----------------------------------------|
|----------------------------------|----------------------------------------|
|----------------------------------|----------------------------------------|
|----------------------------------|----------------------------------------|


  E5
      PM----------------------------|
   E  S S S S S S S S S S  S    S S S
|-------------------------------------|
|-------------------------------------|
|-------------------------------------|
|-------------------------------------|
|--2----------------------------------|
|--0--0-0-0-0-0-0-0-0-0-0--0----0-0-0-|
|
|  H.                      Q
|-------------------------------------|
|-------------------------13b15-------|
|-12----------------------------------|
|-------------------------------------|
|-------------------------------------|
|-------------------------------------|


  F5
     PM------------------------------------|
   E S S  S S S S   S     S S S    S   S S S
|---------------------------------------------|
|---------------------------------------------|
|---------------------------------------------|
|---------------------------------------------|
|--3------------------------------------------|
|--1-1-1--1-1-1-1---1-----1-1-1----1---1-1-1--|
|
|  Q      Q         Q             +Q
|---------------------------------------------|
|-13-----12-------[12]b13r======([12])--------|
|---------------------------------------------|
|---------------------------------------------|
|---------------------------------------------|
|---------------------------------------------|


 Outro
  F5                                F5
   E  E E  E  E E  E  E    E   E  E E  E  E E  E
|-----------------------|------------------------|
|-----------------------|------------------------|
|---------------9----10-|--9--12-10-9------------|
|----10-9-12-10---12----|-------------12-10-9----|
|-12--------------------|---------------------10-|
|-----------------------|------------------------|
|
|                                 PM|     PM--|
|  W                      +Q      E E  E  E E  E
|-----------------------|------------------------|
|-----------------------|------------------------|
|-----------------------|------------------------|
|--3--------------------|-(3)--------------------|
|--3--------------------|-(3)-------3------------|
|--1--------------------|-(1)-----1-1-----1-1--1-|


  G5                                       G5
   |--3--|  |--3--|  |--3--|
   E  E  E  E  E  E  E  E  E  Q     Q    Q    Q    Q
|----------------------------12--|-----------12---15----|
|----------12h13h15-12h13h15-----|-13---15--------------|
|-14h16h17-----------------------|----------------------|
|--------------------------------|----------------------|
|--------------------------------|----------------------|
|--------------------------------|----------------------|
|
|                                        PM----------|
|  W                               +Q    E E  E E  E E
|--------------------------------|----------------------|
|--------------------------------|----------------------|
|--------------------------------|----------------------|
|--5-----------------------------|-(5)------------------|
|--5-----------------------------|-(5)-----5------------|
|--3-----------------------------|-(3)---3-3----3--3-3--|


  A5        C     B     A
   ~~~~~~~~~~~~~~~~~~~~
   W               +H       +Q    Q
|-17------------|-(17)-----(17)\-----*|
|---------------|--------------------*|
|---------------|--------------------*|
|---------------|--------------------*|
|---------------|--------------------*|
|---------------|--------------------*|
|
|  H    E E  Q      Q   Q   +Q    Q
|---------------|--------------------*|
|---------------|--------------------*|
|---------------|--------------------*|
|-----------10--|---9---7---(7)\-----*|
|--7------------|--------------------*|
|--5----x-x--8--|---7---5---(5)\-----*|


Duration Legend
---------------
W - whole; H - half; Q - quarter; E - 8th; S - 16th; T - 32nd; X - 64th; a - acciaccatura
+ - note tied to previous; . - note dotted; .. - note double dotted
Uncapitalized letters represent notes that are staccato (1/2 duration)
Irregular groupings are notated above the duration line
Duration letters will always appear directly above the note/fret number it represents the
duration for.  Duration letters with no fret number below them represent rests.  Multi-
bar rests are notated in the form Wxn, where n is the number of bars to rest for.  Low
melody durations appear below the staff

Tablature Legend
----------------
 h   - hammer-on
 p   - pull-off
 b   - bend
 pb  - pre-bend
 r   - bend release (if no number after the r, then release immediately)
 /\  - slide into or out of (from/to "nowhere")
 s   - legato slide
 S   - shift slide
<n>  - natural harmonic
[n]  - artificial harmonic
n(n) - tapped harmonic
 ~   - vibrato
 tr  - trill
 T   - tap
 TP  - trem. picking
 PM  - palm muting
\n/  - tremolo bar dip; n = amount to dip
 \n  - tremolo bar down
 n/  - tremolo bar up
/n\  - tremolo bar inverted dip
 =   - hold bend; also acts as connecting device for hammers/pulls
 <>  - volume swell (louder/softer)
 x   - on rhythm slash represents muted slash
 o   - on rhythm slash represents single note slash

Misc Legend
-----------
 |  - bar
||  - double bar
||o - repeat start
o|| - repeat end
*|  - double bar (ending)
 :  - bar (freetime)
 $  - Segno
 &  - Coda
Tempo markers - <E/E./Q/Q./H/H.> = BPM(8/16=s8/s16), where s8 = swing 8ths, s16 = swing 16ths


***************************************************************************************
* Generated using Power Tab Editor by Brad Larsen - http://powertab.guitarnetwork.org *
***************************************************************************************
comments
We did not receive enough feedback on this tab! Please rate:
print report bad tab
1 2 3 4 5
5 comments total. Showing first comments.
0 reply
MissManson567 wrote on February 16 2008, 01:57 pm

The chorus on this tab is amazing!
Well done!

0 reply
zjmellet wrote on August 15 2008, 08:32 pm

HELL YEAH IT'S AMAZING!

0 reply
zjmellet wrote on August 16 2008, 12:56 pm

|-17-15-13-12-------12----------------------------|
|-------------15-13----15-13-12-------13-12-------|
|-------------------------------14-12-------14-12-|
|-------------------------------------------------|
|-------------------------------------------------|
|-------------------------------------------------|

That part of the solo should be played like this

|-17-15-13------------------------------------------|
|----------17-15-13---17-15-13----------13-12-------|
|------------------------------16-14-12-------14-12-|
|---------------------------------------------------|
|---------------------------------------------------|
|---------------------------------------------------|

I want to post or [tab]
guest
You may want to rate the tab now too:
select rating
Please do not post tabs as comments. Select "correction" instead!