Oops, an error
Loading. Please wait.

Nothing Tab

ver1
ver1

Whole song

Interactive

More versions @911Tabs.com
2,503 views 9 this week
1 commentread comment
1 2 3 4 5
accurate
x 1
Autoscroll
+/-
esc
set tempo
stop
Contributor
Hey! There's an official Ultimate Guitar app which is ideal
for learning songs when you're away from computer. Get the app
WARNING: You are trying to view
                                    content from Ultimate-Guitar.com
                                    in an unauthorized application,
                                    which is prohibited.

                                    Please use an official Ultimate
                                    Guitar Tabs application for iPhone,
                                    iPad or Android to access legitimate
                                    chords, guitar, bass, and drum tabs
                                    from Ultimate-Guitar.com database.

                                    Type "ultimate guitar tabs" in Apple
                                    App Store's or Android Market's
                                    search to find the application.
i haven't been able to tab out the solos, so if anyone has them tabbed,
please email me at the_bullets_breath_@hotmail.com

#----------------------------------PLEASE NOTE---------------------------------#
#This file is the author's own work and represents their interpretation of the #
#song. You may only use this file for private study, scholarship, or research. #
#------------------------------------------------------------------------------##


Gtr I (D G C F A D) - 'Petri Lindroos'
Gtr II (D G C F A D) - 'Kristian Ranta'

    Q=100
    Gtr I
    S S S S E S S S S S E  E  S S S S S E S S S S S E S E
||--------------------------------------------------------|
||o-------------------------------------------------------|
||--------------------------------------------------------|
||----------2---------------------------2-----------------|
||o---------2---------------------------2-----------------|
||--0-0-0-0---0---0-0-0---------0-0-0-0---0---0-0-0-------|
|
|   Gtr II
|   S S S S E S S S S S E  E  S S S S S E S S S S S S E E
||--------------------------------------------------------|
||o-------------------------------------------------------|
||--------------------------------------------------------|
||----------2---------------------------2-----------------|
||o---------2---------------------------2-----------------|
||--0-0-0-0---0---0-0-0---------0-0-0-0---0---0-0-0-------|


  Gtr I
  S S S S E S S S S S E  E  S S S S S E S S S S S S E  E
|----------------------------------------------------------||
|---------------------------------------------------------o||
|----------------------------------------------------------||
|---------5---------------------------5--------------------||
|---------5---------------------------5-------------------o||
|-3-3-3-3---3---3-3-3---------3-3-3-3---3---3-3-3----------||
|
| Gtr II
| S S S S E S S S S S E  E  S S S S S E S S S S S S E  E
|----------------------------------------------------------||
|---------------------------------------------------------o||
|----------------------------------------------------------||
|---------5---------------------------5--------------------||
|---------5---------------------------5-------------------o||
|-3-3-3-3---3---3-3-3---------3-3-3-3---3---3-3-3----------||


    Gtr I
    S S S S E S S S S S E  E  S S S S S E S S S S S S E  E
||---------------------------------------------------------|
||o--------------------------------------------------------|
||---------------------------------------------------------|
||----------2---------------------------2------------------|
||o---------2---------------------------2------------------|
||--0-0-0-0---0---0-0-0---------0-0-0-0---0---0-0-0--------|
|
|   Gtr II
|   S S S S E S S S S S E  E  S S S S S E S S S S S S E  E
||---------------------------------------------------------|
||o--------------------------------------------------------|
||---------------------------------------------------------|
||----------2---------------------------2------------------|
||o---------2---------------------------2------------------|
||--0-0-0-0---0---0-0-0---------0-0-0-0---0---0-0-0--------|


  Gtr I
  S S S S E S S S S S E E S S S S S E S S S S E S S E  4x
|------------------------------------------------------||
|-----------------------------------------------------o||
|------------------------------------------------------||
|---------5-------------------------5------------------||
|---------5-------------------------5---------5-----7-o||
|-3-3-3-3---3---3-3-3-------3-3-3-3---3---3-3-3-5-5-5--||
|
| Gtr II
| S S S S E S S S S S E E S S S S S E S S S S E S S E  4x
|------------------------------------------------------||
|-----------------------------------------------------o||
|------------------------------------------------------||
|---------5-------------------------5------------------||
|---------5-------------------------5---------5-----7-o||
|-3-3-3-3---3---3-3-3-------3-3-3-3---3---3-3-3-5-5-5--||


    Gtr I
    H               H               W
||-----------------------------------------------------------------|
||o----------------------------------------------------------------|
||----------------------------------2------------------------------|
||------------------5---------------0------------------------------|
||o-2---------------3----------------------------------------------|
||--0--------------------------------------------------------------|
|
|   Gtr II
|   S S S S S S S S S S S S S S S S S S S S S S S S S S S S S S S S
||--7-0-0-5-0-0-7-0-3-0-0-5-0-0-7-0-8-0-0-7-0-0-8-0-3-0-0-2-0-0----|
||o-------------------------------------------------------------3-0|
||-----------------------------------------------------------------|
||-----------------------------------------------------------------|
||o----------------------------------------------------------------|
||-----------------------------------------------------------------|


  Gtr I
  H               H               W
|-------------------------------------------------------------------||
|------------------------------------------------------------------o||
|---------------------------------2---------------------------------||
|-----------------5---------------0---------------------------------||
|-2---------------3------------------------------------------------o||
|-0-----------------------------------------------------------------||
|
| Gtr II
| S S S S S S S S S S S S S S S S S S S S S S S S  S S S S S S S S
|-7-0-0-5-0-0-7-0-3-0-0-5-0-0-7-0-8-0-0-7-0-0-8-0-10-0-0-8-0-0-7-0--||
|------------------------------------------------------------------o||
|-------------------------------------------------------------------||
|-------------------------------------------------------------------||
|------------------------------------------------------------------o||
|-------------------------------------------------------------------||


    Gtr I
    S S S S E S S S S S E E S S S S S E S S S S S S S S S S
||----------------------------------------------------------|
||o---------------------------------------------------------|
||----------------------------------------------------------|
||----------2-------------------------2---------------------|
||o---------2-------------------------2---------------------|
||--0-0-0-0---0---0-0-0-------0-0-0-0---0---0-0-0-------0-0-|
|
|   Gtr II
|   S S S S E S S S S S E E S S S S S E S S S S S S S S S S
||----------------------------------------------------------|
||o---------------------------------------------------------|
||----------------------------------------------------------|
||----------2-------------------------2---------------------|
||o---------2-------------------------2---------------------|
||--0-0-0-0---0---0-0-0-------0-0-0-0---0---0-0-0-------0-0-|


  Gtr I
  S S S S E S S S S S E E S S S S S E S S  E E E  E
|------------------------------------------------------||
|-----------------------------------------------------o||
|------------------------------------------------------||
|---------5-------------------------5------9-7-5-------||
|---------5-------------------------5-------------9---o||
|-3-3-3-3---3---3-3-3-------3-3-3-3---3----------------||
|
| Gtr II
| S S S S E S S S S S E E S S S S S E S S  E E E  E
|------------------------------------------------------||
|-----------------------------------------------------o||
|------------------------------------------------------||
|---------5-------------------------5------------------||
|---------5-------------------------5-----10-9-7------o||
|-3-3-3-3---3---3-3-3-------3-3-3-3---3----------10----||


    Gtr I
    S S S S E S S S S S E  E  S S S S S E S S S S S S E  E
||---------------------------------------------------------|
||o--------------------------------------------------------|
||---------------------------------------------------------|
||----------2---------------------------2------------------|
||o---------2---------------------------2------------------|
||--0-0-0-0---0---0-0-0---------0-0-0-0---0---0-0-0--------|
|
|   Gtr II
|   S S S S E S S S S S E  E  S S S S S E S S S S S S E  E
||---------------------------------------------------------|
||o--------------------------------------------------------|
||---------------------------------------------------------|
||----------2---------------------------2------------------|
||o---------2---------------------------2------------------|
||--0-0-0-0---0---0-0-0---------0-0-0-0---0---0-0-0--------|


  Gtr I
  S S S S E S S S S S E E S S S S S E S S S S E S S E
|------------------------------------------------------||
|-----------------------------------------------------o||
|------------------------------------------------------||
|---------5-------------------------5------------------||
|---------5-------------------------5---------5-----7-o||
|-3-3-3-3---3---3-3-3-------3-3-3-3---3---3-3-3-5-5-5--||
|
| Gtr II
| S S S S E S S S S S E E S S S S S E S S S S E S S E
|------------------------------------------------------||
|-----------------------------------------------------o||
|------------------------------------------------------||
|---------5-------------------------5------------------||
|---------5-------------------------5---------5-----7-o||
|-3-3-3-3---3---3-3-3-------3-3-3-3---3---3-3-3-5-5-5--||


    Gtr I
    H               H               W
||-----------------------------------------------------------------|
||o----------------------------------------------------------------|
||----------------------------------2------------------------------|
||------------------5---------------0------------------------------|
||o-2---------------3----------------------------------------------|
||--0--------------------------------------------------------------|
|
|   Gtr II
|   S S S S S S S S S S S S S S S S S S S S S S S S S S S S S S S S
||--7-0-0-5-0-0-7-0-3-0-0-5-0-0-7-0-8-0-0-7-0-0-8-0-3-0-0-2-0-0----|
||o-------------------------------------------------------------3-0|
||-----------------------------------------------------------------|
||-----------------------------------------------------------------|
||o----------------------------------------------------------------|
||-----------------------------------------------------------------|


  Gtr I
  H               H               W
|-------------------------------------------------------------------||
|------------------------------------------------------------------o||
|---------------------------------2---------------------------------||
|-----------------5---------------0---------------------------------||
|-2---------------3------------------------------------------------o||
|-0-----------------------------------------------------------------||
|
| Gtr II
| S S S S S S S S S S S S S S S S S S S S S S S S  S S S S S S S S
|-7-0-0-5-0-0-7-0-3-0-0-5-0-0-7-0-8-0-0-7-0-0-8-0-10-0-0-8-0-0-7-0--||
|------------------------------------------------------------------o||
|-------------------------------------------------------------------||
|-------------------------------------------------------------------||
|------------------------------------------------------------------o||
|-------------------------------------------------------------------||


    Gtr I
    E S S H     +Q        E S S H     +Q
||----------------------|---------------------|
||o---------------------|---------------------|
||----------------------|---------------------|
||--2-x-x-2-----(2)-----|-2-x-x-2-----(2)-----|
||o-2-x-x-2-----(2)-----|-2-x-x-2-----(2)-----|
||--0-x-x-0-----(0)-----|-0-x-x-0-----(0)-----|
|
|   Gtr II
|   E S S E H       +E    E S S E H       +E
||----------------------|---------------------|
||o---------------------|---------------------|
||----------------------|---------------------|
||--------5-4-------(4)-|-------5-4-------(4)-|
||o-7-x-x---------------|-7-x-x---------------|
||----------------------|---------------------|


  Gtr I
  E S S H     +Q        E S S H        +Q
|---------------------|-------------------------||
|---------------------|------------------------o||
|---------------------|-------------------------||
|-5-x-x-5-----(5)-----|-5-x-x-5--------(5)------||
|-5-x-x-5-----(5)-----|-5-x-x-5--------(5)-----o||
|-3-x-x-3-----(3)-----|-3-x-x-3--------(3)------||
|
| Gtr II
| E S S E H       +E    E S S E Q  +E   E  +S
|---------------------|-------------------------||
|---------------------|------------------------o||
|---------------------|-------------------------||
|-------7-5-------(5)-|-------7-5--(5)--0--(0)--||
|-7-x-x---------------|-7-x-x------------------o||
|---------------------|-------------------------||


  Gtr II
  W        H     E E E  E
|-------------------------|
|-------------------------|
|-------------------------|
|-5--------2-----9-7-5----|
|-3--------0------------9-|
|-------------------------|
|
| Gtr I
| W        H     E E E  E
|-------------------------|
|-------------------------|
|-------------------------|
|-------------------------|
|---------------10-9-7----|
|----------------------10-|


  Gtr I
  S S S S E S S S S S S S S S S S S S S E S S S S S S S S S S
|-------------------------------------------------------------|
|-------------------------------------------------------------|
|-------------------------------------------------------------|
|---------2-----------------------------2---------------------|
|---------2-----------------------------2---------------------|
|-0-0-0-0---0---0-0-0-----------0-0-0-0---0---0-0-0-------0-0-|
|
| Gtr II
| S S S S E S S S S S S S S S S S S S S E S S S S S S S S S S
|-------------------------------------------------------------|
|-------------------------------------------------------------|
|-------------------------------------------------------------|
|---------2-----------------------------2---------------------|
|---------2-----------------------------2---------------------|
|-0-0-0-0---0---0-0-0-----------0-0-0-0---0---0-0-0-------0-0-|


  Gtr II
  W        H     E E E  E
|-------------------------|
|-------------------------|
|-------------------------|
|-5--------2-----9-7-5----|
|-3--------0------------9-|
|-------------------------|
|
| Gtr I
| W        H     E E E  E
|-------------------------|
|-------------------------|
|-------------------------|
|-------------------------|
|---------------10-9-7----|
|----------------------10-|


  Gtr I
  S S S S E S S S S S S S S S S S S S S E S S E E Q
|----------------------------------------------------|
|----------------------------------------------------|
|----------------------------------------------------|
|---------2-----------------------------2------------|
|---------2-----------------------------2---------2--|
|-0-0-0-0---0---0-0-0-----------0-0-0-0---0---0-0-0--|
|
| Gtr II
| S S S S E S S S S S S S S S S S S S S E S S E E Q
|----------------------------------------------------|
|----------------------------------------------------|
|----------------------------------------------------|
|---------2-----------------------------2------------|
|---------2-----------------------------2---------2--|
|-0-0-0-0---0---0-0-0-----------0-0-0-0---0---0-0-0--|


    Gtr I
    E S S H     +Q        E S S H     +Q
||----------------------|---------------------|
||o---------------------|---------------------|
||----------------------|---------------------|
||--2-x-x-2-----(2)-----|-2-x-x-2-----(2)-----|
||o-2-x-x-2-----(2)-----|-2-x-x-2-----(2)-----|
||--0-x-x-0-----(0)-----|-0-x-x-0-----(0)-----|
|
|   Gtr II
|   E S S E H       +E    E S S E H       +E
||----------------------|---------------------|
||o---------------------|---------------------|
||----------------------|---------------------|
||--------5-4-------(4)-|-------5-4-------(4)-|
||o-7-x-x---------------|-7-x-x---------------|
||----------------------|---------------------|


  Gtr I
  E S S H     +Q        E S S H        +Q
|---------------------|-------------------------||
|---------------------|------------------------o||
|---------------------|-------------------------||
|-5-x-x-5-----(5)-----|-5-x-x-5--------(5)------||
|-5-x-x-5-----(5)-----|-5-x-x-5--------(5)-----o||
|-3-x-x-3-----(3)-----|-3-x-x-3--------(3)------||
|
| Gtr II
| E S S E H       +E    E S S E Q  +E   E  +S
|---------------------|-------------------------||
|---------------------|------------------------o||
|---------------------|-------------------------||
|-------7-5-------(5)-|-------7-5--(5)--0--(0)--||
|-7-x-x---------------|-7-x-x------------------o||
|---------------------|-------------------------||


    Gtr I
    W        +W
||------------------|
||o-----------------|
||------------------|
||--5--------(5)----|
||o-3--------(3)----|
||------------------|


  Gtr I
  S S S S E S S S S S S S S S S S S S S E S S S S S S S S S S
|--------------------------------------------------------------||
|-------------------------------------------------------------o||
|--------------------------------------------------------------||
|---------2-----------------------------2----------------------||
|---------2-----------------------------2---------------------o||
|-0-0-0-0---0---0-0-0-----------0-0-0-0---0---0-0-0---------0--||
|
| Gtr II
| S S S S E S S S S S S S S S S S S S S E S S S S S S S S S S
|--------------------------------------------------------------||
|-------------------------------------------------------------o||
|--------------------------------------------------------------||
|---------2-----------------------------2----------------------||
|---------2-----------------------------2---------------------o||
|-0-0-0-0---0---0-0-0-----------0-0-0-0---0---0-0-0---------0--||


    Gtr I
    H               H               W
||------------------------------------------------------------------|
||o-----------------------------------------------------------------|
||----------------------------------2-------------------------------|
||------------------5---------------0-------------------------------|
||o-2---------------3-----------------------------------------------|


||--0---------------------------------------------------------------|
|
|   Gtr II
|   S S S S S S S S S S S S S S S S S S S S S S S S S S S S S S S S
||--7-0-0-5-0-0-7-0-3-0-0-5-0-0-7-0-8-0-0-7-0-0-8-0-3-0-0-2-0-0-----|
||o-------------------------------------------------------------3-0-|
||------------------------------------------------------------------|
||------------------------------------------------------------------|
||o-----------------------------------------------------------------|
||------------------------------------------------------------------|


  Gtr I
  H               H               W
|-------------------------------------------------------------------||
|------------------------------------------------------------------o||
|---------------------------------2---------------------------------||
|-----------------5---------------0---------------------------------||
|-2---------------3------------------------------------------------o||
|-0-----------------------------------------------------------------||
|
| Gtr II
| S S S S S S S S S S S S S S S S S S S S S S S S  S S S S S S S S
|-7-0-0-5-0-0-7-0-3-0-0-5-0-0-7-0-8-0-0-7-0-0-8-0-10-0-0-8-0-0-7-0--||
|------------------------------------------------------------------o||
|-------------------------------------------------------------------||
|-------------------------------------------------------------------||
|------------------------------------------------------------------o||
|-------------------------------------------------------------------||


    Gtr I
    E S S H     +Q        E S S H     +Q
||----------------------|---------------------|
||o---------------------|---------------------|
||----------------------|---------------------|
||--2-x-x-2-----(2)-----|-2-x-x-2-----(2)-----|
||o-2-x-x-2-----(2)-----|-2-x-x-2-----(2)-----|
||--0-x-x-0-----(0)-----|-0-x-x-0-----(0)-----|
|
|   Gtr II
|   E S S E H       +E    E S S E H       +E
||----------------------|---------------------|
||o---------------------|---------------------|
||----------------------|---------------------|
||--------5-4-------(4)-|-------5-4-------(4)-|
||o-7-x-x---------------|-7-x-x---------------|
||----------------------|---------------------|


  Gtr I
  E S S H     +Q        E S S H        +Q       4x
|---------------------|-------------------------||
|---------------------|------------------------o||
|---------------------|-------------------------||
|-5-x-x-5-----(5)-----|-5-x-x-5--------(5)------||
|-5-x-x-5-----(5)-----|-5-x-x-5--------(5)-----o||
|-3-x-x-3-----(3)-----|-3-x-x-3--------(3)------||
|
| Gtr II
| E S S E H       +E    E S S E Q  +E   E  +S   4x
|---------------------|-------------------------||
|---------------------|------------------------o||
|---------------------|-------------------------||
|-------7-5-------(5)-|-------7-5--(5)--0--(0)--||
|-7-x-x---------------|-7-x-x------------------o||
|---------------------|-------------------------||


    S S S S S S S S S S S S S S E S S S S S S S S S S S S S S E
||-------------------------------------------------------------|
||o------------------------------------------------------------|
||-------------------------------------------------------------|
||--2-----2-----2-----2---------2-2-----2-----2-----2---------2|
||o-2-----2-----2-----2---------2-2-----2-----2-----2---------2|
||--0-0-0-0-----0-0-0-0-----0-0-0-0-0-0-0-----0-0-0-0-----0-0-0|


  S S S S S S S S S S S S S S E  S S S S S S S S S S S S S S E
|------------------------------------------------------------------||
|-----------------------------------------------------------------o||
|------------------------------------------------------------------||
|-5-----5-----5-----5---------5--5-----5-----5-----5---------5-----||
|-5-----5-----5-----5---------5--5-----5-----5-----5---------5----o||
|-3-3-3-3-----3-3-3-3-----3-3-3--3-3-3-3-----3-3-3-3-----3-3-3-----||


  Gtr II
  W        H     E E E  E
|-------------------------|
|-------------------------|
|-------------------------|
|-5--------2-----9-7-5----|
|-3--------0------------9-|
|-------------------------|
|
| Gtr I
| W        H     E E E  E
|-------------------------|
|-------------------------|
|-------------------------|
|-------------------------|
|---------------10-9-7----|
|----------------------10-|


    Gtr I
    S S S S E S S S S S E E S S S S S E S S S S S S S S S S
||----------------------------------------------------------|
||o---------------------------------------------------------|
||----------------------------------------------------------|
||----------2-------------------------2---------------------|
||o---------2-------------------------2---------------------|
||--0-0-0-0---0---0-0-0-------0-0-0-0---0---0-0-0-------0-0-|
|
|   Gtr II
|   S S S S E S S S S S E E S S S S S E S S S S S S S S S S
||----------------------------------------------------------|
||o---------------------------------------------------------|
||----------------------------------------------------------|
||----------2-------------------------2---------------------|
||o---------2-------------------------2---------------------|
||--0-0-0-0---0---0-0-0-------0-0-0-0---0---0-0-0-------0-0-|


  Gtr II
  W        H     E E E  E
|-------------------------|
|-------------------------|
|-------------------------|
|-5--------2-----9-7-5----|
|-3--------0------------9-|
|-------------------------|
|
| Gtr I
| W        H     E E E  E
|-------------------------|
|-------------------------|
|-------------------------|
|-------------------------|
|---------------10-9-7----|
|----------------------10-|


    Gtr I
    S S S S E S S S S S E E S S S S S E S S S S S S S S
||--------------------------------------------------------|
||o-------------------------------------------------------|
||--------------------------------------------------------|
||----------2-------------------------2-------------------|
||o---------2-------------------------2-------------------|
||--0-0-0-0---0---0-0-0-------0-0-0-0---0---0-0-0---------|
|
|   Gtr II
|   S S S S E S S S S S E E S S S S S E S S S S S S S S
||--------------------------------------------------------|
||o-------------------------------------------------------|
||--------------------------------------------------------|
||----------2-------------------------2-------------------|
||o---------2-------------------------2-------------------|
||--0-0-0-0---0---0-0-0-------0-0-0-0---0---0-0-0---------|


  W
|------|
|------|
|------|
|------|
|------|
|------|


    Gtr I
    S S S S E S S S S S E E S S S S S E S S S S S S S S S S
||----------------------------------------------------------|
||o---------------------------------------------------------|
||----------------------------------------------------------|
||----------5-------------------------5---------------------|
||o---------7-------------------------7---------------------|
||--0-0-0-0---0---0-0-0-------0-0-0-0---0---0-0-0-----------|
|
|   Gtr II
|   S S S S E S S S S S E E S S S S S E S S S S S S S S S S
||----------------------------------------------------------|
||o---------------------------------------------------------|
||----------------------------------------------------------|
||----------2-------------------------2---------------------|
||o---------2-------------------------2---------------------|
||--0-0-0-0---0---0-0-0-------0-0-0-0---0---0-0-0-----------|


  Gtr I
  S S S S E S S S S S E E S S S S S E S S S S S S S S S S  3x
|----------------------------------------------------------||
|---------------------------------------------------------o||
|----------------------------------------------------------||
|---------5-------------------------5----------------------||
|---------7-------------------------7---------------------o||
|-3-3-3-3---3---3-3-3-------3-3-3-3---3---3-3-3------------||
|
| Gtr II
| S S S S E S S S S S E E S S S S S E S S S S S S S S S S  3x
|----------------------------------------------------------||
|---------------------------------------------------------o||
|----------------------------------------------------------||
|---------5-------------------------5----------------------||
|---------5-------------------------5---------------------o||
|-3-3-3-3---3---3-3-3-------3-3-3-3---3---3-3-3------------||


  Gtr I
  S S S S E S S S S S E E S S S S S E S S S S S S S S S S
|----------------------------------------------------------|
|----------------------------------------------------------|
|----------------------------------------------------------|
|---------5-------------------------5----------------------|
|---------7-------------------------7----------------------|
|-0-0-0-0---0---0-0-0-------0-0-0-0---0---0-0-0------------|
|
| Gtr II
| S S S S E S S S S S E E S S S S S E S S S S S S S S S S
|----------------------------------------------------------|
|----------------------------------------------------------|
|----------------------------------------------------------|
|---------2-------------------------2----------------------|
|---------2-------------------------2----------------------|
|-0-0-0-0---0---0-0-0-------0-0-0-0---0---0-0-0------------|


  Gtr I
  S S S S E S S S S S E E S S S S S E S S  E E E  E S S S S
|-----------------------------------------------------------|
|-----------------------------------------------------------|
|-----------------------------------------------------------|
|---------5-------------------------5-----------------------|
|---------7-------------------------7-----10-9-7------------|
|-3-3-3-3---3---3-3-3-------3-3-3-3---3----------10---------|
|
| Gtr II
| S S S S E S S S S S E E S S S S S E S S  E E E  E S S S S
|-----------------------------------------------------------|
|-----------------------------------------------------------|
|-----------------------------------------------------------|
|---------5-------------------------5------9-7-5------------|
|---------5-------------------------5-------------9---------|
|-3-3-3-3---3---3-3-3-------3-3-3-3---3---------------------|


Duration Legend
---------------
W - whole; H - half; Q - quarter; E - 8th; S - 16th; T - 32nd; X - 64th; a - acciaccatura
+ - note tied to previous; . - note dotted; .. - note double dotted
Uncapitalized letters represent notes that are staccato (1/2 duration)
Irregular groupings are notated above the duration line
Duration letters will always appear directly above the note/fret number it represents the
duration for.  Duration letters with no fret number below them represent rests.  Multi-
bar rests are notated in the form Wxn, where n is the number of bars to rest for.  Low
melody durations appear below the staff

Tablature Legend
----------------
 h   - hammer-on
 p   - pull-off
 b   - bend
 pb  - pre-bend
 r   - bend release (if no number after the r, then release immediately)
 /\  - slide into or out of (from/to "nowhere")
 s   - legato slide
 S   - shift slide
  - natural harmonic
[n]  - artificial harmonic
n(n) - tapped harmonic
 ~   - vibrato
 tr  - trill
 T   - tap
 TP  - trem. picking
 PM  - palm muting
\n/  - tremolo bar dip; n = amount to dip
 \n  - tremolo bar down
 n/  - tremolo bar up
/n\  - tremolo bar inverted dip
 =   - hold bend; also acts as connecting device for hammers/pulls
 <>  - volume swell (louder/softer)
 x   - on rhythm slash represents muted slash
 o   - on rhythm slash represents single note slash

Misc Legend
-----------
 |  - bar
||  - double bar
||o - repeat start
o|| - repeat end
*|  - double bar (ending)
 :  - bar (freetime)
 $  - Segno
 &  - Coda
Tempo markers -  = BPM(8/16=s8/s16), where s8 = swing 8ths, s16 = swing 16ths


***************************************************************************************
* Generated using Power Tab Editor by Brad Larsen - http://powertab.guitarnetwork.org *
***************************************************************************************
comments
We did not receive enough feedback on this tab! Please rate:
print report bad tab
1 2 3 4 5
1 comment total.
0 reply
cincit2 wrote on February 16 2007, 08:25 pm

good tab

I want to post or [tab]
guest
You may want to rate the tab now too:
select rating
Please do not post tabs as comments. Select "correction" instead!