Oops, an error
Loading. Please wait.

Saviour Tab

ver2
ver2

Whole song

Interactive

More versions @911Tabs.com
1,845 views 1 this week
no commentswrite comment
1 2 3 4 5
excellent!
x 5
Autoscroll
+/-
esc
set tempo
stop
Contributor
Difficulty
Tuning
intermediate
D A D G B E
WARNING: You are trying to view
                                    content from Ultimate-Guitar.com
                                    in an unauthorized application,
                                    which is prohibited.

                                    Please use an official Ultimate
                                    Guitar Tabs application for iPhone,
                                    iPad or Android to access legitimate
                                    chords, guitar, bass, and drum tabs
                                    from Ultimate-Guitar.com database.

                                    Type "ultimate guitar tabs" in Apple
                                    App Store's or Android Market's
                                    search to find the application.
After mini solo section, redo chorus again!

#----------------------------------PLEASE NOTE---------------------------------#
#This file is the author's own work and represents their interpretation of the #
#song. You may only use this file for private study, scholarship, or research. #
#------------------------------------------------------------------------------#

SAVIOR
As recorded by Norther
(From the 2008 Album N)

Transcribed by Feilong!
        



Gtr I (D G C F A D) - 'Kristian'
Gtr II (D G C F A D) - 'Petri'
Gtr III (D G C F A D) - 'Untitled'

 4/4
  Gtr I
                 ~~
  S  S  E S S E  Q S S E S S  E E E
|-------------------------------7-8-|
|---------------10-----------10-----|
|-------9-----9--------9------------|
|-7--7----7-7------7-7---7-7--------|
|-----------------------------------|
|-----------------------------------|
|
| Gtr II
| W  H
|-----------------------------------|
|-----------------------------------|
|-----------------------------------|
|-7-(7)-----------------------------|
|-7-(7)-----------------------------|
|-5-(5)-----------------------------|


                      ~~                      ~~
   S   S  E  S  S  E  Q    S   S  E  S  S  E  Q
|-----------------------|--------------------------|
|--------13-------13-12-|--------------------------|
|-10--10----10-10-------|--------12-------12-10----|
|-----------------------|-10--10----10-10----------|
|-----------------------|--------------------------|
|-----------------------|--------------------------|
|
|  H.                      H.
|-----------------------|--------------------------|
|-----------------------|--------------------------|
|-----------------------|--5-----------------------|
|--3--------------------|--5-----------------------|
|--3--------------------|--3-----------------------|
|--1--------------------|--------------------------|


                ~~
  S S E S S  E  Q S S E S S  E E E
|------------------------------7-8-|
|--------------10-----------10-----|
|-----9------9--------9------------|
|-7-7---7-7-------7-7---7-7--------|
|----------------------------------|
|----------------------------------|
|
|   PM--|
| E Q Q E H.
|----------------------------------|
|----------------------------------|
|----------------------------------|
|-3-------3------------------------|
|-3-------3------------------------|
|-1-1-1-1-1------------------------|


                      ~~                      ~~
   S   S  E  S  S  E  Q    S   S  E  S  S  E  Q
|-----------------------|--------------------------|
|--------13-------13-12-|--------------------------|
|-----------------------|--------14-------14-12----|
|-10--10----10-10-------|-12--12----12-12----------|
|-----------------------|--------------------------|
|-----------------------|--------------------------|
|
|  H.                      H.
|-----------------------|--------------------------|
|-----------------------|--------------------------|
|-----------------------|--------------------------|
|--7--------------------|--5-----------------------|
|--7--------------------|--5-----------------------|
|--5--------------------|--3-----------------------|


 4/4
  Gtr I
                 ~~
  S  S  E S S E  Q S S E S S  E E E
|-------------------------------7-8-|
|---------------10-----------10-----|
|-------9-----9--------9------------|
|-7--7----7-7------7-7---7-7--------|
|-----------------------------------|
|-----------------------------------|
|
| Gtr II
| W  H
|-----------------------------------|
|-----------------------------------|
|-----------------------------------|
|-7-(7)-----------------------------|
|-7-(7)-----------------------------|
|-5-(5)-----------------------------|


                      ~~                      ~~
   S   S  E  S  S  E  Q    S   S  E  S  S  E  Q
|-----------------------|--------------------------|
|--------13-------13-12-|--------------------------|
|-10--10----10-10-------|--------12-------12-10----|
|-----------------------|-10--10----10-10----------|
|-----------------------|--------------------------|
|-----------------------|--------------------------|
|
|  H.                      H.
|-----------------------|--------------------------|
|-----------------------|--------------------------|
|-----------------------|--5-----------------------|
|--3--------------------|--5-----------------------|
|--3--------------------|--3-----------------------|
|--1--------------------|--------------------------|


               ~~
  S S E S S E  Q S S E S S  E E E
|-----------------------------7-8-|
|-------------10-----------10-----|
|-----9-----9--------9------------|
|-7-7---7-7------7-7---7-7--------|
|---------------------------------|
|---------------------------------|
|
|   PM--|   PM---|
| E Q Q E Q S  S E Q
|---------------------------------|
|---------------------------------|
|---------------------------------|
|-3-------3--------3--------------|
|-3-------3--------3--------------|
|-1-1-1-1-1-1--1-1-1--------------|


                      ~~                      ~~
   S   S  E  S  S  E  Q    S   S  E  S  S  E  Q
|-----------------------|--------------------------|
|--------13-------13-12-|--------------------------|
|-----------------------|--------14-------14-12----|
|-10--10----10-10-------|-12--12----12-12----------|
|-----------------------|--------------------------|
|-----------------------|--------------------------|
|
|  H.                      H.
|-----------------------|--------------------------|
|-----------------------|--------------------------|
|-----------------------|--------------------------|
|--7--------------------|--5-----------------------|
|--7--------------------|--5-----------------------|
|--5--------------------|--3-----------------------|


                 ~~
  S  S  E S S E  Q S S E S S  E E E
|-------------------------------7-8-|
|---------------10-----------10-----|
|-------9-----9--------9------------|
|-7--7----7-7------7-7---7-7--------|
|-----------------------------------|
|-----------------------------------|
|
| W  H
|-----------------------------------|
|-----------------------------------|
|-----------------------------------|
|-7-(7)-----------------------------|
|-7-(7)-----------------------------|
|-5-(5)-----------------------------|


                      ~~                      ~~
   S   S  E  S  S  E  Q    S   S  E  S  S  E  Q
|-----------------------|--------------------------|
|--------13-------13-12-|--------------------------|
|-10--10----10-10-------|--------12-------12-10----|
|-----------------------|-10--10----10-10----------|
|-----------------------|--------------------------|
|-----------------------|--------------------------|
|
|  H.                      H.
|-----------------------|--------------------------|
|-----------------------|--------------------------|
|-----------------------|--5-----------------------|
|--3--------------------|--5-----------------------|
|--3--------------------|--3-----------------------|
|--1--------------------|--------------------------|


                    ~                    ~~
   S  S  E  S  S  E Q  S  S  E  S  S  E  Q
|-------------------------------------------|
|-------------------------------------------|
|-------10-------10-9-------12-------12-10--|
|-12-12----12-12------12-12----12-12--------|
|-------------------------------------------|
|-------------------------------------------|
|
|  PM------------|     PM---|
|  S  S  E  E  Q  E Q  S  S  E  Q
|-------------------------------------------|
|-------------------------------------------|
|-------------------7-----------7-----------|
|-------------------7-----------7-----------|
|--5--5--5--5--5--5-5--5--5--5--5-----------|
|-------------------------------------------|


                      ~~                      ~~
   S   S  E  S  S  E  Q    S   S  E  S  S  E  Q
|-----------------------|--------------------------|
|--------13-------13-12-|--------------------------|
|-10--10----10-10-------|--------14-------14-12----|
|-----------------------|-12--12----12-12----------|
|-----------------------|--------------------------|
|-----------------------|--------------------------|
|
|  H.                      H.
|-----------------------|--------------------------|
|-----------------------|--------------------------|
|-----------------------|--------------------------|
|--3--------------------|--5-----------------------|
|--3--------------------|--5-----------------------|
|--1--------------------|--3-----------------------|


   H
|----------------------------------|---------------------------------|
|----------------------------------|---------------------------------|
|-14\------------------------------|---------------------------------|
|----------------------------------|---------------------------------|
|----------------------------------|---------------------------------|
|----------------------------------|---------------------------------|
|
|      PM----|     PM    PM             PM----|     PM    PM
|  E   S  S  E  E  E  E  E  W   S    E  S  S  E  E  E  E  E  W   S
|----------------------------------|---------------------------------|
|----------------------------------|---------------------------------|
|----------------------------------|-5-----------5-----5-------------|
|--7------------7-----7-----3--(3)-|-5-----------5-----5-----2--(2)--|
|--7------------7-----7-----3--(3)-|-3--3--3--3--3--3--3--3--2--(2)--|
|--5---5--5--5--5--5--5--5--1--(1)-|-------------------------0--(0)--|


                                      PM----|     PM    PM
  E  S  S  E  E  E  E  E  W   S    E  S  S  E  E  E  E  E  W   S
|--------------------------------|---------------------------------|
|--------------------------------|---------------------------------|
|--------------------------------|-5-----------5-----5-------------|
|-7-----------7-----7-----3--(3)-|-5-----------5-----5-----2--(2)--|
|-7-----------7-----7-----3--(3)-|-3--3--3--3--3--3--3--3--2--(2)--|
|-5--5--5--5--5--5--5--5--1--(1)-|-------------------------0--(0)--|
|
|--------------------------------|---------------------------------|
|--------------------------------|---------------------------------|
|--------------------------------|---------------------------------|
|--------------------------------|---------------------------------|
|--------------------------------|---------------------------------|
|--------------------------------|---------------------------------|


      PM|   PM|   PM  PM|   PM|   PM    PM|   PM|   PM    PM|   PM|   PM
    E E E E E E E E E E E E E E E E   E E E E E E E E   E E E E E E E E
||----------------------------------|-----------------|----------------|
||o---------------------------------|-----------------|----------------|
||----------------------------------|-----------------|----------------|
||----------------------------------|-----------------|----------------|
||o-5-----5-----5---4-----5-----5---|-4-----4-----4---|-2-----2-----2--|
||--7-7-7-7-7-7-7-7-7-7-7-7-7-7-7-7-|-5-5-5-5-5-5-5-5-|-3-3-3-3-3-3-3-3|
|
|     PM|   PM|   PM  PM|   PM|   PM    PM|   PM|   PM    PM|   PM|   PM
|   E E E E E E E E E E E E E E E E   E E E E E E E E   E E E E E E E E
||----------------------------------|-----------------|----------------|
||o---------------------------------|-----------------|----------------|
||----------------------------------|-----------------|----------------|
||----------------------------------|-----------------|----------------|
||o-5-----5-----5---4-----5-----5---|-4-----4-----4---|-2-----2-----2--|
||--7-7-7-7-7-7-7-7-7-7-7-7-7-7-7-7-|-5-5-5-5-5-5-5-5-|-3-3-3-3-3-3-3-3|


    PM|   PM|   PM  PM|   PM|   PM
  E E E E E E E E E E E E E E E E
|---------------------------------|
|---------------------------------|
|---------------------------------|
|---------------------------------|
|-5-----5-----5---4-----5-----5---|
|-7-7-7-7-7-7-7-7-7-7-7-7-7-7-7-7-|
|
|   PM|   PM|   PM  PM|   PM|   PM
| E E E E E E E E E E E E E E E E
|---------------------------------|
|---------------------------------|
|---------------------------------|
|---------------------------------|
|-5-----5-----5---4-----5-----5---|
|-7-7-7-7-7-7-7-7-7-7-7-7-7-7-7-7-|


      PM|      PM|      PM    PM|     PM|    PM
   E  E  E  E  E  E  E  E   E E E  E  E  E E E
|-------------------------|---------------------||
|-------------------------|--------------------o||
|-------------------------|---------------------||
|-------------------------|---------------------||
|--9-------10--------9----|-7------9-------7---o||
|-10-10-10-10-10-10-10-10-|-9-9-9-10-10-10-9-9--||
|
|     PM|      PM|      PM    PM|     PM|    PM
|  E  E  E  E  E  E  E  E   E E E  E  E  E E E
|-------------------------|---------------------||
|-------------------------|--------------------o||
|-------------------------|---------------------||
|-------------------------|---------------------||
|--9-------10--------9----|-7------9-------7---o||
|-10-10-10-10-10-10-10-10-|-9-9-9-10-10-10-9-9--||


 4/4
  Gtr I
                 ~~
  S  S  E S S E  Q S S E S S  E E E
|-------------------------------7-8-|
|---------------10-----------10-----|
|-------9-----9--------9------------|
|-7--7----7-7------7-7---7-7--------|
|-----------------------------------|
|-----------------------------------|
|
| Gtr II
| W  H
|-----------------------------------|
|-----------------------------------|
|-----------------------------------|
|-7-(7)-----------------------------|
|-7-(7)-----------------------------|
|-5-(5)-----------------------------|


                      ~~                      ~~
   S   S  E  S  S  E  Q    S   S  E  S  S  E  Q
|-----------------------|--------------------------|
|--------13-------13-12-|--------------------------|
|-10--10----10-10-------|--------12-------12-10----|
|-----------------------|-10--10----10-10----------|
|-----------------------|--------------------------|
|-----------------------|--------------------------|
|
|  H.                      H.
|-----------------------|--------------------------|
|-----------------------|--------------------------|
|-----------------------|--5-----------------------|
|--3--------------------|--5-----------------------|
|--3--------------------|--3-----------------------|
|--1--------------------|--------------------------|


               ~~
  S S E S S E  Q S S E S S  E E E
|-----------------------------7-8-|
|-------------10-----------10-----|
|-----9-----9--------9------------|
|-7-7---7-7------7-7---7-7--------|
|---------------------------------|
|---------------------------------|
|
|   PM--|   PM---|
| E Q Q E Q S  S E Q
|---------------------------------|
|---------------------------------|
|---------------------------------|
|-3-------3--------3--------------|
|-3-------3--------3--------------|
|-1-1-1-1-1-1--1-1-1--------------|


                      ~~                      ~~
   S   S  E  S  S  E  Q    S   S  E  S  S  E  Q
|-----------------------|--------------------------|
|--------13-------13-12-|--------------------------|
|-----------------------|--------14-------14-12----|
|-10--10----10-10-------|-12--12----12-12----------|
|-----------------------|--------------------------|
|-----------------------|--------------------------|
|
|  H.                      H.
|-----------------------|--------------------------|
|-----------------------|--------------------------|
|-----------------------|--------------------------|
|--7--------------------|--5-----------------------|
|--7--------------------|--5-----------------------|
|--5--------------------|--3-----------------------|


                 ~~
  S  S  E S S E  Q S S E S S  E E E
|-------------------------------7-8-|
|---------------10-----------10-----|
|-------9-----9--------9------------|
|-7--7----7-7------7-7---7-7--------|
|-----------------------------------|
|-----------------------------------|
|
| W  H
|-----------------------------------|
|-----------------------------------|
|-----------------------------------|
|-7-(7)-----------------------------|
|-7-(7)-----------------------------|
|-5-(5)-----------------------------|


                      ~~                      ~~
   S   S  E  S  S  E  Q    S   S  E  S  S  E  Q
|-----------------------|--------------------------|
|--------13-------13-12-|--------------------------|
|-10--10----10-10-------|--------12-------12-10----|
|-----------------------|-10--10----10-10----------|
|-----------------------|--------------------------|
|-----------------------|--------------------------|
|
|  H.                      H.
|-----------------------|--------------------------|
|-----------------------|--------------------------|
|-----------------------|--5-----------------------|
|--3--------------------|--5-----------------------|
|--3--------------------|--3-----------------------|
|--1--------------------|--------------------------|


                    ~                    ~~
   S  S  E  S  S  E Q  S  S  E  S  S  E  Q
|-------------------------------------------|
|-------------------------------------------|
|-------10-------10-9-------12-------12-10--|
|-12-12----12-12------12-12----12-12--------|
|-------------------------------------------|
|-------------------------------------------|
|
|  PM------------|     PM---|
|  S  S  E  E  Q  E Q  S  S  E  Q
|-------------------------------------------|
|-------------------------------------------|
|-------------------7-----------7-----------|
|-------------------7-----------7-----------|
|--5--5--5--5--5--5-5--5--5--5--5-----------|
|-------------------------------------------|


                      ~~                      ~~
   S   S  E  S  S  E  Q    S   S  E  S  S  E  Q
|-----------------------|--------------------------|
|--------13-------13-12-|--------------------------|
|-10--10----10-10-------|--------14-------14-12----|
|-----------------------|-12--12----12-12----------|
|-----------------------|--------------------------|
|-----------------------|--------------------------|
|
|  H.                      H.
|-----------------------|--------------------------|
|-----------------------|--------------------------|
|-----------------------|--------------------------|
|--3--------------------|--5-----------------------|
|--3--------------------|--5-----------------------|
|--1--------------------|--3-----------------------|


      PM|   PM|   PM  PM|   PM|   PM    PM|   PM|   PM    PM|   PM|   PM
    E E E E E E E E E E E E E E E E   E E E E E E E E   E E E E E E E E
||----------------------------------|-----------------|----------------|
||o---------------------------------|-----------------|----------------|
||----------------------------------|-----------------|----------------|
||----------------------------------|-----------------|----------------|
||o-5-----5-----5---4-----5-----5---|-4-----4-----4---|-2-----2-----2--|
||--7-7-7-7-7-7-7-7-7-7-7-7-7-7-7-7-|-5-5-5-5-5-5-5-5-|-3-3-3-3-3-3-3-3|
|
|     PM|   PM|   PM  PM|   PM|   PM    PM|   PM|   PM    PM|   PM|   PM
|   E E E E E E E E E E E E E E E E   E E E E E E E E   E E E E E E E E
||----------------------------------|-----------------|----------------|
||o---------------------------------|-----------------|----------------|
||----------------------------------|-----------------|----------------|
||----------------------------------|-----------------|----------------|
||o-5-----5-----5---4-----5-----5---|-4-----4-----4---|-2-----2-----2--|
||--7-7-7-7-7-7-7-7-7-7-7-7-7-7-7-7-|-5-5-5-5-5-5-5-5-|-3-3-3-3-3-3-3-3|


    PM|   PM|   PM  PM|   PM|   PM
  E E E E E E E E E E E E E E E E
|---------------------------------|
|---------------------------------|
|---------------------------------|
|---------------------------------|
|-5-----5-----5---4-----5-----5---|
|-7-7-7-7-7-7-7-7-7-7-7-7-7-7-7-7-|
|
|   PM|   PM|   PM  PM|   PM|   PM
| E E E E E E E E E E E E E E E E
|---------------------------------|
|---------------------------------|
|---------------------------------|
|---------------------------------|
|-5-----5-----5---4-----5-----5---|
|-7-7-7-7-7-7-7-7-7-7-7-7-7-7-7-7-|


      PM|      PM|      PM    PM|     PM|    PM
   E  E  E  E  E  E  E  E   E E E  E  E  E E E
|-------------------------|---------------------||
|-------------------------|--------------------o||
|-------------------------|---------------------||
|-------------------------|---------------------||
|--9-------10--------9----|-7------9-------7---o||
|-10-10-10-10-10-10-10-10-|-9-9-9-10-10-10-9-9--||
|
|     PM|      PM|      PM    PM|     PM|    PM
|  E  E  E  E  E  E  E  E   E E E  E  E  E E E
|-------------------------|---------------------||
|-------------------------|--------------------o||
|-------------------------|---------------------||
|-------------------------|---------------------||
|--9-------10--------9----|-7------9-------7---o||
|-10-10-10-10-10-10-10-10-|-9-9-9-10-10-10-9-9--||


                                                                8x
|-----------------||--------------------------------------------||
|-----------------||o------------------------------------------o||
|-----------------||--------------------------------------------||
|-----------------||--------------------------------------------||
|-----------------||o------------------------------------------o||
|-----------------||--------------------------------------------||
|
|                            PM-----|        PM      PM
| W                     E    S   S   E   E   E   E   E   E      8x
|-----------------||--------------------------------------------||
|-----------------||o------------------------------------------o||
|-----------------||--------------------------------------------||
|-2---------------||---(2)--------------(2)-----(2)-----(2)-----||
|-2---------------||o--(2)--------------(2)-----(2)-----(2)----o||
|-0---------------||---(0)--(0)-(0)-(0)-(0)-(0)-(0)-(0)-(0)-----||


    W
                            ~~~~~~~                    ~~~~~~
  E         E E E  E E E E  W   S        E E E E E E E W  S
|------||------------------------------|-----------------------------||
|------||o-----------------------------|----------------------------o||
|------||------------------11-(11)-----|-6-7-6-9-7-6-7---------------||
|-2----||--11-9-7-11-9-7-9-------------|---------------9-(9)---------||
|-2----||o-----------------------------|----------------------------o||
|-0----||------------------------------|-----------------------------||
|
|                           ~~~~~~~                    ~~~~~~
|           E E E  E E E E  W   S        E E E E E E E W  S
|------||------------------------------|-----------------------------||
|------||o-----------------------------|----------------------------o||
|------||-------------------7--(7)-----|-2-4-2-6-4-2-4---------------||
|------||---7-6-4--7-6-4-6-------------|---------------6-(6)---------||
|------||o-----------------------------|----------------------------o||
|------||------------------------------|-----------------------------||
|
|          Gtr III
|             PM--|    PM   PM             PM--|   PM  PM
|           E S S  E E E E  E   W   S    E S S E E E E E  W   S
|------||------------------------------|-----------------------------||
|------||o-----------------------------|----------------------------o||
|------||-----------------------7--(7)-|-----------------------------||
|------||---4--------4---4------7--(7)-|-7-------7---7----2--(2)-----||
|------||o--4--------4---4------5--(5)-|-7-------7---7----2--(2)----o||
|------||---2-2-2--2-2-2-2--2----------|-5-5-5-5-5-5-5-5--0--(0)-----||



Duration Legend
---------------
W - whole; H - half; Q - quarter; E - 8th; S - 16th; T - 32nd; X - 64th; a - acciaccatura
+ - note tied to previous; . - note dotted; .. - note double dotted
Uncapitalized letters represent notes that are staccato (1/2 duration)
Irregular groupings are notated above the duration line
Duration letters will always appear directly above the note/fret number it represents the
duration for.  Duration letters with no fret number below them represent rests.  Multi-
bar rests are notated in the form Wxn, where n is the number of bars to rest for.  Low
melody durations appear below the staff

Tablature Legend
----------------
 h   - hammer-on
 p   - pull-off
 b   - bend
 pb  - pre-bend
 r   - bend release (if no number after the r, then release immediately)
 /\  - slide into or out of (from/to "nowhere")
 s   - legato slide
 S   - shift slide
<n> - natural harmonic
[n]  - artificial harmonic
n(n) - tapped harmonic
 ~   - vibrato
 tr  - trill
 T   - tap
 TP  - trem. picking
 PM  - palm muting
\n/  - tremolo bar dip; n = amount to dip
 \n  - tremolo bar down
 n/  - tremolo bar up
/n\  - tremolo bar inverted dip
 =   - hold bend; also acts as connecting device for hammers/pulls
 <> - volume swell (louder/softer)
 x   - on rhythm slash represents muted slash
 o   - on rhythm slash represents single note slash

Misc Legend
-----------
 |  - bar
||  - double bar
||o - repeat start
o|| - repeat end
*|  - double bar (ending)
 :  - bar (freetime)
 $  - Segno
 &  - Coda
Tempo markers - <E/E./Q/Q./H/H.> = BPM(8/16=s8/s16), where s8 = swing 8ths, s16 = swing 16ths


** Generated using Power Tab Editor by Brad Larsen: The Official Power Tab Web Site
comments
print report bad tab
I want to post or [tab]
guest
You may want to rate the tab now too:
select rating
Please do not post tabs as comments. Select "correction" instead!