Oops, an error
Loading. Please wait.

Pollyanna Tab

ver1
ver1

Album

Whole song

More versions @911Tabs.com
2,836 views 3 this week
2 commentsread comments
1 2 3 4 5
excellent!
x 4
Autoscroll
+/-
esc
set tempo
stop
WARNING: You are trying to view
                                    content from Ultimate-Guitar.com
                                    in an unauthorized application,
                                    which is prohibited.

                                    Please use an official Ultimate
                                    Guitar Tabs application for iPhone,
                                    iPad or Android to access legitimate
                                    chords, guitar, bass, and drum tabs
                                    from Ultimate-Guitar.com database.

                                    Type "ultimate guitar tabs" in Apple
                                    App Store's or Android Market's
                                    search to find the application.
O.K. These tabs have been sitting on my computer for about a year now. I did my best at
everything as detailed as possible. It's quite difficult to get the tabs on here because
wrapping sucks and I had to make a few re-arrangements. Anyway, if you have any 
or if something is too confusing, you can email me at etnies55@aol.com.

Artist: Northstar
Album: Pollyanna

Track Listing
1. For Members Only
2. Pollyanna
3. American Living
4. The Pornographer's Daughter
5. Like A.M. Radio
6. The Accident Underwater
7. Two Zero Two
8. To My Better Angel
9. Between Horns And Halos
10. Digital Me
11. Rocket City
----------------------------------------------------------------------------

1.For Members Only
 --------
|Guitar 1|
 --------
Verse
E----------------------------2x--------------------------------|---end---|
B--------------------------------------------------------------|---------|
G---------2----2-5----5-------------------2----2-5-------------|---------|
D---------2----2-5----5-3----3-3----------2----2-5----3----3-3-|---------|
A---3-2---0----0-3----3-3----3-3----3-2---0----0-3b4--3----3-3-|---3-2---|
E-3-----3---------------1----1-1--3-----3-------------1----1-1-|-3-----3-|

prechorus
E-----------------------------------|--------------2x-----------------|----|
B-----------------------------------|---------------------------------|----|
G-5555555555555555-2222222222222222-|---------------------------------|-2/-|
D-5555555555555555-2222222222222222-|---------2-----------------2-----|-2/-|
A-3333333333333333-0000000000000000-|-----3-----3---3-----3-------3---|-0/-|
E-----------------------------------|-0-0---0-----0---0-0---0-0-----0-|----|
pm .................. .. .. .. ..     . .   .         . .   . .

Chorus
E---------------2x---------------------|------------------------|
B--------------------------------------|------------------------|
G-------------------22222222-55555555--|-------------------222--|
D--3333333333333333-22222222-55555555--|--3333333333333333-222--|
A--3333333333333333-00000000-33333333--|--3333333333333333-000--|
E--1111111111111111--------------------|--1111111111111111------|

postchorus
E---------------3x------------------|---------end----------|
B-----------------------------------|----------------------|
G-----------------------------------|----------------------|
D------2---3-2---2-----2---3-2---2--|------2---3-2---2-----|
A----3---3-----3-----3---3-----3----|----3---3-----3-------|
E--1---------------0----------------|--1---------------0~--|

verse 4x
prechorus (play the 2nd part 4x this time)
chorus 4x (don't play the 2nd part)

Interlude
E------|---------------2x-----------------|
B------|----------------------------------|
G------|---------------------22----22-55--|
D--3~--|--33----33-----------22----22-55--|
A--3~--|--33----33----3-2----00----00-33--|
E--1~--|--11----11--3-----3---------------|

Chorus 4x

End with
E-------------|
B-------------|
G----------2--|
D----------2--|
A----3-2---0--|
E--3-----3----|

 --------
|Guitar 2|
 --------

Verse
E----------------------------------|-----------|
B----------------------------------|-----------|
G----5-4----------5----5-----------|----5-4----|
D--5-----5-7----7-5----5-3----3-3--|--5-----5--| 4x
A----------7----7-3----3-3----3-3--|-----------|
E----------5----5--------1----1-1--|-----------|

Prechorus
E-------------------------------------|--------------------|----end----|
B-------------------------------------|--5555555555555555--|-----------|
G--5555555555555555-2222222222222222--|--5555555555555555--|--5-22-----|
D--5555555555555555-2222222222222222--|--------------------|--5-22-5~--|
A--3333333333333333-0000000000000000--|--------------------|--3-00-5~--|
E-------------------------------------|--------------------|-------3~--|
pm  .................. .. .. .. ..       .. .. . ..  ..

Chorus
E---------------------------8---8---8/--|------------|
B------------------8---8s10---8---8-----|------------|
G--9-7-------7h9-9---9------------------|--9-7-------|
D------9b10-----------------------------|------9b10--|
A---------------------------------------|------------|
E-------------2x------------------------|------------|

postchorus
E-----------------------------------------------------------|
B--------------------------------------8-8b10---------------|
G----5-4------------7-5---5~----9-7------------9-7-9-5~-----|
D--5-----5-2~----/7-----7-----------10----------------------|
A-----------------------------------------------------------|
E-----------------------------------------------------------|

verse 4x

Prechorus
E-----------------------------------|------------------|
B-----------------------------------|-5555555555555555-|
G-5555555555555555-2222222222222222-|-5555555555555555-|
D-5555555555555555-2222222222222222-|------------------|
A-3333333333333333-0000000000000000-|------------------|
E-----------------------------------|-------2x---------|
pm .................. .. .. .. ..     .. .. . ..  ..

E--------------------------------|
B-----5---6-5---5----5---6-5---5-|
G-5-5---5-----5----5---5-----5---|
D--------------------------------|
A--------------------------------|
E---------------2x---------------|
pm. .   .     .    .   .     .


Chorus (First part 4x, without the 2nd part)

Interlude
E-------------------------------------------------------------|
B-------------------------------------------------------------|
G---5-4--------------------5-4-----------2-44444444-55555555--|
D-5-----5-0h2------------5-----5-0h2--------------------------|
A-------------3~--/5-3~--------------3~-----------------------|
E-------------------------------------------------------------|

E--------|
B--------|
G--5555--|
D--xxxx--|<-play this after every
A--3333------>  chord that guitar 1 plays.
E------------>

chorus 4x
End with Guitar 1
----------------------------------------------------------------------------

2.Pollyanna
 --------
|Guitar 1|
 --------

Intro
E-------------------------|
B-------------------------|
G-4-4---------------------|
D-4-4-4-66----2-2-4-66----| 4x
A-2-2-4-66----2-2-4-66----|
E-----2-44----0-0-2-44----|

Verse      ...off fingerprints...seem elegant...stop time...
E--------------------------------------------------------------|
B-------------0----0------------------0-----------4-4p0--------|
G--4~-444444444----444444444444444444444444444444-4-4---44444--|
D--x~----------------------------------------------------------|
A--2~----------------------------------------------------------|
E--------------------------------------------------------------|

verse pt. 2
E------------|----------------|
B--4--2--44--|----4---2---4~--|
G--4--4--44--|--4---4---4-----|
D------------|----------------|
A------------|----------------|
E----8x------|-------8x-------|

prechorus
E---------------------------|
B---------------------------|
G--------66----------44-----|
D--66----66-22-66----44-22--| 2x
A--66----44-22-66----22-22--|
E--44-------00-44-------00--|

Chorus
E-----------------------------------------------------------------|
B-----------------------------------------------------------------|
G-------------------44444444-----------------------------44444444-|
D-66666666-44444444-44444444-22222222--66666666-44444444-44444444-|
A-66666666-44444444-22222222-22222222--66666666-44444444-22222222-|
E-44444444-22222222----------00000000--44444444-22222222----------|

E---1st-end--|--2nd-end-|
B------------|----------|
G------------|----------|
D--22222222--|--22--22--|
A--22222222--|--22--22--|
E--00000000--|--00--00--|
pm ........     ..  ..

Intro 2x
verse
verse pt. 2
prechorus
chorus

Interlude
E--------------------------|
B--------------------------|
G--------------4~----------|
D--6~----4~----4~----2~----| 4x
A--6~----4~----2~----2~----|
E--4~----2~----------0~----|

chorus

end on
E------|
B------|
G------|
D--6~--|
A--6~--|
E--4~--|

 --------
|Guitar 2|
 --------

Intro
E---------2-----------------------2-|-----------------|---------|---------|
B-2h4p2-0----2h4p2-0-0----2h4p2-0---|-2h4p2-0-2p0-2p0-|-0~------|-2/4-----|
G-----------------------------------|-----------------|---------|-----4~--|
D-----------------------------------|-----------------|---------|---------|
A-----------------------------------|-----------------|---------|---------|
E-----------------------------------|----1st ending---|2ndending|3rdending|

verse
E--------------------------------------|
B--------------------------------------|
G--------------------------------------|
D--4444444444444444--------------------| 4x
A--2222222222222222-66666666-22222222--|
E-------------------44444444-00000000--|

verse pt. 2
E----------------------------------2------------------------|
B------0-------0-----0---4p0-----0-----4p0-------0---2p0----|
G----4---4-6p4-----4---------4-4-----4-----4---4---4-----4--|
D--6-------------4-----2---------------------4--------------| 4x
A-----------------------------------------------------------|
E-----------------------------------------------------------|

prechorus
E---------------------|
B----4-2/4~----4-2p0--|
G--4---------4--------|
D---------------------| 2x
A---------------------|
E---------------------|

chorus
E-------------------------------------------------------------------------|
B-------------------------------------------------------------------------|
G-------------------44444444----------------------------44444444----------|
D-66666666-44444444-44444444-22222222-66666666-44444444-44444444-22222222-|
A-66666666-44444444-22222222-22222222-66666666-44444444-22222222-22222222-|
E-44444444-22222222----------00000000-44444444-22222222----------00000000-|
pm                                                               ........

E----------7-------------------------7---7--------7-----|
B--------4---4--------5-4----------4---4---4--4-----7/--|
G--4---4--------4---4-----6--4---4--------------4-------|
D----4------------4------------4------------------------|
A-------------------------------------------------------|
E-------------------------------------------------------|

Intro (with 3rd ending only)
verse
verse pt. 2
prechorus
chorus

Interlude
E------------------2~------------------2~-----------------2~------------|
B--------------4~------0~--4-2p0~--4~-----0~--4-2p0~--4~------0~--------|
G-------4~--------------------------------------------------------------|
D-6~-4~-4~-2~----------------------------------------------------22--22-|
A-6~-4~-2~-2~----------------------------------------------------22--22-|
E-4~-2~----0~----------------------------------------------------00--00-|
                                                               pm..  ..
chorus
end (same as Guitar 1)
----------------------------------------------------------------------------

3.American Living
 --------
|Guitar 1|
 --------

Intro
E----------------------------|
B----------------------------|
G----------0-2~------0-4~----|
D----------0-4~------0-2~----|
A----------------------------|
E--10/3--3---------3---------|

Verse
E-------------------7---------------------------------------------------|
B----7-10---7~----7---10p7-------------------8/10\8~--8/10-7--7-----7\--|
G---------9-----9----------9p7-7h9---------7-9/11\9~--9/11-7----7---7\--|
D--9-------------------------------7~--7h9------------------------0-----| 2x
A-----------------------------------------------------------------------|
E-----------------------------------------------------------------------|

verse pt. 2
E------------------------------------------|
B------------------------------------------|
G--44444444-2222---------------------------|
D--44444444-2222-5555-222222-4-55555555----| 2x
A--22222222-0000-5555-222222-4-55555555----|
E----------------3333-000000-2-33333333----|

prechorus
E-------------------------------------------------------------------------|
B-------------------------------------------------------------------------|
G-77777777-9999-12121212-44444444-22222222----------77--------------44-22-|
D-77777777-9999-12121212-44444444-22222222-5~----22-77----4h5p4p2p0-44-22-|
A-55555555-7777-10101010-22222222-00000000-5~----22-55--------------22-00-|
E------------------------------------------3~----00-----------------------|
                                                                            chorus
E--------------------------|---------------|
B--------------------------|---------8p7---|
G-----------------77777777-|-----7h9-----9-|
D-55-555-555-5555-77777777-|-7h9-----------|
A-55-555-555-5555-55555555-|---------------|
E-33-333-333-3333----------|-1st-&-2nd-end-|

E-----------------7------------------------------------------|--------|
B---------8p7-------10-8-7-------------8p7-----8-7------8-7~-|--------|
G-----7h9-----9-7----------9-7-----7h9-----9-7------9-7------|--9-7~--|
D-7h9--------------------------7h9---------------------------|--------|
A------------------------------------------------------------|--------|
E---------------------3rd-ending-----------------------------|--------|
                                                            play at end
verse 2 (with effects)                                      of 2nd chorus
E---------------------------------------|
B--7---7---7---7---8---8---10---10------|
G----7---7---7---7---7---7----7----7----|
D---------------------------------------| 4x
A---------------------------------------|
E---------------------------------------|

verse pt. 2
prechorus
chorus

Interlude
E------------------------------|----1st-end------|--------2nd-end-------|
B------------------------------|-----------------|----------------------|
G-4/7----6b--4/7--------4/7----|-----------2---2-|----------------------|
D-x/x--------x/x----2h4-x/x----|---------4---4---|-----5555555555555555-|
A-2/5-0~-----2/5--------2/5-0~-|-------5---------|-----5555555555555555-|
E----------------3~------------|-0-2-3-----------|-0-2-3333333333333333-|

transition into chorus
E-----------------------------------------------------|
B-----------------------------------------------------|
G--77---------------44--22-77---------------4xxx2xxx--|
D--77----4h5p4p2p0--44--22-77----4h5p4p2p0--4xxx2xxx--|
A--55---------------22--00-55---------------2xxx0xxx--|
E-----------------------------------------------------|

chorus

 --------
|Guitar 2|
 --------

verse
E-------------------------------------------------|
B-------------------------------------------------|
G----2--------2------2----------------------------|
D------4--------4------4------4---4-------5--4----| 2x
A--2--------0---------------2---2-------5---5-----|
E------------------3------0---------2-3-----------|

verse pt. 2
e---------------------------------------------------------------------|
B---------------------------------------------------------------------|
G------2-----2-----2-----2-----2-----2-----2-----2--------------------|
D----4-----4-----4-----4-----4-----4-----4-----4-------4-----4-----4--|
A--2-----2-----2-----2-----0-----0-------------------2-----2-----2----|
E--------------------------------------3-----3-----0-----0-----0------|

e-----------1st-end-------------|----2nd-end-----|
B-------------------------------|----------------|
G-------------------------------|----------------|
D----------5-----4-----5-----4--|------55555555--|
A--------5-----5-----5-----5----|------55555555--|
E--0-2-3-----3-----3-----3------|--0-2-33333333--|

prechorus
E--------------------------------------------------------------|
B--------------------------------------------------------------|
G--77777777-----------4444-2222----------77-------------44-22--|
D--77777777-2222-5555-4444-2222-5~----22-77--4h5p4p2p0--44-22--|
A--55555555-2222-5555-2222-0000-5~----22-55-------------22-00--|
E-----------0000-3333-----------3~----00-----------------------|

chorus
E---------------3X-------------------|-------------------|
B------------------------------------|-------------------|
G------------------7777777777777777--|--4~----22---------|
D--55-555-555-5555-7777777777777777--|--4~----22-2-5~----|
A--55-555-555-5555-5555555555555555--|--2~----00-2-5~----|
E--33-333-333-3333-------------------|-----------0-3~----|

verse 2x

verse pt. 3
e-------------------------------------------------------------------------|
B-------------------------------------------------------------------------|
G-------22-------22----22-------22----------22----------------------------|
D----44-------44----44-------44----44----44----44-------44-------44-------|
A-22-------22-------------00-------------------------22-------22----------|
E-------------------------------------33----------00-------00-------0-2-3-|
pm...................................................................

E--------1st-end---------|------2nd-end-------|
B------------------------|--------------------|
G------------------------|--------------------|
D-----44-------44-22-00--|--5555555555555555--|
A--55-------55-----------|--5555555555555555--|
E--------33--------------|--3333333333333333--|
pm ....................


prechorus

chorus
E---------------3X-------------------|------1st-end------|-----2nd-end-----|
B------------------------------------|-------------------|-----------------|
G------------------7777777777777777--|--4~----22---------|--22---4-2-------|
D--55-555-555-5555-7777777777777777--|--4~----22-2-5~----|--22-2-4-2-------|
A--55-555-555-5555-5555555555555555--|--2~----00-2-5~----|--00-2-2-0-5~----|
E--33-333-333-3333-------------------|-----------0-3~----|-----0-----------|

Interlude (same as guitar 1)
transition into chorus (same as guitar 1)

chorus
----------------------------------------------------------------------------

4.The Pornographer's Daughter
 --------
|Guitar 1|
 --------

Verse
E---------------------------------------------|
B---------4-----------------------------------|
G-----4-----4---4-----4---6p4-----------------|
D---6---6-----6-----6---6-----6-----6---4---6-|
A-4---------------0---------------------------|
E-------------------------------0-0---0---0---|

E1st/2nd/4th-end|----3rd-end----|
B---------------|---------------|
G---------------|---------------|
D-----6---4---2-|-----6---4---6-|
A-0-0---0---0---|-0-0---0---0---|
E---------------|---------------|

verse break
e----------4-------------4--------------------------------|
B--------5---5---------5---5------------------------------|
G------6-------6-----6-------6---------9~-----------------|
D----6-------------6---------------6-----------6---6h7p6--| 2x
A--4-------------0-------------------------0-0---0--------|
E------------------------------0-0---0--------------------|

verse
verse break 1x

prechorus
E-------------------------------------------------|
B-------------------------------------------------|
G--------4~----6~----4~----6~----4~----2~--1-2-4--|
D--6~----4~----6~----4~----6~----4~----2~---------|
A--6~----2~----4~----2~----4~----2~----0~---------|
E--4~---------------------------------------------|

chorus
E--------------------------------------|
B--------------------------------------|
G---------4---------4------------------|
D--2222-------4h6-------4h6-----6h7p6--| 4x
A--2222-4---4-----4---4-----4-7--------|
E--0000--------------------------------|

postchorus
E--------------------------------|
B--------------------------------|
G--6~----2~----------2~----6~----|
D--6~----2~----4~----2~----6~----|
A--4~----0~----4~----0~----4~----|
E--------------2~----------------|

verse 2
E--0000000000000000--|
B--------------------|
G--------------------|
D--------------------| play this a lot
A--------------------|
E--------------------|

verse 2x
verse break 2x
prechorus
chorus

postchorus 2
E--------------------------------------------|
B--------------------------------------------|
G--6~----------------6~----------------2--4--|
D--6~----------------6~----------------2--4--|
A--4~----------------4~----------------0--2--|
E--------------------------------------------|

outro
E---------------------------------------|
B---------------------------------------|
G-----------22222222-66666666-44444444--|
D--44444444-22222222-66666666-44444444--| about 8x
A--44444444-00000000-44444444-22222222--|
E--22222222-----------------------------|

 --------
|Guitar 2|
 --------

verse
E---------------------------------------|
B---------------------------------------|
G--66666666-22222222----------22222222--|
D--66666666-22222222-22222222-22222222--| 4x
A--44444444-00000000-22222222-00000000--|
E--------------------00000000-----------|
pm....................................

verse break
E------------------------------------------------------|
B------------------------------------------------------|
G----------4----------4--------------------------------|
D----6---6------6---6--------6---4---6------6---4---6--| 2x
A--4---4------0---0---------------------0-0---0---0----|
E------------------------0-0---0---0-------------------|

prechorus
E--------------------------------------------------------|
B--------------------------------------------------------|
G--------4~----6--------4--------6--------4--------2~----|
D--6~----4~----66666666-44444444-66666666-44444444-2~----|
A--6~----2~----44444444-22222222-44444444-22222222-0~----|
E--4~----------------------------------------------------|
pm              .......  .......  .......  .......

chorus
E-----------------------------|
B-----------------------------|
G-------2222---4--------2--4--|
D--2222-2222-------4h6--2--4--| 4x
A--2222-0000-4---4------0--2--|
E--0000-----------------------|

postchorus
E--------------------------------------------------------|
B--------------------------------------------------------|
G----4----------6---------------4------------------------|
D--------4h6--------7-6-4-----------4h6--------6h7p6~----|
A--4---4------4---4-------7-6-4---4------4-7-4-----------|
E--------------------------------------------------------|

verse 2
E--------------------|
B--------------------|
G--------------------|
D--6666666666666666--| play a lot
A--------------------|
E--------------------|

verse 2x
verse break 2x
prechorus
chorus

postchorus
E----------------------------------------|-----1st-end----|-2nd-end|
B----------------------------------------|----------------|--------|
G----4----------6---------------4--------|----------------|--2--4--|
D--------4h6--------7-6-4-----------4h6--|--------6h7p6~--|--2--4--|
A--4---4------4---4-------7-6-4---4------|--4-7-4---------|--0--2--|
E----------------------------------------|----------------|--------|

outro
E------------------2x----------------->
B------------------------------------->
G----------22222222-66666666-44444444->
D-44444444-22222222-66666666-44444444->
A-44444444-00000000-44444444-22222222->
E-22222222---------------------------->

>---------------9-------------------9------->
>-10-9-------10---10-----------9-10---10---->
>------9~-11---------11--9-11~-----------11->
>------------------------------------------->
>------------------------------------------->
>-------------------2x---------------------->

>-----1212121212121212---------->
>-10-9-121212121212121299999999->
>----------------------99999999->
>------------------------------->
>------------------------------->
>-------------2x---------------->

(Singing stops here, played by Tyler on the live DVD)
>----------------------7-------7-1212121212121212->
>-----7~------9~---------9-7-----1212121212121212->
>-8h9-----8h9-----8h9--------9-------------------->
>------------------------------------------------->
>------------------------------------------------->
>------------------------------------------------->

>------------------------------------------------>
>------------------------------------------------>
>-----------------------------9------9-------11b->
>---------------------9~-9h11---9h11---9h11------>
>-----7---7h9-7/9\7/9---------------------------->
>-7h9---9---------------------------------------->

>----------------------------------------->
>------------------------9~------9h10-12~->
>-----------9~------9h11----9------------->
>------9h11----9h11-----------11---------->
>-9h11------------------------------------>
>----------------------------------------->

>-12----12-15b--------12----16p12-----------12----16p12---->
>----12---------14-14----14-------14--12-12----12-------12->
>---------------------------------------------------------->
>---------------------------------------------------------->
>---------------------------------------------------------->
>---------------------------------------------------------->

>-------12~----------12~-------|
>-10h12------10-9h12------9-5~-|
>------------------------------|
>------------------------------|
>------------------------------|
>------------------------------|

----------------------------------------------------------------------------

5.Like A.M. Radio
 --------
|Guitar 1|
 --------

Verse
E-------------------------------|
B-------------------------------|
G--44444444-2222-77777777-------|
D--44444444-2222-77777777-2222--| 4x
A--22222222-0000-55555555-2222--|
E-------------------------0000--|
pm............................

prechorus
E----------------4x---------------------|---------------------------|
B---------------------------------------|---------------------------|
G--77777777-22222222--------------------|------------77--44---------|
D--77777777-22222222-55555555-22222222--|--5555-2222-77--44--55~----|
A--55555555-00000000-55555555-22222222--|--5555-2222-55--22--55~----|
E--------------------33333333-00000000--|--3333-0000---------33~----|

chorus
E---------------------------------------------------|
B---------------------------------------------------|
G--77777777----------44----77777777----------44-----|
D--77777777-55555555-44-55-77777777-55555555-44-55--| 2x
A--55555555-55555555-22-55-55555555-55555555-22-55--|
E-----------33333333----33----------33333333----33--|

postchorus
E----------------2x----------------------|---------------4x----------------|
B----------------------------------------|---------------------------------|
G-4444-22------2222-4444-2h4-2------2222-|-----2-------2-------2-------2---|
D-4444-22-5555-2222-4444-4-4-4-5555-2222-|---0---0---0---0---0---0---0---0-|
A-2222-00-5555-0000-2222-------5555-0000-|-2-------0-----------------------|
E---------3333-----------------3333------|-----------------3-------2-------|
pm....     ....      ....       ....

verse 2
E--------------------------------------------------------------------------|
B-------------------------------------------------------------------3-----3|
G-----------------------------------------------------------------4-----4--|
D-----4~-------4~---4---4~------4~---4---4~-------4~---4---4~---4-----4----|
A2~-5--------2----0---5-------2----0---5--------2----0---5-----------------|
E---------0~---------------0~----------------0~---------------0------------|

prechorus
chorus
postchorus

ending
E----------------4x---------------------|----------------|
B---------------------------------------|----------------|
G--44444444-77777777--------------------|--44--77--------|
D--44444444-77777777-55555555-44444444--|--44--77--5~----|
A--22222222-55555555-55555555-55555555--|--22--55--5~----|
E--------------------33333333-22222222--|----------3~----|

 --------
|guitar 2|
 --------

verse
E----2~----5p0-2p0--|--2p0-2p0-2p0-2p0--|
B--3----------------|-------------------|
G-------------------|-------------------|
D-------------------|-------------------| 2x
A-------------------|-------------------|
E-------4x----------|-------------------|

prechorus
E---------------4x---------------------|-----------------------------------|
B--------------------------------------|--------------------10-------------|
G-77777777-22222222--------------------|-------11-9----9-11----11-9--------|
D-77777777-22222222-55555555-22222222--|--5555------12--------------12~----|
A-55555555-00000000-55555555-22222222--|--5555-----------------------------|
E-------------------33333333-00000000--|--3333-----------------------------|

chorus (really hard to hear, pretty close) 2x
E----------------------------------------------------------->
B----------------------------------------------------------->
G-11-11-9-9-------11-11-9-9-----------------11-11-9-9------->
D-----------12-12-----------12-12-9-9-12-12-----------12-12->
A----------------------------------------------------------->
E----------------------------------------------------------->

>--10-------10-------10-----|
>-----10-------10-------10--|
>--------11-------11--------|
>---------------------------|
>---------------------------|
>---------------------------|


postchorus
E---------10-10----10-10--------10------10------------10------10----------|
B------10-------10-------10~-------10------10-10~--------10------10-10----|
G-11~------------------------11-------11-----------11-------11---------11~|
D-------------------------------------------------------------------------|
A-------------------------------------------------------------------------|
E-------------------------------------------------------------------------|

E-----------------------------------------------------|
B-----------------------------------------------------|
G-----4s6s4-------------------4s6s4-------------------|
D---7-------7-4-0---0-2h4---7-------7-4-0---0-2h4-2-0-| 2x
A-5---------------5-------5---------------5-----------|
E-----------------------------------------------------|

verse
prechorus
chorus
postchorus

ending (same as guitar 1)
----------------------------------------------------------------------------

6.The Accident Underwater
 --------
|Guitar 1|
 --------

Intro
E---------------------------------------------------------------------->
B---------------------------------------------------------------------->
G-----8---5-------------55-----------00-----------00------------00----->
D--55---5---5-88----8------66----1------11----1------11----1-------11-->
A----------------66---6-------33---3-------11---1-------33---33-------->
E---------------------------------------------------------------------->

>------------------------------------------|
>------------------------------------------|
>---------00-----------00------------------|
>-----1------11----------------------8/10--|
>--11---1----------6------66-6~--6/8-------|
>---------------44---4-------4~------------|

Verse 3x
E---------------------------------------------------------------------->
B---------------------------------------------------------------------->
G-----8---5-------------55-----------00-----------00------------00----->
D--55---5---5-88----8------66----1------11----1------11----1-------11-->
A----------------66---6-------33---3-------11---1-------33---33-------->
E---------------------------------------------------------------------->

>------------------------------------------|
>------------------------------------------|
>---------00-----------00-----------00-----|
>-----1------11----------------------------|
>--11---1----------6------66----6------66--|
>---------------44---4-------44---4--------|

Prechorus
E---------------------|-------|--8~---|------------|
B-------8---9p8-------|---8~--|--8~---|------------|
G-----8---8-----10p8--|---8~--|--8~---|------------|
D--10-----------------|--10~--|-------|------8/10--|
A---------------------|-------|-------|--6/8-------|
E---------3x----------|1st-end|2nd-end|------------|

Chorus
E------------------------------------------------------|
B------------------------------------------------------|
G---------55-----------55----88----55-----------55-----|
D-----5------55----5------66----66----66----5------66--| 4x
A--66---6-------66---6-------------------66---6--------|
E------------------------------------------------------|
pm....................          ..    .........

Postchorus
E------------2x---------------->
B------------------------------>
G------0---------0------------->
D--------------------------5~-->
A----6---6-----6---6---6~--6~-->
E--8-------8-7-------7-6~------>

>-----------------------2x--------------------------|
>---------------------------------------------------|
>------0-----0-----0-----0-----0-----0-----0-----0--|
>---------------------------------------------------|
>----6-----6-----6-----6-----6-----6-----6-----6----|
>--8-----8-----7-----7-----6-----6-----4-----4------|


Verse 3x
Prechorus
Chorus
Postchorus

Outro
E---------------6x-------------------|-------|end-on|
B------------------------------------|-------|------|
G--55555555--------------------------|--4-4--|------|
D--55555555-33333333-66666666666666--|--4-4--|--6~--|
A--33333333-33333333-66666666666666--|--2-2--|--6~--|
E-----------11111111-44444444444444--|-------|--4~--|

 --------
|guitar 2|
 --------

NO INTRO

Verse 3x
E----------------------------------------------->
B----------------------------------------------->
G-55555555-------------------------------------->
D-55555555-66666666-33333333-66666666-33333333-->
A-33333333-66666666-33333333-66666666-33333333-->
E----------44444444-11111111-44444444-11111111-->
pm........ .. .. ..  ....... .. ..

>-------------------------------------------------|
>-------------------------------------------------|
>-------------------------------------------------|
>---5-----5-----5---5-----5-----5---5-----5-----5-|
>-----6-----6---------6-----6---------6-----6-----|
>-4-----4-----4---4-----4-----4---4-----4-----4---|

Prechorus (Same as guitar 1)

Chorus
E----------------------------------------------------------------|
B----------------------------------------------------------------|
G--88888888-55555555------------8--8-8-8--8/-55555555------------|
D--88888888-55555555-3333/6666--8--8-8-8--8/-55555555-3333/6666--| 2x
A--66666666-33333333-3333/6666--6--6-6-6--6/-33333333-3333/6666--|
E--------------------1111/4444------------------------1111/4444--|
pm  ........ .......                          .......

Postchorus
E--------------------------------------------------------|
B---------------------4-----4-4-6-6b8-4~--6b8-6b8-6b8-4~-|
G-----------------3h5---3h5------------------------------|
D-5~--5~--5~--5~-----------------------------------------|
A-3~--2~--1~--6~-----------------------------------------|
E-------------4~-----------------------------------------|

E-----3-----3-------------------------------------|
B-----------------6-----6-----4-----4-----4-----4-|
G-3h5---3h5---3h5---3h5---3h5---3h5---3h5---3h5---|
D-------------------------------------------------|
A-------------------------------------------------|
E-----------------------2x------------------------|

Verse
Prechorus
Postchorus

Outro
E---------8---8---8---15---->
B-----8~----8---8---8----13->
G-8~------------------------>
D--------------------------->
A--------------------------->
E--------------------------->

>-20p17-20p17-20p17-20p17-18p15-18p15-18p15-18p15------------->
>-------------------------------------------------16---------->
>------------------------------------------------------------->
>------------------------------------------------------------->
>----------------------------------------------------66666666->
>------------------------------------------------------------->

>------------------------------------------------------>
>---------------------------16-18-18b20r18-16---------->
>-------8h10/12p10h12-15-17---------------------------->
>--8h10------------------------------------------------>
>---------------------------------------------66666666->
>------------------------------------------------------>

>-20b21-18-------15-16-15------------------->
>----------16-18----------18-18-16---------->
>------------------------------------------->
>------------------------------------------->
>----------------------------------66666666->
>------------------------------------------->

>-----3-----3-3h4p3-------------------------3-----3--------------------|
>-------------------6-4-----4~--6b8r6-4-----------------6-----6-----4~-|
>-3h5---3h5-------------3h5-------------3h5---3h5---3h5---3h5---3h5----|
>----------------------------------------------------------------------|
>----------------------------------------------------------------------|
>----------------------------------------------------------------------|

----------------------------------------------------------------------------

7. Two Zero Two
 --------
|Guitar 1|
 --------

verse
E------------|
B------------|
G----0---0~--|
D--2---0-----| 6x
A------------|
E------------|

prechorus
E----------------------------|--------------------------|
B----------------------0-----|--------------------------|
G------0---0~------0-----0~--|----0---0~--------0---0~--|
D----0---0-------0---0-------|------0-------------0-----|
A--3-----------3-------------|--7---------3h5/7---------|
E------------2x--------------|--------------------------|

verse pt. 2
E--------------------------|
B--------------------------|
G----0---0~--------0---0~--|
D------0-------------0-----| 2x
A--7---------3h5/7---------|
E--------------------------|

prechorus pt. 2
E----------------------------|------------------------|
B----------------------0-----|------------------------|
G------0---0~------0-----0~--|----0---0~------0-------|
D----0---0-------0---0-------|------0-------0---0~----|
A--3-----------3-------------|--7---------3-----------|
E------------2x--------------|------------------------|

chorus
E-----------------------------------|----------------------|
B------3-------3-------3-------3----|------3-------3-------|
G----0---0---0---0---0---0---0---0--|----0---0---0---0-----|
D--2-------0---------------0--------|--2-------0-----------|
A------------------3----------------|------------------3~--|
E---------------4x------------------|----------------------|


verse 4x
prechorus
verse pt. 2
prechorus pt. 2
chorus

ending
E-------------|-----|
B------3---3--|--3--|
G------0---0--|--0--|
D-------------|-----|
A--0h2--------|-----|
E--------3----|-----|
      16x        7x

 --------
|Guitar 2|
 --------

Verse (play nothing)
prechorus (same as guitar 1)
verse pt. 2 (play nothing)
prechorus pt. 2 (same as guitar 1)

chorus
E------3-------3-------2-------3----|------3-------3---------|
B----3---3---3---3---3---3---3---3--|----3---3---3---3-------|
G-----------------------------------|------------------------|
D--2-------0---------------0--------|--2-------0-------------|
A------------------3----------------|------------------3~----|
E---------------4x------------------|------------------------|

verse
prechorus
verse pt. 2
prechorus pt. 2

chorus
E------2-------3-------2-------3----|------2-------3-------2~----|
B----3---3---3---3---3---3---3---3--|----3---3---3---3---3-------|
G-----------------------------------|----------------------------|
D--2-------0---------------0--------|--2-------0-----------------|
A------------------3----------------|------------------3---------|
E---------------4x------------------|----------------------------|

ending
E--------------------------------|-12-10-----------------------------------|
B-----------0-----0-------0------|-------12-10-12-----12-10b-----12-10-----|
G-7/9-7~-------------------------|----------------12~--------12~-------12~-|
D---------9---5~----7-5~----7-5~-|-----------------------------------------|
A--------------------------------|-----------------------------------------|
E--------------------------------|-----------------------------------------|

E--<12>-10~-------------------10~----------------|
B------------<12>--------<12>------<12>----------|
G-----------------<12>~-----------------<12>~----|
D------------------------------------------------|
A------------------------------------------------|
E------------------------------------------------|

----------------------------------------------------------------------------

8.To My Better Angel
 --------
|Guitar 1|
 --------

Verse
E----------------------------->
B--88-8-88-10-88-8-8-8-88-8~-->
G--99-9-99--9-99-9-9-9-99-9~-->
D----------------------------->
A----------------------------->
E------------2x--------------->
pm...   ..    ..   .   ..

>-------------------------------------------------|
>-----------------------------------------8-8-8/--|
>----------------------------22-2-22-2-22-9-9-9/--|
>--55-5-55-5-55-5-55-5-55-5--22-2-22-2-22---------| 2x
>--55-5-55-5-55-5-55-5-55-5--00-0-00-0-00---------|
>--33-3-33-3-33-3-33-3-33-3-----------------------|
pm ..   ..   ..   ..   ..    ..   ..   ..

verse pt. 2
E--------------------------|-----4x----|--------------|
B--------------------------|-------3p0-|--------------|
G-----12121212----12121212-|-55-55-----|-555555555555-|
D--55-xxxxxxxx-77-xxxxxxxx-|-55-55-----|-555555555555-| 2x
A--55-10101010-77-10101010-|-33-33-----|-333333333333-|
E--33----------55----------|-----------|--------------|
                              pm..

prechorus
E--------------------------------------3~--3~--------------|
B--------------------------------------3~--3~--------------|
G----------5-555555-----------5-555555-0~--0~------5~-<5>--|
D-5-555555-5-555555-2-22-5-55-5-555555-0~--0~--2-5-5~------|
A-5-555555-3-333333-2-22-5-55-3-333333-x~--3~--2-5-3~------|
E-3-333333----------0-00-3-33----------3~------0-3---------|
pm  ......   ......   ..   ..   ......

chorus
E---------------2x-----------------|---------------------------------------|
B----------------------------------|---------------------------------------|
G----------55555555-------55555555-|-44-55-77-44-55-77--44-55-77-44-55-----|
D-55555555-55555555-22-55-55555555-|-55-55-77-55-55-77--55-55-77-55-55-5~--|
A-55555555-33333333-22-55-33333333-|-22-33-55-22-33-55--22-33-55-22-33-5~--|
E-33333333----------00-33----------|-----------------------------------3~--|

Postchorus
E--------------------------------------------------------------------------|
B--------------------------------------------------------------------------|
G-----2-5~------------------22-2-22-2-55-5-55-5---------------------2~--5~-|
D-2~--2-5~--2-222-55-5-55-5-22-2-22-2-55-5-55-5-22-2-22-2-55-5-55-5-2~--5~-|
A-2~--0-3~--2-222-55-5-55-5-00-0-00-0-33-3-33-3-22-2-22-2-55-5-55-5-0~--3~-|
E-0~--------0-000-33-3-33-3---------------------00-0-00-0-33-3-33-3--------|
pm            ... ..   ..   ..   ..   ..   ..   ..   ..   ..   ..

transition riff
E-------------------------------------------|
B--88-8-88-8-----------88-8-88-8------------|
G--99-9-99-9-99-9-77-7-99-9-99-9-99-9-99-9--|
D------------99-9-77-7-----------99-9-99-9--|
A-------------------------------------------|
E-------------------------------------------|
pm...   ..   ..   ..   ..   ..   ..   ..

verse
verse pt. 2

prechorus
E----------------2x------------------|-------|
B------------------------------------|-------|
G-----------55555555-------55555555--|--<5>--|
D--55555555-55555555-22-55-55555555--|-------|
A--55555555-33333333-22-55-33333333--|-------|
E--33333333----------00-33-----------|-------|
pm.................................

chorus
postchorus

transition riff
E------------------------------|
B------------------------------|
G--------5~----7~----55555555--|
D--2~----5~----7~----55555555--|
A--2~----3~----5~----33333333--|
E--0~--------------------------|

ending
E------------------------------------|
B------------------------------------|
G-----------55555555-------55555555--|
D--55555555-55555555-22-55-55555555--| 4x
A--55555555-33333333-22-55-33333333--|
E--33333333----------00-33-----------|

 --------
|Guitar 2|
 --------

verse
E-------------------------|--------7-----7----|
B--88-8-88-10-88-8-88-8/--|--8--10-----8---8--|
G--99-9-99--9-99-9-99-9/--|--9---9---7--------|
D-------------------------|-------------------| 2x
A-------------------------|-------------------|
E----------3x-------------|-------------------|
pm...   ..    ..   ..

verse pt. 2
E-------7------7----------------------7---7---10101010--8-8-8-8--|
B-----8------8---8------8-----------8---8---8-12121212-10101010--|
G--/9-----/7----------7----------/9------------------------------|
D------------------/9-----9b~------------------------------------| 2x
A----------------------------------------------------------------|
E----------------------------------------------------------------|

prechorus
E--7~----------------7--------|--7b--|
B--------10~----8-10---10-8~--|------|
G-----------------------------|------|
D-----------------------------|------|
A-----------------------------|------|
E------------2x---------------|------|

chorus
E--1515151515151515------1515------1515--|
B--1212121212121212-1313-1212-1313-1212--|
G-------------------1414------1414-------|
D----------------------------------------|
A----------------------------------------|
E-----------------2x---------------------|

E-----------------------------------77-77-77-7-77-77-77-7-77-77-77-7--|
B--88-88-88-8-88-88-88-8-88-88-88-8-88-88-88-8-88-88-88-8-88-88-88-8--|
G--77-77-77-7-77-77-77-7-77-77-77-7-77-77-77-7-77-77-77-7-77-77-77-7--|
D--99-99-99-9-99-99-99-9-99-99-99-9-----------------------------------|
A---------------------------------------------------------------------|
E---------------------------------------------------------------------|
pm ..    ..   ..    ..   ..    ..   ..    ..   ..    ..   ..    ..

postchorus
E------7~-----7---------------7~---------------7---7-------->
B----8-----10---10-8---8----8----------------8---8---------->
G--7-----------------7----7----------------5---------------->
D--------------------------------------5h7------------------>
A----------------------------------5h7---------------------->
E----------------------------------------------------------->
>----------------------------------------------------------->
>-88-8-88-10-88-8-88-8/--88-8-88-10-88-8-88-8-8-8-8-8-8/---->
>-99-9-99--9-99-9-99-9/--99-9-99--9-99-9-99-9-9-9-9-9-9/---->
>----------------------------------------------------------->
>----------------------------------------------------------->
>----------------------------------------------------------->
pm..   ..    ..   ..     ..   ..    ..   ..
>-----------15151515~--15/-------------|
>-----------12121212~--12/-------8-----|
>---------5--------------------7-------|
>-----5h7--------------------9-----9b~-|
>-5h7----------------------------------|
>--------------------------------------|

verse
verse pt. 2
prechorus (play nothing)
chorus
postchorus

transition riff
E------------------------------------------------------>
B------------------------------------3---------3------->
G-----7----9----7----9----7-----5---------5---------5-->
D------------------------------------------------------>
A--77---77---77---77---77----33---33---33---33---33---->
E------------------------------------------------------>
pm..    ..   ..   ..   ..    ..   ..   ..   ..   ..

>------------------------------------|
>---------3---------3----------------|
>----5---------5---------5-55555555--|
>-00---00---00---00---00---55555555--|
>--------------------------33333333--|
>------------------------------------|
pm..   ..   ..   ..   ..

ending (same as guitar 1)
----------------------------------------------------------------------------

9.Between Horns and Halos
 --------
|guitar 1|
 --------

Verse
E------------------------------------------------>
B------------------------------------------------>
G--22222222---------------1-2--77777777-22222222->
D--22222222-22222222-4444------77777777-22222222->
A--00000000-22222222-4444------55555555-00000000->
E-----------00000000-2222------------------------>

>---------------------------------------------|
>-------22------------------------------------|
>----22----22-77--22--44----7777777777777777--|
>-22----------77--22--44-44-7777777777777777--| 2x
>-------------55--00--22-44-5555555555555555--|
>------------------------22-------------------|
pm.. ..

Prechorus
E----------------------------------|
B----3---2---0---2---0---2---0-----|
G----------------------------------|
D-44---4---4---4---4---4---4---444-|
A----------------------------------|
E--------------3x------------------|
pm..   .   .   .   .   .   .   ...

>------------------------------|----------------------------|
>----3---2---0---2---3---2---0-|----3---2---0--0h2---0h2----|
>------------------------------|-------------------2-----2~-|
>-44---4---4---4---4---4---4---|-44---4---4---4-------------|
>------------------------------|----------------------------|
>--------1st-ending------------|-------2nd-ending-----------|
pm..   .   .   .   .   .   .     ..   .   .   .

Chorus
E-------------------------------------------------------|
B----------------------------------------3-----3--------|
G--2~------------4-----4-----4-----4---2-----2-------4--|
D--2~----------2-----2-----2-----2---0-----0-------2----| 2x
A--0~--------2-----2-----2-----2------------------------|
E------------------------------------------------0------|

Verse
Prechorus
Chorus

Bridge
E-------------------------------------------------------------------------->
B-------------------------------------------------------------------------->
G-44444444-77777777-22222222----------44444444-77777777-22222222-22-2-22-2->
D-44444444-77777777-22222222-22222222-44444444-77777777-22222222-22-2-22-2->
A-22222222-55555555-00000000-22222222-22222222-55555555-00000000-00-0-00-0->
E----------------------------00000000-------------------------------------->
pm                                                               ..   ..

>-------------------------------------------------------|
>-------------------------------------------------------|
>-99999999-77777777-22222222-44444444-77777777-22222222-|
>-99999999-77777777-22222222-44444444-77777777-22222222-|
>-77777777-55555555-00000000-22222222-55555555-00000000-|
>-------------------------------------------------------|

Outro
E--------4x--------|------|
B------------------|------|
G--77--22--44------|--7~--|
D--77--22--44--44--|--7~--|
A--55--00--22--44--|--5~--|
E--------------22--|------|
E------------------|------|

 --------
|guitar 2|
 --------

Verse 2x
E------------------------------------------------------->
B------------------------------------------------------->
G-22222222-------------------77777777-22222222---------->
D-22222222-22222222-44444444-77777777-22222222-22222222->
A-00000000-22222222-44444444-55555555-00000000-22222222->
E----------00000000-22222222-------------------00000000->
pm                                             ........

>-----------------1212-----------------------|
>--10101010101010101010101010101010----------|
>---7-7-7-7-7-7-7-7-----7-7-7-7-7-7-77777777-|
>-----------------------------------77777777-|
>-----------------------------------55555555-|
>--------------------------------------------|

Prechorus
E--------0-----------0-----------0------|--------0------|--------0------|
B------3---3-------3---3-------3---3----|------3---3----|------3---3----|
G----2-------2---2-------2---2-------2--|----2-------2--|----2-------2--|
D--------------------------0------------|---------------|---------------| 2x
A--2-----------2------------------------|--0------------|---------------|
E---------------------------------------|---------------|--0------------|
                                           1st ending      2nd ending
Chorus
E---------------------------|-------------------|
B--10-10-10-10-10-10-12-10--|--10-10-10-10-12~--|
G---9--9--9--9--9--9--9--9--|---9--9--9--9--9~--|
D---------------------------|-------------------|
A---------------------------|-------------------|
E------------7x-------------|-------------------|

Verse
Prechorus
Chorus
Bridge (same as guitar 1)

Outro
E---------2x---------|-------------------1212---------------|
B--------------------|--1010101010101010-1010-101010101010--|
G--77--22--44--------|---7-7-7-7-7-7-7-7-------7-7-7-7-7-7--|
D--77--22--44--44----|--------------------------------------|
A--55--00--22--44----|--------------------------------------|
E--------------22----|-------------------2x-----------------|

----------------------------------------------------------------------------

10.Digital Me
 --------
|guitar 1|
 --------

Intro
E--------------------|
B--------------------|
G--6x-2h4/6----------|
D--6x-------22-4444--| 4x
A--4x-------22-4444--|
E-----------00-2222--|

Verse
E---------------------------------------------|
B--------------0------0---------0------0------|
G--6~------------1------1---------1------1----|
D--6~-----------------------------------------|
A--4~--------4-----2------0~--4-----2-----0~--|
E---------------------------------------------|

Prechorus
E-------------------|
B-------------------|
G--66--66--66--66\--|
D--66--66--66--66\--|
A--44--44--44--44\--|
E-------------------|

Chorus
E-------------2x--------------|--------|
B-----------------------------|--------|
G--66--66-----------22222222--|--4-6~--|
D--66--66--44444444-22222222--|--4-6~--|
A--44--44--44444444-00000000--|--2-4~--|
E----------22222222-----------|--------|

Intro 2x

Verse 2
E------------------------------------------------------------|
B------------------------------------------------------------|
G--6~--------6666-4444-22-------------6666-4444-22-----------|
D--6~--------6666-4444-22-44-44-44-44-6666-4444-22-44444444--|
A--4~--------4444-2222-00-44-44-44-44-4444-2222-00-44444444--|
E-------------------------22-22-22-22--------------22222222--|
pm           .... .... .. ..    ..    .... .... ..

Prechorus

Chorus 2
E-------------2x--------------|--------------2x--------------|
B-----------------------------|------------------------------|
G--66--66-----------22222222--|--66666666----------22222222--|
D--66--66--44444444-22222222--|--66666666-44444444-22222222--|
A--44--44--44444444-00000000--|--44444444-44444444-00000000--|
E----------22222222-----------|-----------22222222-----------|

Bridge
E---4x---|--------------------------------------|
B--------|--------------------------------------|
G--4-6~--|--4-66666666666666666666666666666666--|
D--4-6~--|--4-66666666666666666666666666666666--|
A--2-4~--|--2-44444444444444444444444444444444--|
E--------|--------------------------------------|
pm             ...............

Chorus 3
E---------------2x--------------|------------2x--------------|
B-------------------------------|----------------------------|
G--66666666-----------22222222--|--66--66----------22222222--|
D--66666666--44444444-22222222--|--66--66-44444444-22222222--|
A--44444444--44444444-00000000--|--44--44-44444444-00000000--|
E------------22222222-----------|---------22222222-----------|

Ending
E----------|
B----------|
G--66--66--|
D--66--66--|
A--44--44--|
E----------|

 --------
|guitar 2|
 --------

Intro
E-----------------0----------------------------------|
B-----------------0----------------------------------|
G----------------------------------------6--8b9r8-4--|
D------9--------2---2--1--------9--------------------| 2x
A--4/7---7h9/11-2--------2--4/7---7h9/11-------------|
E---------------0------------------------------------|

Verse
E----------7-9--------7-9-7--------7777-9-77-------9-9-9-12/--|
B--------9-----10-9~--------10-9~--9999-9-99-10-9--9-9-9------|
G--6~--6--------------------------------------9-6-------------|
D--6~---------------------------------------------------------|
A--4~---------------------------------------------------------|
E-------------------------------------------------------------|

Prechorus
E--9-7-------9-7-------9-7---------|
B------7/9-------7/9-9-----7/9-----|
G----------6-------------------6\--|
D----------------------------------|
A----------------------------------|
E----------------------------------|

Chorus
E-----------------2x------------------|------------|
B-------------------------------------|------------|
G--66-9999-66-9999----------22222222--|------4-----|
D--66-xxxx-66-xxxx-44444444-22222222--|----2---6~--|
A--44-7777-44-7777-44444444-00000000--|--2---------|
E------------------22222222-----------|------------|
pm                                       . .

Intro 1x
Verse
Prechorus
Chorus 4x

Bridge
E--------|--9---7---------|--9---7-----|
B--------|----9---7-9-----|----9---7\--|
G--4-6~--|------------6~--|------------|
D--4-6~--|----------------|------------|
A--2-4~--|----------------|------------|
E--------|-------4x-------|------------|

Chorus 4x
Ending (Same as guitar 1)
----------------------------------------------------------------------------

11.Rocket City
 --------
|Guitar 1|
 --------

Intro
E---------------2x--------------------->
B-------------------------------------->
G--44444444-77777777------------------->
D--44444444-77777777-5555555555555555-->
A--22222222-55555555-5555555555555555-->
D--------------------5555555555555555-->
pm...................................

>----------------2x-------------------|------------|
>-------------------------------------|--33333333--|
>-44444444-22222222-------------------|------------|
>-44444444-22222222-5555555555555555--|------------|
>-22222222-00000000-5555555555555555--|------------|
>-------------------5555555555555555--|-3rd-guitar-|
pm........

verse
E----------------2x--------------------|---------|
B--------------------------------------|------3--|
G--44444444-77777777-------------------|----2----|
D--44444444-77777777-5555555555555555--|--0------| 2x
A--22222222-55555555-5555555555555555--|---------|
D--------------------5555555555555555--|---16x---|
pm...................................

chorus pt. 1
E-----------4x-------------|--end--|
B--------------------------|-------|
G--77777777-11-9-77777777--|-------|
D--77777777--x-x-77777777--|--0~---|
A--55555555--9-7-55555555--|--0~---|
D--------------------------|--0~---|

chorus pt. 2
E--------------------------------------|-------------------|---2nd-end---|
B--------------------------------------|-------------------|-------------|
G--------------------------------------|------9p7-----9p7--|-------------|
D------4---5---4-------4-----4---------|--7-7-----7-7------|--4\2-2/4-0--|
A--5-5---5---5---5-0-0---------5-5~----|-------------------|-------------|
D------------------------3-3-----------|------1st-end------|-------------|

postchorus
E------4x------|----------------|
B--------------|----------------|
G--7777-22-----|----------------|
D--7777-22-55--|--5~----xx5~----|
A--5555-00-55--|--5~----xx5~----|
D----------55--|--5~----xx5~----|

verse

chorus pt. 1
E-----------4x-------------|--end--|
B--------------------------|-------|
G--14141414-11-9-77777777--|-------|
D--xxxxxxxx--x-x-77777777--|--0~---|
A--12121212--9-7-55555555--|--0~---|
D--------------------------|--0~---|

chorus pt. 2
postchorus

ending
E---------|
B------3--|
G----2----|
D--0------| 16x
A---------|
D---------|

 --------
|guitar 2|
 --------

Intro (real quiet)
E--------------------------|
B--7-8~--5-7~--------------|
G--------------7-6~--7-9~--|
D--------------------------| 2x
A--------------------------|
D--------------------------|

verse
E----------------2x-------------------->
B-------------------------------------->
G--66666666-99999999-2222222222222222-->
D--44444444-77777777-0000000000000000-->
A-------------------------------------->
D-------------------------------------->

>---------------------------------------------------------------------|
>--7-8-~--5-7~--------------7-8-10-8-7h8p7-----------7777-8888-7777~--|
>---------------7-6~--7-9~-----------------7777-9999------------------|
>---------------------------------------------------------------------|
>---------------------------------------------------------------------|
>----------------------------1st-end----------------------------------|

>-------------------------------------------------------------------------|
>-7-8~--5-7~--------------------------------------------------7777-88-77~-|
>-------------7-6~-6h7p6--7777-6666-7777-6666-77-66-7777-9999-------------|
>-------------------------------------------------------------------------|
>-------------------------------------------------------------------------|
>-----------------------------2nd-end-------------------------------------|

chorus pt. 1
E-----------4x-------------|--end--|
B--------------------------|-------|
G--77777777-11-9-77777777--|-------|
D--77777777--x-x-77777777--|--0~---|
A--55555555--9-7-55555555--|--0~---|
D--------------------------|--0~---|

chorus pt. 2
E--------------3x-------------------|-------------1x--------------|
B-----------------------------------|-----------------------------|
G-----------------------------------|-----------------------------|
D------4---5---4-------4-------4----|------4---5---4-------4------|
A--5-5---5---5---5-0-0---0----------|--5-5---5---5---5-0-0---0----|
D--------------------------5-5---5--|--------------------------5--|

postchorus
E------4x------|----------------|
B--------------|----------------|
G--7777-22-----|----------------|
D--7777-22-55--|--5~----xx5~----|
A--5555-00-55--|--5~----xx5~----|
D----------55--|--5~----xx5~----|

verse
chorus pt. 1
chorus pt. 2
postchorus
chorus pt. 2
2 comments total.
0 reply
Korvac92 wrote on September 28 2007, 04:15 pm

this tab is great.. only a few minor errors.. excellent job man..

0 reply
LisTenToThriCe wrote on March 22 2011, 02:05 pm

almost perfect. thank you.

I want to post or [tab]
guest
You may want to rate the tab now too:
select rating
Please do not post tabs as comments. Select "correction" instead!