Oops, an error
Loading. Please wait.

Meeting Tab

29 views 1 this week
no commentswrite comment
1 2 3 4 5
please rate
add to favorites launch autoscroll
font size
0
reset
Autoscroll
+/-
esc
set tempo
stop
Contributor
WARNING: You are trying to view
                                    content from Ultimate-Guitar.com
                                    in an unauthorized application,
                                    which is prohibited.

                                    Please use an official Ultimate
                                    Guitar Tabs application for iPhone,
                                    iPad or Android to access legitimate
                                    chords, guitar, bass, and drum tabs
                                    from Ultimate-Guitar.com database.

                                    Type "ultimate guitar tabs" in Apple
                                    App Store's or Android Market's
                                    search to find the application.
The Meeting from Poem of a Knight written by Nu.Clear.Dawn

Transcribed and arranged by Pejoo@nucleardawn.com
 
  Flute translated to Guitar:
 
|-------19-18-|-16--------------|-18---16-14--12-11-|-9---11-12---16-|
|-------------|-----16--17--19--|-------------------|----------------|
|-------------|-----------------|-------------------|----------------|
|-------------|-----------------|-------------------|----------------|
|-------------|-----------------|-------------------|----------------|
|-------------|-----------------|-------------------|----------------|
 
 
|-18--16--14------|
|-----------------|
|-----------------|
|-----------------|
|-----------------|
|-----------------|
 
Riff 1:
 
|-------------2-1-|-------------|-1------------|--------------|
|-----------------|-4--------2--|-----4-2------|-----------2--|
|-----------------|----3--4-----|----------4-3-|-1---3-4------|
|-----------------|-------------|--------------|--------------|
|-----------------|-------------|--------------|--------------|
|-----------------|-------------|--------------|--------------|
 
 
 
|-1--------2-1-|-------------|-1------------|-------------|
|----4--2------|-4--------2--|-----4-2------|-----------2-|
|--------------|----3--4-----|----------4-3-|-1---3-4-----|
|--------------|-------------|--------------|-------------|
|--------------|-------------|--------------|-------------|
|--------------|-------------|--------------|-------------|
 
 
                               
|-1--------2-1-|-------------|
|----4--2------|-4----(4)----| 
|--------------|-------------|
|--------------|-------------|
 
Riff 2:
|---------------------------2-6-11--|
|-------------3-3-----4-4-----------|
|-4-4-3-3-4-4-----4-4-----4---------|
|-----------------------------------|
|-----------------------------------|
 
 
|-14-13-14-------------|
|----------16-15-16----|
|----------------------|
|----------------------|
|----------------------|
|----------------------|
 
 
|------------------------6-7-9---------------|---------------------|
|----14-16---------------------------9-11----|-------9-------------|
|-16-------------------1----------11---------|-10-11---10-8-7-8----|
|-------------18-20-21-----------------------|---------------------|
|------------------------------11---------11-|---------------------|
|----------16--------------------------------|---------------------|
 
 
|-----------------------------6-11-|-14-13-14-------------|
|---------------------------7------|----------16-15-16----|
|-8-8-7-7-8-8-----8-8-----8--------|----------------------|
|-------------8-8-----9-9----------|----------------------|
|----------------------------------|----------------------|
|----------------------------------|----------------------|
 
 
|------------------------6-7-9---------------|---------------------|
|----14-16---------------------------9-11----|-------9-------------|
|-16-------------------1----------11---------|-10-11---10-8-7-8----|
|-------------18-20-21-----------------------|---------------------|
|------------------------------11---------11-|---------------------|
|----------16--------------------------------|---------------------|
 
 
|-----------------4-4-2-4--------|----------------------------------|
|-------------6-6---------6-4-2--|---2-4-----4-6---4-6-7---6-7-9----|
|-6-6-----6-6--------------------|-4-------6------------------------|
|-----6-6------------------------|-------6-------6-------6----------|
|--------------------------------|-------------------------------11-|
|--------------------------------|----------------------------------|
 
 
|---------------------------------------7-7-|
|-------------------------9-9-------9-9-----|
|-------------------10-10-----10-10---------|
|-12-12-------12-12-------------------------|
|-------13-13-------------------------------|
|-------------------------------------------|
 
 
|-------------------------------------|
|-9-11-12----------9-------6----------|
|---------10-10-11-----7-8------------|
|--------------------8-------8-6-8-9--|
|-------------------------------------|
|-------------------------------------|
 
 
Repeat Riff 2 Then play :
 
              
|-----------|
|-----------|
|--9--------|
|--9--------|
|--9--------|
|-12--------|
 
 
Riff 3
 
|---------------------------------|
|---------------------------------|
|---------------------------------|
|-----4-4-3-3-4-4-----4-4-3-3-4-4-|
|-6-6-------------6-6-------------|
|---------------------------------|
 
 
 
|---------------------------------|---------------------------------|
|---------------------------------|---------------------------------|
|---------------------------------|---------------------------------|
|-----4-4-3-3-4-4-6-6-4-4-3-3-4-4-|-----4-4-3-3-4-4-----4-4-3-3-4-4-|
|-2-2-----------------------------|-6-6-------------6-6-------------|
|---------------------------------|---------------------------------|
 
 
                                    
|---------------------------------|---------------------------------|
|---------------------------------|---------------------------------|
|---------------------------------|---------------------------------|
|-----4-4-3-3-4-4-6-6-4-4-3-3-4-4-|-----4-4-3-3-4-4-----4-4-3-3-4-4-|
|-4-4-----------------------------|-6-6-------------6-6-------------|
|---------------------------------|---------------------------------|
 
 
|---------------------------------|---------------------------------|
|---------------------------------|---------------------------------|
|---------------------------------|---------------------------------|
|-----4-4-3-3-4-4-6-6-4-4-3-3-4-4-|-----4-4-3-3-4-4-----4-4-3-3-4-4-|
|-2-2-----------------------------|-6-6-------------6-6-------------|
|---------------------------------|---------------------------------|
 
 
|---------------------------------|---------------------------------|
|---------------------------------|---------------------------------|
|---------------------------------|---------------------------------|
|-----4-4-3-3-4-4-6-6-4-4-3-3-4-4-|-----6-6-----6-6-----6-6-----6-6-|
|-2-2-----------------------------|-4-4-----4-4-----4-4-----4-4-----|
|---------------------------------|---------------------------------|
 
 
|---------------------------------|---------------------------------|
|---------------------------------|---------------------------------|
|---------------------------------|-----3-3-----3-3-----3-3-----3-3-|
|-----6-6-----6-6-----6-6-----6-6-|---------------------------------|
|---------------------------------|-5-5-----5-5-----5-5-----5-5-----|
|-8-8-----8-8-----8-8-----8-8-----|---------------------------------|
 
 
|---------------------------------|---------------------------------|
|---------------------------------|---------------------------------|
|-----3-3-----3-3-4-4-3-3-1-1-3-3-|-3-------3-----------3-------3---|
|-1-1-----1-1---------------------|-1-1-1-1-1-1-1-1-1-1-1-1-1-1-1-1-|
|---------------------------------|---------------------------------|
|---------------------------------|---------------------------------|
 
 
|---------------------------------|---------------------------------|
|---------------------------------|---------------------------------|
|-3-------------------------------|---------------------------------|
|-0-------8-----------8-------8---|-6-------6-----------6-------6---|
|---5-5-5-5-5-5-5-5-5-5-5-5-5-5-5-|-4-4-4-4-4-4-4-4-4-4-4-4-4-4-4-4-|
|---------------------------------|---------------------------------|
 
 
|---------------------------------|---------------------------------|
|---------------------------------|---------------------------------|
|---------------------------------|---------------------------------|
|-6-------6-----------6-------6---|---------4-------3-------4-------|
|-3-3-3-3-3-3-3-3-3-3-3-3-3-3-3-3-|-2-2-2-2-2-2-2-2-2-2-2-2-2-2-2-2-|
|---------------------------------|---------------------------------|
 
 
|---------------------------------|---------------------------------|
|---------------------------------|---------------------------------|
|---------------------------------|---------------------------------|
|---------4-------3-------4-------|---------6-------4-------6-------|
|-2-2-2-2-2-2-2-2-2-2-2-2-2-2-2-2-|-4-4-4-4-4-4-4-4-4-4-4-4-4-4-4-4-|
|---------------------------------|---------------------------------|
 
 
                    
|------------------|
|------------------|
|------------------|
|-4-3-1-3-1-0-1----|
|------------------|
|------------------|
 
Riff 4: X2
 
|--------------------------------------------|--------------------------------------------|
|--------------------------------------------|--------------------------------------------|
|----------------1--1--3--3--------3-2---2-3-|-(3)-----1--------1--1--3--3--3-1--1--------|
|-------6--4-3-1-------------1-0-1-----3-----|------------4-3-1---------------------------|
|--------------------------------------------|-----1-2--------------------------—---------|
|-4-6-7--------------------------------------|--------------------------------------------|
 
 
 
Riff 5 (Refrain):
 
|--14-14-13--11---------------|
|----------------11--12--14---|
|-----------------------------|
|-----------------------------|
|-----------------------------|
|-----------------------------|
 
 
|-13---11-9--7-6-|-4---6-7---9-|-13--11--9--14-13-|-11--------------|
|----------------|-------------|------------------|-----11--12--14--|
|----------------|-------------|------------------|-----------------|
|----------------|-------------|------------------|-----------------|
|----------------|-------------|------------------|-----------------|
|----------------|-------------|------------------|-----------------|
 
 
|-13---11-9--7-6-|-4---6-7---9-|-13--11--9--14-13-|-11----(11)----|
|----------------|-------------|------------------|---------------|
|----------------|-------------|------------------|---------------|
|----------------|-------------|------------------|---------------|
|----------------|-------------|------------------|---------------|
|----------------|-------------|------------------|---------------|
 
 
Riff 6:
 
Guitar I: X2
|-------------------------------------------------|
|-------------------------------------------------|
|-------------------------------------------------|
|-14----------14----------------14----------14----|
|-14----------14----------------14----------14----|
|-12-12-12-12-12-12-12-12-12-12-12-12-12-12-12-12-|
 
 
Guitar II: X2
|-------------------------------------------------|
|-12----------12----------------12----------12----|
|-12----------12----------------12----------12----|
|-------------------------------------------------|
|-------------------------------------------------|
|-------------------------------------------------|
 
Guitar I: X2
|-------------------------------------------------||-------------------------------------------------|
|-------------------------------------------------||-------------------------------------------------|
|-------------------------------------------------||-------------------------------------------------|
|-------------------------------------------------||-------------------------------------------------|
|-------------------------------------------------||-------------------------------------------------|
|-12-12-12-12-12-12-12-12-12-12-12-12-12-12-12-12-||-12-12-12-12-12-12-12-12-12-12-12-12-12-12-12-12-|
 
 
 
Guitar II: X2
|-------------------------------------------------||-------------------------------------------------|
|-------------------------------------------------||-------------------------------------------------|
|-10----------10----------------10----------10----||-10----------10----------------10----------10----|
|-10----------10----------------10----------10----||-10----------10----------------10----------10----|
|-------------------------------------------------||-------------------------------------------------|
|-------------------------------------------------||-------------------------------------------------|
 
 
 
Guitar I:
 
|---------------------------------|---------------------------------|
|---------------------------------|---------------------------------|
|---------------------------------|---------------------------------|
|---------6-----------6-------6---|-6-------6-----------6-------6---|
|---------6-----------6-------6---|-6-------6-----------6-------6---|
|-4-4-4-4-4-4-4-4-4-4-4-4-4-4-4-4-|-4-4-4-4-4-4-4-4-4-4-4-4-4-4-4-4-|
 
Guitar II:
 
|-4-------4-----------4-------4---|-4-------4-----------4-------4---|
|-4-------4-----------4-------4---|-4-------4-----------4-------4---|
|---------------------------------|---------------------------------|
|---------------------------------|---------------------------------|
|---------------------------------|---------------------------------|
|---------------------------------|---------------------------------|
 
Guitar I:
 
|---------------------------------|---------------------------------|
|---------------------------------|---------------------------------|
|---------------------------------|---------------------------------|
|---------------------------------|---------------------------------|
|---------------------------------|---------------------------------|
|-4-4-4-4-4-4-4-4-4-4-4-4-4-4-4-4-|-0-0-0-0-0-0-0-0-0-0-0-0-0-0-0-0-|
 
Guitar II:
 
|-5-------5-----------5-------5---|---------------------------------|
|-5-------5-----------5-------5---|-3-------3-----------3-------3---|
|---------------------------------|-3-------3-----------3-------3---|
|---------------------------------|-0-------0-----------0-------0---|
|---------------------------------|---------------------------------|
|---------------------------------|---------------------------------|
 
 
|---------------------------------|---------------------------------|
|---------------------------------|---------------------------------|
|---------------------------------|---------------------------------|
|-6-------6-----------6-------6---|-6-------6-----------6-------6---|
|-6-------6-----------6-------6---|-6-------6-----------6-------6---|
|-4-4-4-4-4-4-4-4-4-4-4-4-4-4-4-4-|-4-4-4-4-4-4-4-4-4-4-4-4-4-4-4-4-|
 
Guitar I:
 
|---------------------------------|---------------------------------|
|---------------------------------|---------------------------------|
|---------------------------------|---------------------------------|
|---------------------------------|---------------------------------|
|---------------------------------|---------------------------------|
|-4-4-4-4-4-4-4-4-4-4-4-4-4-4-4-4-|-0-0-0-0-0-0-0-0-0-0-0-0-0-0-0-0-|
 
Guitar II:
 
|-5-------5-----------5-------5---|---------------------------------|
|-5-------5-----------5-------5---|-3-------3-----------3-------3---|
|---------------------------------|-3-------3-----------3-------3---|
|---------------------------------|-0-------0-----------0-------0---|
|---------------------------------|---------------------------------|
|---------------------------------|---------------------------------|
 
 
 
  
  2:37 Drums Interlude
|------------------------------------------|
|------------------------------------------|
|------------------------------------------|
|------------------------------------------|
|------------------------------------------|
|------------------------------------------|
 
 
Play Riff 2,3&4
 
 
Solo 1
  
 
|-----6-11-10-11----11----||------------------------------------|
|-4-4------------12----11-||-------9------------6-6-----6-6-----|
|-------------------------||-10-11---10-8-8-7-7-----7-7-----7-7-|
|-------------------------||------------------------------------|
|-------------------------||------------------------------------|
|-------------------------||------------------------------------|
 
 
 
|-----11-14-14-13-13-11-11-10-10-18-|--------------------------|
|-9-9-------------------------------|----------18-16-15--------|
|-----------------------------------|-------19----------15-15--|
|-----------------------------------|----20--------------------|
|-----------------------------------|-20-----------------------|
|-----------------------------------|--------------------------|
 
 
|----------11-10-11----11----|------------------------------------|
|-------11----------12----11-|-------9------------6-6-----6-6-----|
|----------------------------|-10-11---10-8-8-7-7-----7-7-----7-7-|
|-13-13----------------------|------------------------------------|
|----------------------------|------------------------------------|
|----------------------------|------------------------------------|
 
 
|-----11-14-19-18-19-18-16-14-13----|
|-9-9----------------------------15-|
|-----------------------------------|
|-----------------------------------|
|-----------------------------------|
|-----------------------------------|
 
 
|----------13-11-10--------||----------14-----------------12--------|
|-------------------11-11--||-9-11--12----12--11-9-11--12----12--11-|
|--------------------------||---------------------------------------|
|-------12-----------------||---------------------------------------|
|----12--------------------||---------------------------------------|
|-13-----------------------||---------------------------------------|
 
 
|----------11---------------------------|
|-9-11--12----12--11-9-11--12-14-12--11-|
|---------------------------------------|
|---------------------------------------|
|---------------------------------------|
|---------------------------------------|
 
 
|-------------------------------12--------|
|-10-12--14-16-14--12-10-12--14----14--12-|
|-----------------------------------------|
|-----------------------------------------|
|-----------------------------------------|
|-----------------------------------------|
 
 
|-------10-18-16--14-13-11--10-10--|----------14-----------------12--------|
|-11-11----------------------------|-9-11--12----12--11-9-11--12----12--11-|
|----------------------------------|---------------------------------------|
|----------------------------------|---------------------------------------|
|----------------------------------|---------------------------------------|
|----------------------------------|---------------------------------------|
 
 
|----------11---------------------------|
|-9-11--12----12--11-9-11--12-14-12--11-|
|---------------------------------------|
|---------------------------------------|
|---------------------------------------|
|---------------------------------------|
 
 
|-------------------------------12--------|
|-10-12--14-16-14--12-10-12--14----14--12-|
|-----------------------------------------|
|-----------------------------------------|
|-----------------------------------------|
|-----------------------------------------|
 
 
                                      
|-------10-18-16--14-13-11--10-10--||-11------------11-13-|-14-16-18----------|
|-11-11----------------------------||------------11-------|-------------------|
|----------------------------------||---------------------|-------------------|
|----------------------------------||---------------------|-------------------|
|----------------------------------||---------------------|-------------------|
|----------------------------------||---------------------|-------------------|
 
 
|-18----21----21-------|---------------------------|
|----------23----21-19-|-21-23------------21-19-18-|
|----------------------|---------------------------|
|----------------------|---------------------------|
|----------------------|---------------------------|
|----------------------|---------------------------|
 
 
|---------------------|---------------16-14-16---------|
|--------------16--15-|------15-16-18----------18-16---|
|---------------------|--------------------------------|
|---------------------|--------------------------------|
|---------------------|--------------------------------|
|---------------------|--------------------------------|
 
 
|---------------14-13-14-------|---------------11---------|
|---------15-16----------16-15-|---------11-12----9-11-12-|
|------16----------------------|------13------------------|
|------------------------------|--------------------------|
|------------------------------|--------------------------|
|------------------------------|--------------------------|
 
 
|-------------------------------------|----------------------|
|-------------------------------------|----------------------|
|-------------------------------------|----------------------|
|------13-13-13-13-13--13-13-13-13-13-|----------------------|
|------13-13-13-13-13--13-13-13-13-13-|----------11----------|
|------11-11-11-11-11--11-11-11-11-11-|--9-11-12----9-11-12--|
 
 
|---------------------------------|
|---------------------------------|
|---------------------------------|
|--13-13-13-13-13--13-13-13-13-13-|
|--13-13-13-13-13--13-13-13-13-13-|
|--11-11-11-11-11--11-11-11-11-11-|
 
 
|--------------------|------------------------|
|--------------------|------------------------|
|--------------------|------------------------|
|--------------------|--8-8-8-8-8--8-8-8-8-8--|
|----------11--------|--8-8-8-8-8--8-8-8-8-8--|
|--9-11-12----11-9-7-|--6-6-6-6-6--6-6-6-6-6--|
 
 
|----------------|-----------------------|
|----------------|-----------------------|
|----------------|-----------------------|
|----------------|--8-8-8-8-8--8-8-8-8-8-|
|--------6-------|--8-8-8-8-8--8-8-8-8-8-|
|--4-6-7---4-6-7-|--6-6-6-6-6--6-6-6-6-6-|
 
 
                                             
                                      
|-6-6-4-2-1--4-4-2-1----2-2-1--------------|------------------------|
|--------------------4--------4-3--4-------|------------------------|
|------------------------------------------|------------------------|
|------------------------------------6-8-9-|--8-8-8-8-8--8-8-8-8-8--|
|------------------------------------------|--8-8-8-8-8--8-8-8-8-8--|
|------------------------------------------|--6-6-6-6-6--6-6-6-6-6--|
 
 
|----------------|-----------------------|-6-6-4-2-1--4-4-2-1--------||
|----------------|-----------------------|--------------------4------||
|----------------|-----------------------|-----------------------3-4-||
|----------------|--8-8-8-8-8--8-8-8-8-8-|---------------------------||
|--------6-------|--8-8-8-8-8--8-8-8-8-8-|---------------------------||
|--4-6-7---4-6-7-|--6-6-6-6-6--6-6-6-6-6-|---------------------------||
 
 
|---------------------|----------------|---------------------|
|---------------------|----------------|---------------------|
|---------------------|----------------|---------------------|
|--5--5--5---5--5--5--|----------------|--5--5--5---5--5--5--|
|--5--5--5---5--5--5--|--------3-------|--5--5--5---5--5--5--|
|--3--3--3---3--3--3--|--1-3-4---1-3-4-|--3--3--3---3--3--3--|
 
 
|----------------|---------------------|----------------|
|----------------|---------------------|----------------|
|----------------|---------------------|----------------|
|----------------|--5--5--5---5--5--5--|----------------|
|--------3-------|--5--5--5---5--5--5--|--------3-------|
|--1-3-4---1-3-4-|--3--3--3---3--3--3--|--1-3-4---1-3-4-|
 
 
|---------------------|----------------||----------------------|
|---------------------|----------------||----------------------|
|---------------------|----------------||--5--5--5---5--5--5---|
|--5--5--5---5--5--5--|----------------||--5--5--5---5--5--5---|
|--5--5--5---5--5--5--|--------3-------||--3--3--3---3--3--3---|
|--3--3--3---3--3--3--|--1-3-4---1-3-4-||----------------------|
 
 
|----------------|---------------------|---------------------------|
|----------------|---------------------|-1-1-----------------------|
|----------------|--5--5--5---5--5--5--|-----3-1-0--3-3-1-0--------|
|--------3-------|--5--5--5---5--5--5--|--------------------3------|
|--1-3-4---1-3-4-|--3--3--3---3--3--3--|-----------------------1-4-|
|----------------|---------------------|---------------------------|
 
 
|---------------------|----------------|---------------------|
|---------------------|----------------|---------------------|
|--5--5--5---5--5--5--|----------------|--5--5--5---5--5--5--|
|--5--5--5---5--5--5--|--------3-------|--5--5--5---5--5--5--|
|--3--3--3---3--3--3--|--1-3-4---1-3-4-|--3--3--3---3--3--3--|
|---------------------|----------------|---------------------|
 
 
|-----------------------|
|-1-1-------------------|
|-----3-1-0--3-3-1-0----|
|--------------------3--|
|-----------------------|
|-----------------------|
 
Solo 2:
 
 
|-----------------------|-8-10-11-13---15----15--13-11---10----11--10-8--|
|-----------------------|------------------------------------------------|
|-----------------------|------------------------------------------------|
|-----------------------|------------------------------------------------|
|-----------------------|------------------------------------------------|
|-----------------------|------------------------------------------------|
 
 
|-10--------------------------|---------------------------------|
|---------8-9--8-6---8--------|---------------------------------|
|------10---------------------|---------------------------------|
|-----------------------------|---------------5-7--8-10-12--13--|
|-----------------------------|---0--1-3-5--6-------------------|
|-----------------------------|-3-------------------------------|
 
 
|-----------------------------------------|
|----10--11-13-15--16----15--16-18-20--21-|
|-12------------------17------------------|
|-----------------------------------------|
|-----------------------------------------|
|-----------------------------------------|
 
 
|--------------------------------------|
|-20-18--16-15-13--12------------------|
|---------------------12-10--8-7-5--4--|
|--------------------------------------|
|--------------------------------------|
|--------------------------------------|
 
 
|-----1-4-7---7-10-|-8---10-11-15----|-16-15------13-11-10------11-10-|-8----||
|---3-------8------|-----------------|--------------------------------|------||
|-5----------------|-----------------|--------------------------------|------||
|------------------|-----------------|--------------------------------|------||
|------------------|-----------------|--------------------------------|------||
|------------------|-----------------|--------------------------------|------||
 
 
|-8-8-6-4-3--6-6-4-3-1------||--------------------------------------------|
|-------------------------2-||-1-3-5-6-8-10-12-13----10-12-13-15-17-18-20-|
|-----------------------3---||--------------------12----------------------|
|---------------------------||--------------------------------------------|
|---------------------------||--------------------------------------------|
|---------------------------||--------------------------------------------|
 
 
|-------------------20-22-20-19-17-15-13-12-11-10-|-8----||
|----17-18-20-22-24-------------------------------|------||
|-19----------------------------------------------|------||
|-------------------------------------------------|------||
|-------------------------------------------------|------||
|-------------------------------------------------|------||
 
 
|-8-8-6-4-3--6-6-4-3-1------||----2-9-8----|--6-8-9-----8-6--|
|-------------------------2-||-------------|-----------------|
|-----------------------3---||-------------|-----------------|
|---------------------------||--1----------|-----------------|
|---------------------------||-------------|-----------------|
|---------------------------||-------------|-----------------|
 
 
|------9-8----|-7-------7-6----|-13---------11--10-|---------------------|
|----7--------|---9------------|-------------------|--------------12--11-|
|-------------|----------------|-------------------|---------------------|
|-------------|----------------|-------------------|---------------------|
|--6----------|----------------|-------------------|---------------------|
|-------------|----------------|-------------------|---------------------|
 
 
                    
|-----------------||--------------4-4-2-1----2-2-1--------------||
|-----------------||-11-11-9-7-6----------4--------4-3--4-------||
|-----------------||--------------------------------------------||
|-----------------||--------------------------------------6-8-9-||
|-----------------||--------------------------------------------||
|-----------------||--------------------------------------------||
 
 
                                                              X4
|------------------------------|------------------------------|
|------------------------------|------------------------------|
|------------------------------|------------------------------|
|------------------------------|------------------------------|
|------------------------------|------------------------------|
|-3-3-3-3-3--3-3-3-3--3-3-3-3--|-3-3-3-3--3-3-3-3--3-3-3-3-3--|
 
 
 
 
|---------------------------||------------------------------|
|---------------------------||------------------------------|
|---------------------------||------------------------------|
|-5-5-5-5--5-5-5-5--5-5-5-5-||------------------------------|
|-5-5-5-5--5-5-5-5--5-5-5-5-||-3-3-3-3-3--3-3-3-3--3-3-3-3--|
|-3-3-3-3--3-3-3-3--3-3-3-3-||------------------------------|
 
 
|------------------------------|------------------------------|
|------------------------------|------------------------------|
|------------------------------|------------------------------|  
|------------------------------|------------------------------|
|-3-3-3-3--3-3-3-3--3-3-3-3-3--|-3-3-3-3-3--3-3-3-3--3-3-3-3--|
|------------------------------|------------------------------|
 
 repeat as many times as u hear it^^^^
 
 
|------------------------------|------------------|------------------|
|------------------------------|------------------|------------------|
|------------------------------|-----3--3---------|------------------|
|------------------------------|-5----------------|------------------|
|-3-3-3-3--3-3-3-3--3-3-3-3-3--|-3------------1-0-|-------------6-5--|
|------------------------------|------------------|-4-1-3-4-6-8------|
 
 
|------------------|---------------|------------------|------------------|
|------------------|---------------|------------------|------------------|
|------------------|---------------|------------------|------------------|
|-5---8--8---------|----------8--8-|-5---8--8---------|------------------|
|-----5--6---------|----------6--5-|-----5--6---------|-------------6-5--|
|--------------6-5-|-4-1-3-4-------|--------------6-5-|-4-1-3-4-6-8------|
 
 
|------------------|---------------|---------------------|-------------------|
|------------------|---------------|---------------------|-------------------|
|------------------|---------------|---------------------|-------------------|
|-5---8--8---------|----------8--8-|-8---6---8------10-8-|-6-----------------|
|-----5--6---------|----------6--5-|-6---8--10-----------|--------------6-5--|
|--------------6-5-|-4-1-3-4-------|---------------------|---8-10-1-3-4------|
 
 
|---------------------|------------------|
|---------------------|------------------|
|---------------------|------------------|
|-8---6---8------10-8-|-6----------------|
|-6---8--10-----------|-----------13--13-|
|---------------------|---6-8-10--11--10-|
 
 
|------------------------|--------------------|
|------------------------|--------------------|
|------------------------|--------------------|
|------------------------|--------------------|
|-13---11--13------15-13-|-11------------6-5--|
|-11---13--15------------|----8-10-1-3-4------|
 
 
|---------------------|------------------|
|---------------------|------------------|
|---------------------|------------------|
|-8---6---8------10-8-|-6----------------|
|-6---8--10-----------|-----------13--13-|
|---------------------|---6-8-10--11--10-|
 
 
 
|-----------|--------------------------|
|-----------|--------------------------|
|-----------|-----4--------------------|
|-10--------|---4-------5---4-5--------|
|-10--------|-2-----4-5---5------------|
|--8--------|--------------------3-2---|
 
 
 
|-----------------|---------------|------------------------|-----------------|
|-------3-5-3-----|---2-5------2--|------------------------|-------3-5-3-----|
|---0-4-------4---|-4--------3----|-----4------------------|---0-4-------4---|
|---------------5-|--------4------|---4-------5---4-5------|---------------5-|
|-----------------|---------------|-2-----4-5---5----------|-----------------|
|-0---------------|---------------|--------------------3-2-|-0---------------|
 
 
                  
|---------------|---------------------|----------------|------------------|
|---2-5------2--|---------------------|----------------|------------------|
|-4--------3----|---------------------|----------------|------------------|
|--------4------|---------------------|----------------|-----5-6----------|
|---------------|-10----------------8-|------6--6------|---3---------3----|
|---------------|--8---10--11-------6-|------4--4--4-3-|-1-----------1--4-|
 
 
 
                                                                     X3
|--------------|-----------------|----------------|------------------|
|--------------|-----------------|----------------|------------------|
|--------------|-5---3--3--------|----------------|------------------|
|------5--5----|-5-------------3-|----------------|-----5-6----------|
|------5--5----|-3-------------1-|----------------|---3---------3----|
|------3--3----|-----------------|------4--4--4-3-|-1-----------1--4-|
 
 
 
 
|-----------------|----------------|------------------|
|-6---4-----------|----------------|-----1-2--------2-|
|-5---0--8--------|----------------|----------------1-|
|-3------6------8-|----------------|---3---------3----|
|---------------6-|------------4-3-|-1-----------1--4-|
|-----------------|------9--9------|------------------|
 
 
|--------------|-1---------------|----------------|------------------|
|------1--1----|-1---4-----------|----------------|-----1-2--------2-|
|------0--0----|-----0--8--------|----------------|----------------1-|
|--------------|-3------6------8-|------6--6------|---3---------3----|
|------3--3----|---------------6-|------------4-3-|-1-----------1--4-|
|--------------|-----------------|------9--9------|------------------|
 
 
|--------------|-1-1-0-0-1-1-----1-1-----1-4-8-13-|-16-15-16-------------|
|------1--1----|-------------1-1-----2-2----------|----------18-17-18----|
|--------------|----------------------------------|----------------------|
|--------------|----------------------------------|----------------------|
|------3--3----|----------------------------------|----------------------|
|--------------|----------------------------------|----------------------|
 
 
|------------------------8-9-11----------------|------------------------|
|----16-18----------------------------11-13----|-------11---------------|
|-18-------------------3-----------13----------|-12-13----12-10-9-10----|
|-------------20-22-23-------------------------|------------------------|
|-------------------------------13----------13-|------------------------|
|----------18----------------------------------|------------------------|
 
 
|----------------------------------------8-13-|-16-15-16-------------|
|--------------------------------------9------|----------18-17-18----|
|-10-10-9-9-10-10-------10-10-------10--------|----------------------|
|-----------------10-10-------11-11-----------|----------------------|
|---------------------------------------------|----------------------|
|---------------------------------------------|----------------------|
 
 
|------------------------8-9-11----------------|
|----16-18----------------------------11-13----|
|-18-------------------3-----------13----------|
|-------------20-22-23-------------------------|
|-------------------------------13----------13-|
|----------18----------------------------------|
 
                                 let ring
|----------------------------|------|
|-------11-------------------|------|
|-12-13----12-10-9-10----10--|------|
|---------------------10-----|-3----|
|----------------------------|-3----|
|----------------------------|-1----|
 
 
|--15b----------|
|---------------|
|---------------|
|---------------|
|---------------|
|---------------|
comments
We did not receive enough feedback on this tab! Please rate:
print report bad tab
1 2 3 4 5
I want to post or [tab]
guest
You may want to rate the tab now too:
select rating
Please do not post tabs as comments. Select "correction" instead!