Oops, an error
Loading. Please wait.

Better Man Tab

ver4
ver4

Whole song

More versions @911Tabs.com
1,989 views 6 this week
no commentswrite comment
1 2 3 4 5
excellent!
x 2
Autoscroll
+/-
esc
set tempo
stop
Contributor
WARNING: You are trying to view
                                    content from Ultimate-Guitar.com
                                    in an unauthorized application,
                                    which is prohibited.

                                    Please use an official Ultimate
                                    Guitar Tabs application for iPhone,
                                    iPad or Android to access legitimate
                                    chords, guitar, bass, and drum tabs
                                    from Ultimate-Guitar.com database.

                                    Type "ultimate guitar tabs" in Apple
                                    App Store's or Android Market's
                                    search to find the application.
                                   BETTER MAN
                              As recorded by Oasis
                     (From the 2002 Album HEATHEN CHEMISTRY)

Words and Music by Liam Gallagher


          F#m                  A7                    B                  F#m7
      2 4 4 2 2 2          5 7 5 6 5 5          7 9 9 8 7 7          2 x 2 2 x x

         B/F#                 D/F#
      2 x 1 4 x x          2 x 0 2 x x

Gtr I (E A D G B E) - 'elec w/ distortion'
Gtr II (E A D G B E) - 'elec w/ distortion'
Gtr III (E A D G B E) - 'elec w/ distortion'
Gtr IV (E A D G B E) - 'elec w/ slight distortion'
Gtr V (E A D G B E) - 'elec w/ distortion + octidivider + 8va'

 Intro
  Q=95
  N.C.
 4/4
  Gtrs I, II
  a   +S  a   +S  a   +S  a   +S  a    +S  +E. +H
|-----------------------------------------------------|
|-4b5-(4)-4b5-(4)-4b5-(4)-4b5-(4)-4b5==(4)r(4)-(4)----|
|-4b5-(4)-4b5-(4)-4b5-(4)-4b5-(4)-4b5==(4)r(4)-(4)----|
|-----------------------------------------------------|
|-----------------------------------------------------|
|-----------------------------------------------------|


  a   +S  a   +S  a   +S  a   +S  a    +S  +S  E +H
|-------------------------------------------------------||
|-4b5-(4)-4b5-(4)-4b5-(4)-4b5-(4)-4b5==(4)r(4)----------||
|-4b5-(4)-4b5-(4)-4b5-(4)-4b5-(4)-4b5==(4)r(4)-2-(2)----||
|-------------------------------------------------------||
|-------------------------------------------------------||
|-------------------------------------------------------||


   Verse
    F#m
    Gtr II
    S S E S S S S  S  S S S  S  S S S   E E S S S      S   S  S S S  S  S S S
    | | | | | | |     | | |  |  | | |   | | | | |      |      | | |  |  | | |
    / / / / / / /     / / /  /  / / /   / / / / /      /      / / /  /  / / /

    Gtr I
    E   E S E   S +S  E   S +S  S E     E E S E   a   +S  +S  E   S +S  S E
||------------------------------------|---------------------------------------|
||o-----------------------------------|---------------------------------------|
||--------------2-(2)-----------------|-----------4b5-(4)-(4)-4---2-(2)---2---|
||--------2h4---------4---2-(2)-4-----|-----2h4-------------------------4-----|
||o-----------------------------------|---------------------------------------|
||--2---2-------------------------2---|-2-2-----------------------------------|


  A7
         S  S  E        S  S S S  S  S S S S S S S
         |  |  |        |  | | |     | | | | | | |
         /  /  /        /  / / /     / / / / / / /

  Gtr I
                                           ~
         E     E        S  E   S +S  E   S Q
|------------------------------5-(5)---------------|
|------------------------------------8-------------|
|-----------------------5h=6-------------5h6-------|
|--------------------------------------------------|
|--------0-----0-----------------------------------|
|--------------------------------------------------|
|
| Gtr III
| a     +E    +E  a    +H.
|--------------------------------------------------|
|--------------------------------------------------|
|-9b11==(9)r==(9)----------------------------------|
|-----------------9b11-(9)-------------------------|
|--------------------------------------------------|
|--------------------------------------------------|


         E   E        S  S S S  S  S S S   S    S S S
         |   |        |  | | |     | | |   |    | | |
         /   /        /  / / /     / / /   /    / / /

         E   E        E    S S +S  S E   a Q
|------------5---------------5-(5)---------------------|
|---------------------8------------8-------------------|
|--------------------------6---------6---5h6tr5--------|
|------------------------------------------------------|
|--------0---------------------------------------------|
|------------------------------------------------------|
|
| a     +E  +E  a    +H.
|------------------------------------------------------|
|------------------------------------------------------|
|-9b11==(9)r(9)----------------------------------------|
|---------------9b11-(9)-------------------------------|
|------------------------------------------------------|
|------------------------------------------------------|


  F#m
  S S E S S S S  S  S S S  S  S S S   E E S S S      S   S  S S S  S  S S S
  | | | | | | |     | | |  |  | | |   | | | | |      |      | | |  |  | | |
  / / / / / / /     / / /  /  / / /   / / / / /      /      / / /  /  / / /

  E   E S E   S +S  E   S +S  S E     E E S E   a   +S  +S  E   S +S  S E
|-----------------------------------|---------------------------------------|
|-----------------------------------|---------------------------------------|
|-------------2-(2)-----------------|-----------4b5-(4)-(4)-4---2-(2)---2---|
|-------2h4---------4---2-(2)-4-----|-----2h4-------------------------4-----|
|-----------------------------------|---------------------------------------|
|-2---2-------------------------2---|-2-2-----------------------------------|


        A7
         S  S  E        S  S S S  S  S S S S S S S
         |  |  |        |  | | |     | | | | | | |
         /  /  /        /  / / /     / / / / / / /

  Gtr I
                                           ~
         E     E        S  E   S +S  E   S Q
|------------------------------5-(5)---------------|
|------------------------------------8-------------|
|-----------------------5h=6-------------5h6-------|
|--------------------------------------------------|
|--------0-----0-----------------------------------|
|--------------------------------------------------|
|
| Gtr III
|                                          ~
| a     +E    +E  a    +Q         S  S S S Q
|------------------------------------9-9-9---------|
|------------------------------------8-8-8---------|
|-9b11==(9)r==(9)--------------------9-9-9-9-------|
|-----------------9b11-(9)-----------7-7-7---------|
|--------------------------------------------------|
|--------------------------------------------------|


   E  E S S S S  S  S S S   S    S S S
   |  | | | | |     | | |   |    | | |
   /  / / / / /     / / /   /    / / /

   E  E E   S S +S  S E   a Q
|-----5-------5-(5)---------------------|
|-------8-----------8-------------------|
|-----------6---------6---5h6tr5--------|
|---------------------------------------|
|--0------------------------------------|
|---------------------------------------|
|
| +E  E Q        S  S S S   S    S E
|---------------------9-9---9----9-9----|
|---------------------8-8---8----8-8----|
|-(9)-----------------9-9---9----9-9----|
|-------------------4S7-7---7----7-7----|
|---------------------------------------|
|---------------------------------------|


  F#m
  S S E S S S S  S  S S S  S  S S S   E E S S S S  S  S S S  S  S S S
  | | | | | | |     | | |  |  | | |   | | | | | |     | | |  |  | | |
  / / / / / / /     / / /  /  / / /   / / / / / /     / / /  /  / / /

  E   E S E   S +S  E   S +S  S S S   E E S E   S +S  E   S +S  S S S
|-----------------------------------|----------------------------------|
|-7---------------------------------|----------------------------------|
|-------------2-(2)-----------------|-----------2-(2)------------------|
|-------2h4---------4---2-(2)-4---4-|-----2h4---------4---2-(2)-4---4--|
|-----------------------------------|----------------------------------|
|-2---2-------------------------2---|-2-2-------------------------2----|
  W


  A7
  S S E S S S S  S  S S S S S S S   E E S S S S  S  S S S   S S S S
  | | | | | | |     | | | | | | |   | | | | | |     | | |   | | | |
  / / / / / / /     / / / / / / /   / / / / / /     / / /   / / / /

                        ~~
  E   E S E   S +S  E   S Q         E E E   S S +S  S E   a Q
|-------------5-(5)---------------|---5-------5-(5)-----------------|
|-------------------8-------------|-----8-----------8---------------|
|-------5h6-------------5h6-------|---------6---------6---5h6-------|
|---------------------------------|---------------------------------|
|-0---0---------------------------|-0-------------------------------|
|---------------------------------|---------------------------------|


  F#m
  S S E S S S S  S  S S S  S  S S S   E E S S S S  S  S S S  S  S S S
  | | | | | | |     | | |  |  | | |   | | | | | |     | | |  |  | | |
  / / / / / / /     / / /  /  / / /   / / / / / /     / / /  /  / / /

  E   E S E   S +S  E   S +S  S S S   E E S E   S +S  E   S +S  S S S
|-----------------------------------|----------------------------------|
|-7---------------------------------|----------------------------------|
|-------------2-(2)-----------------|-----------2-(2)------------------|
|-------2h4---------4---2-(2)-4---4-|-----2h4---------4---2-(2)-4---4--|
|-----------------------------------|----------------------------------|
|-2---2-------------------------2---|-2-2-------------------------2----|
  W


  A7
  S S E S S S S  S  S S S S S S S   E E S S S S  S  S S S S S S S
  | | | | | | |     | | | | | | |   | | | | | |     | | | | | | |
  / / / / / / /     / / / / / / /   / / / / / /     / / / / / / /

                          ~
  E   E S E   S +S  E   S Q         E E S E   S +S  E   S E   E
|-------------5-(5)---------------|-----------5-(5)----------------||
|-------------------8-------------|---------------------------5----||
|-------5h6-------------5h6-------|-----5h6---------6---5h6--------||
|---------------------------------|--------------------------------||
|-0---0---------------------------|-0-0----------------------------||
|---------------------------------|--------------------------------||


 Chorus
  B                                    A7
  Gtr II
  E   E   E   S S +S  S E   E    S S   E   E   E   S S   +S  S E    E    S S
  |   |   |   | |  |  | |   |    | |   |   |   |   | |    |  | |    |    | |
  /   /   /   / /  /  / /   /    / /   /   /   /   / /    /  / /    /    / /

  Gtr I
  E   E   S E   S +E    E   S E.       E   E   S E   S   +S  E   S +S  S E
|------------------------------------|----------------------------------------|
|------------------------------------|----------------------------------------|
|---------2h4---2-(2)-------2-2------|----------------------------------------|
|-----------------------4------------|---------2-4---4b5-(4)-4---2-(2)-4-2----|
|-2---2------------------------------|-0---0----------------------------------|
|------------------------------------|----------------------------------------|
|
| Gtr III
| S S S S S S S S  S  S S S S S  S S   S S S S S S S S    S  S S S  S  S S S
|------------------------------------|----------------------------------------|
|-7-7-7-7-7-7-7-7--7--7-7-7-7-7--7-7-|-7-7-7-7-7-7-7-7----7--7-7-7--7--7-7-7--|
|------------------------------------|----------------------------------------|
|------------------------------------|----------------------------------------|
|------------------------------------|----------------------------------------|
|------------------------------------|----------------------------------------|


  F#m
  Gtr II
    S S   E    S  S S S S S S S S     S S S
    | |   |    |  | | |   | | | |     | | |
    / /   /    /  / / /   / / / /     / / /

  Gtr I
  a S S a E   +S  S S S S S S S E       E
|-------------------------------------------|
|-----5-------------------------------------|
|-4s6---6s4---(4)-2-4p2---------------------|
|-----------------------4p2-----------------|
|---------------------------4p2-------------|
|-------------------------------5b5.5---2---|
|
| Gtr III
|   S S   S S  S  S S S S S S S S     S S S
|-------------------------------------------|
|---7-7---7-7--7--7-7-7-7-7-7-7-7-----7-7-7-|
|-------------------------------------------|
|-------------------------------------------|
|-------------------------------------------|
|-------------------------------------------|


    E     E    S  S S S S S S S S     S S S
    |     |    |  | | |   | | | |     | | |
    /     /    /  / / /   / / / /     / / /

  a S S a E   +S  S S S S S S S E       E
|--------------------------------------------|
|-----5--------------------------------------|
|-4s6---6s4---(4)-2-4p2----------------------|
|-----------------------4p2------------------|
|---------------------------4p2--------------|
|-------------------------------5b5.5---2----|
|
|   S S   S S  S  S S S S S S S S     S S S
|--------------------------------------------|
|---7-7---7-7--7--7-7-7-7-7-7-7-7-----7-7-7--|
|--------------------------------------------|
|--------------------------------------------|
|--------------------------------------------|
|--------------------------------------------|


  B                              A7
  Gtr II
  E E E   S S +S  S E E    S S   E E E   S S   +S  S E    E    S S
  | | |   | |  |  | | |    | |   | | |   | |    |  | |    |    | |
  / / /   / /  /  / / /    / /   / / /   / /    /  / /    /    / /

  Gtr I
  E E S E   S +E    E S E.       E E S E   S   +S  E   S +S  S E
|------------------------------|-----------------------------------|
|------------------------------|-----------------------------------|
|-----2h4---2-(2)-----2-2------|-----------------------------------|
|-------------------4----------|-----2-4---4b5-(4)-4---2-(2)-4-2---|
|-2-2--------------------------|-0-0-------------------------------|
|------------------------------|-----------------------------------|


  1.
  F#m
  Gtr I
  a   +S  a   +S  a   +S  a   +S  a    +S  +S  E S E   S E   E
|--------------------------------------------------------------|
|-4b5-(4)-4b5-(4)-4b5-(4)-4b5-(4)-4b5==(4)r(4)-----------------|
|-4b5-(4)-4b5-(4)-4b5-(4)-4b5-(4)-4b5==(4)r(4)-2---------------|
|------------------------------------------------x-4---2-4-----|
|--------------------------------------------------------------|
|------------------------------------------------------------2-|
|
| Gtr II
| a   +S  a   +S  a   +S  a   +S  a    +S  +S  E S S E   S S E
|------------------------------------------------x-x-----x-x---|
|-4b5-(4)-4b5-(4)-4b5-(4)-4b5-(4)-4b5==(4)r(4)---x-x-----x-x---|
|-4b5-(4)-4b5-(4)-4b5-(4)-4b5-(4)-4b5==(4)r(4)-2-x-x-----x-x---|
|------------------------------------------------x-x-----x-x---|
|----------------------------------------------------4-------4-|
|----------------------------------------------------2-------2-|
|
| Gtr III
|      W
|--------------------------------------------------------------|
|------7-------------------------------------------------------|
|--------------------------------------------------------------|
|--------------------------------------------------------------|
|--------------------------------------------------------------|
|--------------------------------------------------------------|


  a   +S  a   +S  a   +S  a   +S  a    +S  +S  E S E   S E   E
|----------------------------------------------------------------||
|-4b5-(4)-4b5-(4)-4b5-(4)-4b5-(4)-4b5==(4)r(4)------------------o||
|-4b5-(4)-4b5-(4)-4b5-(4)-4b5-(4)-4b5==(4)r(4)-2-----------------||
|------------------------------------------------x-4---2-4-------||
|---------------------------------------------------------------o||
|------------------------------------------------------------2---||
|
| a   +S  a   +S  a   +S  a   +S  a    +S  +S  E S S E   S S E
|------------------------------------------------x-x-----x-x-----||
|-4b5-(4)-4b5-(4)-4b5-(4)-4b5-(4)-4b5==(4)r(4)---x-x-----x-x----o||
|-4b5-(4)-4b5-(4)-4b5-(4)-4b5-(4)-4b5==(4)r(4)-2-x-x-----x-x-----||
|------------------------------------------------x-x-----x-x-----||
|----------------------------------------------------4----------o||
|----------------------------------------------------2-------0---||
|
|     +W
|----------------------------------------------------------------||
|-----(7)-------------------------------------------------------o||
|----------------------------------------------------------------||
|----------------------------------------------------------------||
|---------------------------------------------------------------o||
|----------------------------------------------------------------||


  2.
  F#m
  a   +S  a   +S  a   +S  a   +S  a    +S  +S  E S E   S E   E
|--------------------------------------------------------------|
|-4b5-(4)-4b5-(4)-4b5-(4)-4b5-(4)-4b5==(4)r(4)-----------------|
|-4b5-(4)-4b5-(4)-4b5-(4)-4b5-(4)-4b5==(4)r(4)-2---------------|
|------------------------------------------------x-4---2-4-----|
|--------------------------------------------------------------|
|------------------------------------------------------------2-|
|
| a   +S  a   +S  a   +S  a   +S  a    +S  +S  E S S E   S S E
|------------------------------------------------x-x-----x-x---|
|-4b5-(4)-4b5-(4)-4b5-(4)-4b5-(4)-4b5==(4)r(4)---x-x-----x-x---|
|-4b5-(4)-4b5-(4)-4b5-(4)-4b5-(4)-4b5==(4)r(4)-2-x-x-----x-x---|
|------------------------------------------------x-x-----x-x---|
|----------------------------------------------------4-------4-|
|----------------------------------------------------2-------2-|


  a   +S  a   +S  a   +S  a   +S  a    +S  +S  E S E   S E   E
|---------------------------------------------------------------|
|-4b5-(4)-4b5-(4)-4b5-(4)-4b5-(4)-4b5==(4)r(4)------------------|
|-4b5-(4)-4b5-(4)-4b5-(4)-4b5-(4)-4b5==(4)r(4)-2----------------|
|------------------------------------------------x-4---2-4------|
|---------------------------------------------------------------|
|------------------------------------------------------------2--|
|
| a   +S  a   +S  a   +S  a   +S  a    +S  +S  E S S E   S S E
|------------------------------------------------x-x-----x-x----|
|-4b5-(4)-4b5-(4)-4b5-(4)-4b5-(4)-4b5==(4)r(4)---x-x-----x-x----|
|-4b5-(4)-4b5-(4)-4b5-(4)-4b5-(4)-4b5==(4)r(4)-2-x-x-----x-x----|
|------------------------------------------------x-x-----x-x----|
|----------------------------------------------------4-------4--|
|----------------------------------------------------2-------2--|


  Gtrs I, II
  a   +S  a   +S  a   +S  a   +S  a    +S  +S  E a   +S  a   +S  a   +S  a   +S  a    +S  +S  E
|-----------------------------------------------------------------------------------------------||
|-4b5-(4)-4b5-(4)-4b5-(4)-4b5-(4)-4b5==(4)r(4)---4b5-(4)-4b5-(4)-4b5-(4)-4b5-(4)-4b5==(4)r(4)---||
|-4b5-(4)-4b5-(4)-4b5-(4)-4b5-(4)-4b5==(4)r(4)-2-4b5-(4)-4b5-(4)-4b5-(4)-4b5-(4)-4b5==(4)r(4)-2-||
|-----------------------------------------------------------------------------------------------||
|-----------------------------------------------------------------------------------------------||
|-----------------------------------------------------------------------------------------------||


 Guitar Break
  F#m                              F#m7
  Gtrs I, II
  S S S S E  S S +S  S E S S S S   S S S S E S S +S  S E S S S S
  | | | | |  | |  |  | | | | | |   | | | | | | |  |  | | | | | |
  / / / / /  / /  /  / / / / / /   / / / / / / /  /  / / / / / /

  Gtr III
  Q       E.   S +S  S E E   E     Q       E S S +S  S E S S E
|--------------------------------|-------------------------------|
|-7-------7----7-(7)-7-7-7---7---|-7-------7-7-7-(7)-7-7-7-7-7---|
|--------------------------------|-------------------------------|
|--------------------------------|-------------------------------|
|--------------------------------|-------------------------------|
|--------------------------------|-------------------------------|


  B/F#
  S S S S E S S +S  S E S S S S
  | | | | | | |  |  | | | | | |
  / / / / / / /  /  / / / / / /

  Q       E S S +S  S E S S E
|---------------------------------|
|-7-------7-7-7-(7)-7-7-7-7-7S====|
|---------------------------------|
|---------------------------------|
|---------------------------------|
|---------------------------------|


  D/F#
   S S S S  E  S  S  +S  S  E           S          S          S  S
   | | | |  |  |  |   |  |  |           |          |          |  |
   / / / /  /  /  /   /  /  /           /          /          /  /

   Q        E  S  S  +E     S S  a     +S   a     +S   a     +E
|------------------------------------------------------------------|
|-10-------10-10s12-(12)---12---12b14-(12)-12b14-(12)-12b14-(12)---|
|------------------------------------------------------------------|
|------------------------------------------------------------------|
|------------------------------------------------------------------|
|------------------------------------------------------------------|


    F#m
    S S S S E  S S +S  S E S S S S
    | | | | |  | |  |  | | | | | |
    / / / / /  / /  /  / / / / / /

    Q       E.   S +S  S E E   E
||----------------------------------|
||o-7-------7----7-(7)-7-7-7---7----|
||----------------------------------|
||----------------------------------|
||o---------------------------------|
||----------------------------------|


  F#m7                            B/F#
  S S S S E S S +S  S E S S S S   S S S S E S S +S  S E S S S S
  | | | | | | |  |  | | | | | |   | | | | | | |  |  | | | | | |
  / / / / / / /  /  / / / / / /   / / / / / / /  /  / / / / / /

  Q       E S S +S  S E S S E     Q       E S S +S  S E S S E
|-------------------------------|-------------------------------|
|-7-------7-7-7-(7)-7-7-7-7-7---|-7-------7-7-7-(7)-7-7-7-7-7S==|
|-------------------------------|-------------------------------|
|-------------------------------|-------------------------------|
|-------------------------------|-------------------------------|
|-------------------------------|-------------------------------|


  D/F#
   S S S S  E  S  S  +S  S  E           S          S          S  S
   | | | |  |  |  |   |  |  |           |          |          |  |
   / / / /  /  /  /   /  /  /           /          /          /  /

   Q        E  S  S  +E     S S  a     +S   a     +S   a     +E     4x
|-------------------------------------------------------------------||
|-10-------10-10s12-(12)---12---12b14-(12)-12b14-(12)-12b14-(12)---o||
|-------------------------------------------------------------------||
|-------------------------------------------------------------------||
|------------------------------------------------------------------o||
|-------------------------------------------------------------------||


   Outro
    F#m                              F#m7
    S S S S E  S S +S  S E S S S S   S S S S E S S +S  S E S S S S
    | | | | |  | |  |  | | | | | |   | | | | | | |  |  | | | | | |
    / / / / /  / /  /  / / / / / /   / / / / / / /  /  / / / / / /

    Gtr IV
    S S E   E  S S +S  S E S S S S   S S E   E S S +S  S E S S S S
||--2-2-2---2--2-2-(2)-2-2-2-2-2-2-|-2-2-2---2-2-2-(2)-2-2-2-2-2-0--|
||o-2-2-2---2--2-2-(2)-2-2-2-2-2-2-|-2-2-2---2-2-2-(2)-2-2-2-2-2-0--|
||--2-2-2---2--2-2-(2)-2-2-2-2-2-2-|-2-2-2---2-2-2-(2)-2-2-2-2-2-0--|
||--4-4-4---4--4-4-(4)-4-4-4-4-4-4-|-2-2-2---2-2-2-(2)-2-2-2-2-2-0--|
||o--------------------------------|--------------------------------|
||---------------------------------|--------------------------------|
|
|   Gtr III
|   Q       E.   S +S  S E E   E     Q       E S S +S  S E S S E
||---------------------------------|--------------------------------|
||o-7-------7----7-(7)-7-7-7---7---|-7-------7-7-7-(7)-7-7-7-7-7----|
||---------------------------------|--------------------------------|
||---------------------------------|--------------------------------|
||o--------------------------------|--------------------------------|
||---------------------------------|--------------------------------|


  B/F#
  S S S S E S S +S  S E S S S S
  | | | | | | |  |  | | | | | |
  / / / / / / /  /  / / / / / /

  S S E   E S S +S  S E S S S S
|-2-2-2---2-2-2-(2)-2-2-2-2-2-2-|
|-2-2-2---2-2-2-(2)-2-2-2-2-2-2-|
|-2-2-2---2-2-2-(2)-2-2-2-2-2-2-|
|-1-1-1---1-1-1-(1)-1-1-1-1-1-1-|
|-------------------------------|
|-------------------------------|
|
| Q       E S S +S  S E S S E
|-------------------------------|
|-7-------7-7-7-(7)-7-7-7-7-7S==|
|-------------------------------|
|-------------------------------|
|-------------------------------|
|-------------------------------|


  D/F#
   S S S S  E  S  S  +S  S  E           S          S          S  S
   | | | |  |  |  |   |  |  |           |          |          |  |
   / / / /  /  /  /   /  /  /           /          /          /  /

   S S S S  E  S  S  +S  S  E           S          S          S  S   4x
|--2-2-2-2--2--2--2--(2)-2--2-----------2----------2----------2--2---||
|--2-2-2-2--2--2--2--(2)-2--2-----------2----------2----------2--2--o||
|--2-2-2-2--2--2--2--(2)-2--2-----------2----------2----------2--2---||
|--0-0-0-0--0--0--0--(0)-0--0-----------0----------0----------0--0---||
|-------------------------------------------------------------------o||
|--------------------------------------------------------------------||
|
|  Q        E  S  S  +E     S S  a     +S   a     +S   a     +E      4x
|--------------------------------------------------------------------||
|-10-------10-10s12-(12)---12---12b14-(12)-12b14-(12)-12b14-(12)----o||
|--------------------------------------------------------------------||
|--------------------------------------------------------------------||
|-------------------------------------------------------------------o||
|--------------------------------------------------------------------||


    F#m                                    F#m7
     S  S S S E  S S +S  S E   S  S  S S   S  S S S E S S +S  S E  S  S S S
     |  | | | |  | |  |  | |   |  |  | |   |  | | | | | |  |  | |  |  | | |
     /  / / / /  / /  /  / /   /  /  / /   /  / / / / / /  /  / /  /  / / /

    Gtr V
     ~~~                                   ~~
     H.                       +E     E     H.                     +E    E
||---------------------------------------|-----------------------------------|
||o--------------------------------------|-9----------------------(9)---9----|
||--11-----------------------(11)---11---|-----------------------------------|
||---------------------------------------|-----------------------------------|
||o--------------------------------------|-----------------------------------|
||---------------------------------------|-----------------------------------|
|
|   Gtr III
|    Q        E.   S +S  S E   E     E     Q        E S S +S  S E  S  S E
||---------------------------------------|-----------------------------------|
||o--7--------7----7-(7)-7-7---7-----7---|-7--------7-7-7-(7)-7-7--7--7-7----|
||---------------------------------------|-----------------------------------|
||---------------------------------------|-----------------------------------|
||o--------------------------------------|-----------------------------------|
||---------------------------------------|-----------------------------------|
|
|   Gtr IV
|    S  S E   E  S S +S  S E   S  S  S S   S  S E   E S S +S  S E  S  S S S
||---2--2-2---2--2-2-(2)-2-2---2--2--2-2-|-2--2-2---2-2-2-(2)-2-2--2--2-2-0--|
||o--2--2-2---2--2-2-(2)-2-2---2--2--2-2-|-2--2-2---2-2-2-(2)-2-2--2--2-2-0--|
||---2--2-2---2--2-2-(2)-2-2---2--2--2-2-|-2--2-2---2-2-2-(2)-2-2--2--2-2-0--|
||---4--4-4---4--4-4-(4)-4-4---4--4--4-4-|-2--2-2---2-2-2-(2)-2-2--2--2-2-0--|
||o--------------------------------------|-----------------------------------|
||---------------------------------------|-----------------------------------|


  B/F#
   S  S S S E S S +S  S E   S  S  S S
   |  | | | | | |  |  | |   |  |  | |
   /  / / / / / /  /  / /   /  /  / /

   ~~~
   H.                      +E     E
|-------------------------------------|
|-10----------------------(10)---10---|
|-------------------------------------|
|-------------------------------------|
|-------------------------------------|
|-------------------------------------|
|
|  Q        E S S +S  S E   S  S  E
|-------------------------------------|
|--7--------7-7-7-(7)-7-7---7--7--7S==|
|-------------------------------------|
|-------------------------------------|
|-------------------------------------|
|-------------------------------------|
|
|  S  S E   E S S +S  S E   S  S  S S
|--2--2-2---2-2-2-(2)-2-2---2--2--2-2-|
|--2--2-2---2-2-2-(2)-2-2---2--2--2-2-|
|--2--2-2---2-2-2-(2)-2-2---2--2--2-2-|
|--1--1-1---1-1-1-(1)-1-1---1--1--1-1-|
|-------------------------------------|
|-------------------------------------|


 1.
  D/F#
   S S S S  E  S  S  +S  S  E            S          S          S  S
   | | | |  |  |  |   |  |  |            |          |          |  |
   / / / /  /  /  /   /  /  /            /          /          /  /

   ~~~~~~~~~~~~~~~~~~~~~~~~~~~~~~~~~~~~~~~~~~~~~~~~~~~~~~~~~~~~~~~
   Q        E  E      E.       S         E                     E
|---------------------------------------------------------------------||
|-12-------12-12-----12-------12--------12--------------------12-----o||
|---------------------------------------------------------------------||
|---------------------------------------------------------------------||
|--------------------------------------------------------------------o||
|---------------------------------------------------------------------||
|
|  Q        E  S  S  +E     S  S  a     +S   a     +S   a     +E
|---------------------------------------------------------------------||
|-10-------10-10s12-(12)---12----12b14-(12)-12b14-(12)-12b14-(12)----o||
|---------------------------------------------------------------------||
|---------------------------------------------------------------------||
|--------------------------------------------------------------------o||
|---------------------------------------------------------------------||
|
|  S S S S  E  S  S  +S  S  E            S          S          S  S
|--2-2-2-2--2--2--2--(2)-2--2------------2----------2----------2--2---||
|--2-2-2-2--2--2--2--(2)-2--2------------2----------2----------2--2--o||
|--2-2-2-2--2--2--2--(2)-2--2------------2----------2----------2--2---||
|--0-0-0-0--0--0--0--(0)-0--0------------0----------0----------0--0---||
|--------------------------------------------------------------------o||
|---------------------------------------------------------------------||


  2.
  D/F#                                   F#m
                                         Gtrs I, II, IV
   S S S S  E S S +S S  E     S S  S S    W
   | | | |  | | |  | |  |     | |  | |    |
   / / / /  / / /  / /  /     / /  / /    /

                                         Gtrs III, V
   ~~~~~~~~~~~~~~~~~~~~~~~~~~~~~~~~~~
   Q        Q      E    S  S  E    E      W
|--------------------------------------|-------*|
|-12-------12-----12---12-12-12---12---|-------*|
|--------------------------------------|-11----*|
|--------------------------------------|-------*|
|--------------------------------------|-------*|
|--------------------------------------|-------*|


Duration Legend
---------------
W - whole; H - half; Q - quarter; E - 8th; S - 16th; T - 32nd; X - 64th; a - acciaccatura
+ - note tied to previous; . - note dotted; .. - note double dotted
Uncapitalized letters represent notes that are staccato (1/2 duration)
Irregular groupings are notated above the duration line
Duration letters will always appear directly above the note/fret number it represents the
duration for.  Duration letters with no fret number below them represent rests.  Multi-
bar rests are notated in the form Wxn, where n is the number of bars to rest for.  Low
melody durations appear below the staff

Tablature Legend
----------------
 h   - hammer-on
 p   - pull-off
 b   - bend
 pb  - pre-bend
 r   - bend release (if no number after the r, then release immediately)
 /\  - slide into or out of (from/to "nowhere")
 s   - legato slide
 S   - shift slide
  - natural harmonic
[n]  - artificial harmonic
n(n) - tapped harmonic
 ~   - vibrato
 tr  - trill
 T   - tap
 TP  - trem. picking
 PM  - palm muting
\n/  - tremolo bar dip; n = amount to dip
 \n  - tremolo bar down
 n/  - tremolo bar up
/n\  - tremolo bar inverted dip
 =   - hold bend; also acts as connecting device for hammers/pulls
 <>  - volume swell (louder/softer)
 x   - on rhythm slash represents muted slash
 o   - on rhythm slash represents single note slash

Misc Legend
-----------
 |  - bar
||  - double bar
||o - repeat start
o|| - repeat end
*|  - double bar (ending)
 :  - bar (freetime)
 $  - Segno
 &  - Coda
Tempo markers -  = BPM(8/16=s8/s16), where s8 = swing 8ths, s16 = swing 16ths
comments
We did not receive enough feedback on this tab! Please rate:
1 2 3 4 5
I want to post or [tab]
guest
You may want to rate the tab now too:
select rating
Please do not post tabs as comments. Select "correction" instead!