Oops, an error
Loading. Please wait.

Definitely Maybe Tab

91,385 views 73 this week
2 commentsread comments
1 2 3 4 5
accurate
x 13
add to favorites launch autoscroll
font size
0
reset
Autoscroll
+/-
esc
set tempo
stop
Contributor
WARNING: You are trying to view
                                    content from Ultimate-Guitar.com
                                    in an unauthorized application,
                                    which is prohibited.

                                    Please use an official Ultimate
                                    Guitar Tabs application for iPhone,
                                    iPad or Android to access legitimate
                                    chords, guitar, bass, and drum tabs
                                    from Ultimate-Guitar.com database.

                                    Type "ultimate guitar tabs" in Apple
                                    App Store's or Android Market's
                                    search to find the application.
Artist: Oasis
Album:  Definitely Maybe
Tabbed by Jorge Díaz (j_diaz_s@yahoo.com)


1.	Rock 'N' Roll Star
2.	Shakermaker
3.	Live Forever
4.	Up In The Sky
5.	Columbia
6.	Supersonic
7.	Bring It On Down
8.	Cigarettes & Alcohol
9.	Digsy's Dinner
10.	Slide Away
11.	Married with Children
12.*	Sad Song

	All songs by Noel Gallagher


* You can find this song in the Definitely Maybe DVD, vinyl and Japanese version of the Album.


This is 99.9% of the album, and i guess it is 99.9999999% accurate.
Cheers. MAD FER IT.


-----------------------------------------------------------|
 1. Rock 'N' Roll Star		(5:22)
-----------------------------------------------------------|


      E A D G B E

B   --7-9-9-8-7-7--|
A   --5-7-7-6-5-5--|
E   --0-2-2-1-0-0--|
E5  --x-7-9-9-x-x--|
F#  --2-4-4-3-2-2--|
c#m --x-4-6-6-5-4--|
G#m --4-6-6-4-4-4--|



 Intro:

E ---------------------------------|
B ---------------------------------|
G -7h8-8b-----------7b8-8b---------|
D -------9------7-9-------9-(9999)-|
A ----------7-9--------------------|
A ---------------------------------|

   B  E5     B  E5     C#m	A      B  E5	
E ------------------------------------------------|
B ------------------------------------------------|
G -----9b9-7-----9b9-7---9-9-8-9-8-9-8-----9b9-7--|
D ----------9---------9-------------------------9-|
A ------------------------------------------------|
E ------------------------------------------------|
  [ Lead Guitar plays that part during Verse ]


 Verse 1: (0:28)

B 			E5
 I live my life in the city
B		     E5
 There's no easy way out
C#m		     A		        B
 The day's moving just too fast for me
B			      E5
 Need some time in the sunshee-ine
B			E5
 Gotta slow it right down
C#m		     A		        B
 The day's moving just too fast for me


 Bridge: (0:56)

 [ Lead Guitar Repeat this Riff during Bridge ]

  E -------------------------|
  B -------------------------|
  G --9-9-8--9-8--9-8--9-8-8-|
  D -(9-9)-------(9)---------|
  A -------------------------|
  E -------------------------|


  G#m		       E
I live my life for the stars that shine
    B
And people say it's just a waste of time
G#m			E
Then they said I should feed my head
    B
But that to me was just a day in bed
     G#m                E
I'll take my car and drive real far
   B
To where they're not concerned about the way we are
    A   
Cos in my mind my dreams are real
F#
Now, Are you concerned about the way I feel


 Chorus: (1:23)

  A               E				 B 
Toniiiiiiiiiiiiiiiiight	  I'm a rock n' roll star
  A               E				 B 
Toniiiiiiiiiiiiiiiiight	  I'm a rock n' roll star


 [ Repeat Verse and Bridge ]


 Chorus: (2:33)

  A               E				 B 
Toniiiiiiiiiiiiiiiiight	  I'm a rock n' roll star
  A               E				 B 
Toniiiiiiiiiiiiiiiiight	  I'm a rock n' roll star
  A               E				 B 
Toniiiiiiiiiiiiiiiiight	  I'm a rock n' roll star

A			      [ G F# ] (just 6th string)
You're not down with who I am    
E
Look at you now you're all in my hands tonight


 Solo: (3:01) [ Rhythm Guitar plays same as verse ]

E ------------------------------------------------------------|
B -----------------------------------10-----------------------|
G -7-8-7--------7----7-8-7---7-9-9^11--11-9-8--9-9-8--9-8-9-8-| (x2)
D ------7-9-7-9--9--------7-9---------------------------------|
A ------------------------------------------------------------|
E ------------------------------------------------------------|

E -----------------|
B -----------------|
G -7-8-7--------7--|
D ------7-9-7-9--9-|
A -----------------|
E -----------------|


 Chorus: (3:25)

  A               E				 B 
Toniiiiiiiiiiiiiiiiight	  I'm a rock n' roll star
  A               E				 B 
Toniiiiiiiiiiiiiiiiight	  I'm a rock n' roll star
  A               E				 B 
Toniiiiiiiiiiiiiiiiight	  I'm a rock n' roll star


 Outro: (3:46)

  A	     A
E ----------------------|
B ----------------------|
G ---6--6-6-----6--6-6--|
D --7-7-7--7---7-7-7--7-| (x2)
A -7----7-----7----7----|
E ----------------------|


F#    E  	(x8) 	[ Play a bit faster starting from 5th time ]

F#    E
        It's just Rock n' Roll  	 [ Repeat several times ]

 [ Music Fades ]



-----------------------------------------------------------|
 2. Shakermaker			(5:02)
-----------------------------------------------------------|


      E A D G B E

B13 --x-2-1-2-0-0--|
A   --x-0-2-2-2-0--|
E   --0-2-2-1-0-0--|
F#  --2-4-4-3-2-2--|
D   --x-x-0-2-3-2--|



Intro:

E --------------------0-----------------------------------------|
B ----0------0------0--0---------0-------0----------0-------0---|
G ---2-2----2-2----2-2--2-------7-7-----7-7--------2-2-----2-2--|
D --1---1--1---1--1---1--1-----6---6---6---6------1---1---1---1-|
A -2-----2------2-------------7------7-----------2------2-------|
E --------------------------------------------------------------|

 [ Band Kicks In ]	  A	E	B13	F#


 Verse 1: (0:30)

B13 
I'd like to be somebody else and not know where I've been 
E				 B13 
I'd like to build myself a house out of plasticine 
A	  E	     B13 
Aaaah, aaaaah, Shake along with me 
A	  E	     B13	  F# 
Aaaah, aaaaah, Shake along with me 


 Verse 2: (1:10)

I've been driving in my car with my friend Mr. Soft 
Mr. Clean and Mr.Ben are living in my loft
Aaaah, aaaaah, Shake along with me 
Aaaah, aaaaah, Shake along with me 


 Solo: (1:50)

E ------------|		E --------------|
B ------------|		B --------------|
G ------------|		G --------------|
D ----9b------|		D --------------|
A -4^9--5b-2b-| (x4)	A ----5-2-0-2^5-| (x2)
E ------------|		E -0-0----------|

E ------------|		E -------------------------------------|
B ------------|		B -------------------------------------|
G ------------|		G -------------------------------------|
D ----9b------|		D ----9-11b9-----9-----9-11-9--11b11b9-|
A -4^9--5b-2b-| (x4)	A -4^9-------9-11--9-11----------------| 
E ------------|		E -------------------------------------|


 Chorus: (2:20)

D	      A            B13
I'm sorry but I just don't know
D	      A		 B13
I know I said I told you so
D                                A        B13
But when you're happy and you're feeling fine
				A	 E
Then you'll know that it's the right time
			      A		E
Yeah, you know that it's the right time
           

[ With Intro ] 
                            
shake along with me! shake along with me!
shake along with me! shake along with me!
 

Verse 3: (3:18)

Mister Sifter sold me songs when I was just sixteen
Now he stops at traffic lights but only when they're green
A	  E	     B13 
Aaaah, aaaaah, Shake along with me 
A	  E	     B13	  
Aaaah, aaaaah, Shake along with me 
A	  E	     B13	  
Aaaah, aaaaah, Shake along with me 
A	  E	  
Aaaah, aaaaah...


 Outro: (4:14)

[ With Intro and then mix with this ]

 E -----------------------------------|
 B -----------------------------------|
 G -----------------------4b4b4b4-2b2-|
 D --0-1--0-1----0-1--0-1-------------|
 A -2----2----2-2----2----------------|
 E -----------------------------------|

shake along with me! shake along with me!
shake along with me! shake along with me!
shake along with them! shake along with me!
shake along with them! shake along with me!


 [ Ends with E ]



--------------------------------------------------------|
 3. Live Forever		(4:36)
--------------------------------------------------------|


        E A D G B E

G     --3-2-0-0-3-3--|
D     --x-x-0-2-3-2--|
Am7   --x-0-2-0-1-0--|
C     --x-3-2-0-1-0--|
Em7   --0-2-2-0-3-0--|
Am    --x-0-2-2-1-0--|
Fsus4 --x-3-3-2-1-0--|



(Oh yeah)

 Intro: Drums


 Verse 1: (0:12)

G                D  
Maybe, I don't really wanna know
          Am7
How your garden grows
C               D
Cos I just wanna fly
G		D
Lately, did you ever feel the pain
	Am7
In the morning rain
      C			D
As it soaks you to the bone


 Chorus 1: (0:34)

Em7                 D 
Maybe I just wanna fly
                           Am7
Wanna live but don't wanna die
                     C
Maybe I just wanna breath
      D                 Em7
Maybe I just don't believe
                         D
Maybe you're the same as me
                            Am7
We see things they'll never see
                          Fsus4
You and I are gonna live forever


[ Lead Guitar plays this after Fsus4 ]

	E -----3------|
	B --1----1----|
	G ---------0--|
	D -3----------|
	A ------------|
	E ------------|


 Verse 2: (0:57) [ Same as Verse 1 ]

Maybe, I don't really wanna know
How your garden grows
cos I just wanna fly
Lately, did you ever feel the pain
In the morning rain
As it soaks you to the bone


 Chorus 2: (1:19) [ Same as Chorus 1 ]

Maybe I will never be
All the things that I wanna be
but now it's not the time to cry
Now it's time to find out why
I think you're the same as me
We see things they'll never see
You and I we're gonna live forever


Solo: (1:42)

	G	        D	      Am7	C     D		G
E ----------------------------------------------------------------------|
B ----------------------------------------------------------------------|
G ------12b--14b14-12-12h14---14b14-12--12h14---------------------------|
D -12h14-------------------------------14---14---12h14h12---------------|
A -----------------------------------------------------12h14h12--10b10b-|
E ----------------------------------------------------------------------|

		D	     Am7	C     D		Em
E --------------------------------------------------------------|
B --------------------------------------------------(15)^17b17b-|
G ------------12h14---14b14-12--12h14---------------------------|
D -12-12-12h14-----------------14---14---12h14-14-12------------|
A --------------------------------------------------------------|
E --------------------------------------------------------------|

   D			     Am7		        C	 D
E ----------------------------------------------------------------------|
B -17h15--15------------------------------------------------------------|
G ------16--16h14h16--14----14b14-12h14h12------------12-14b14b14h12-14-|
D ------------------17--17----------------14b-----12h14-----------------|
A --------------------------------------------12h14---------------------|
E ----------------------------------------------------------------------|

	  Em	D			 Am7			  Fsus4
E ----------------------------------------------------------------------|
B -(12)-15h17b17b--17h15--15--------------------------------------------|
G ----------------------16--16h14h16--14--14b14-12h14h12------------12b-|
D ----------------------------------17--17--------------14b-----12h14---|
A ----------------------------------------------------------12h14-------|
E ----------------------------------------------------------------------|

 Fsus4
E ----------------------------------|
B ----------------------------------|
G ---------12h12-------14b14b14h12b-|
D -----12h14-------12h14------------|
A -12h14-------12h14----------------|
E ----------------------------------|


 Verse 3: (2:27)

  G			      D				 
G ---------14^16h14-------------------12----|
D ----12h14----------------------12h14--14b-|
A ------------------------------------------|
 Maybe, I don't really wanna know

	  Am7		C		D				
G ------------------------12h12----------------------------|
D -------------------12h14-----14-12h14------14h12---------|
A -----------------------------------------------10h12-10b-|
How your garden grows  cos I just wanna fly

  G		D				 
G ---------14^16h14---------------------12----|
D ----12h14------------------------12h14--14b-|
A --------------------------------------------|
Lately, did you ever feel the pain

	Am7		    C		     D
G -----------------------12h12---------------------------|
D ------------------12h14-----14-12h14----------12h14-12-|
A ---------------------------------------------10--------|
In the morning rain  as it soaks you to the bone



 Chorus: (2:49)

	Em7		  D				 Am7
G ---------------------------------------------------------------|
D -12h14b---------------12-12h14b-------------------12-12-12h14b-|
A ---------------------------------------------------------------|
      Maybe I just wanna fly  Wanna live but don't wanna die

		     C			 D
B --------------12--------------------------------------|
G ----------------14-----12-14-12-----------------------|
D ------------------------------------------------------|
Maybe I just wanna breath  Maybe I just don't believe

      Em7		      D				     Am7
B -12---------12h12---14h12b12----------------------------12----------|
G --14-----------------------14b14------------------12h14b--14b-------|
D --------------------------------------------------------------------|
     Maybe you're the same as me  We see things they'll never see

			 Fsus4
D ----------------------------------------|
A ------------------------------0-2h3h2-0-|
E ----------------------------------------|
You and I are gonna live forever



 Outro: (3:42)

   Am			 Fsus4   
E ----0---------------------0---------------|
B ---1-1-------------------1-1--------------|
G --2---------------------------------------| (x6)
D ------------------------3-----------------|  
A --------------------------------(2)3h2--0-|
E ------------------------------------------|       
	We're gonna live forever


  Am       Fsus4  Am            Fsus4    Am                 Fsus4     Am 
E -------------------------------------------------------------------------|
B ----------------------5h5------5-----------------------------------------|
G ---7b7-5--5--------5h7---7-5h7--7--------7b7-5h7h5-7b7-5h7-5---------7b7-|
D --------7b--------------------------------------------------7b-----------|
A ------------3-2-0-----------------3-2-0------------------------3-2-0-----|
E -------------------------------------------------------------------------|

                 Fsus4  Am          Fsus4        Am          Fsus4
E ------------------------------------------------------------------------|
B ------------------------------------5h5----------5h5---------5h5--------|
G -5h7h5-7b7-5h7-5--------5h5-5-------5h5-5--------5h5-5-------5h5-5------|
D ----------------7b---------7-7-5h7-----7-7-5h7b-----7-7-5h7-----7-7-5h7-|
A -------------------3-2-0------------------------------------------------|
E ------------------------------------------------------------------------|

 Am              Fsus4             Am              Fsus4         Am 
E -------------------------------------------------------------------------|
B ----------------5h5--------------5h5--------------5h5--------------------|
G ------5h5-------5h5-5------------5h5-5------------5h5-5----------9-------|
D ---5h7---7-5h7-----7-7-5h7-5h7b-----7-7-5h7-5h7b-----7-7-5h7-7b---7-10-7-|
A -5h7---------------------------------------------------------------------|
E -------------------------------------------------------------------------|



-----------------------------------------------------------|
 4. Up In The Sky		(4:28)
-----------------------------------------------------------|


	    E A D G B E

G         --3-2-0-0-3-3--|
Cadd9     --x-3-2-0-3-3--|
A7        --x-0-2-0-2-0--|
Cadd9sus4 --x-3-2-0-3-0--|
D         --x-x-0-2-3-2--|
Emsus2    --0-2-2-0-3-3--|



 Intro:

E -------------------------------|
B -------------------------------|
G ---0----------0----0---------0-| 
D -----------3-------------3-5---| (x2) (Riff)
A ------3-5------------3-5-------|
E -3---------------3-------------|

[ Lead Guitar keeps playing that Riff and Rhythm Guitar plays: ] 

  G	Cadd9	A7	Cadd9sus4	[ Listen the song for this part ]


  G Cadd9	G Cadd9			[ After drums ]



 Verse 1: (0:23) [ With Riff ]

   G	Cadd9	   G
Hey you, up in the sky
 Cadd9	    G	   Cadd9   G    
Learning to fly, so tell me how high.
           Fmaj7	Cadd9
Do you think you'll go,
		 G   Cadd9 G Cadd9
Before you start falling.
   G	Cadd9	   G
Hey you, Up in a tree
 Cadd9	    G	   Cadd9	 G    
You wanna be me, but that couldn't be
           Fmaj7	Cadd9
Cos the people here
		     G   Cadd9 G Cadd9
they don't hear you calling.

C			A7
	So how does it feel? 
	       G  Cadd9  G Cadd9
When you're inside me.



 Verse 2: (1:04) [ With Riff ]

Hey you, wearing the crown, 
making no sound, I hear you feel down.
Well that's just too bad
welcome to my world.
Hey you, stealing the light, 
I heard that the shine's, gone out of your life.
Well that's just too bad
welcome to my world.

How does it feel?
When you're inside me.



 Chorus: (1:46)

  D
You'll need assistance with the things that you
        Emsus2	  Cadd9  
Have never ever seen.
  D
E -3-3-------------------------------------3---|
B -0h1-3h1-0h1-------------0h2--3--2--0h2--3---|
G -----------------------------------------0---|
D ---------------------------------------------|
A ---------------------------------------------|
E ---------------------------------------------|  
It's just a case of never breathing out
    Emsus2		 Cadd9        
Before you're breathing in.
  C			A7		  G  Cadd9  G Cadd9
E -3-3-------------------------------------3-----3-|
B -0h1-3h1-0h1-------------0h2--3--2--0h2--3-0-2-3-|
G -----------------------------------------0-------| 
D -------------------------------------------------|
A -------------------------------------------------|
E -------------------------------------------------|  
	 So how does it feel? When you're inside me...


 [ With Riff ]
G	 Cadd9		   A7	Cadd9sus4
  I can feel you, Can you feel me?


  G Cadd9	G Cadd9



Hey you, up in the sky
Learning to fly, so tell me how high.
Do you think you'll go,
Before you start falling.
Hey you!, Up in a tree
You wanna be me, but that couldn't be
Cos the people here
they don't hear you calling.

So how does it feel?
When you're inside me.


You'll need assistance with the things that you
Have never ever seen.
It's just a case of never breathing out   
Before you're breathing in.
So how does it feel?
When you're inside me...


 [ With Riff ]
  G Cadd9	G Cadd9		(x3)


 [ With Riff ]
G	 Cadd9		   A7	Cadd9sus4


 [ With Riff ] [ Speeds down a little bit ]
  G Cadd9	G Cadd9		(x3)


 [ Music Fades ]



-----------------------------------------------------------|
 5. Columbia			(6:17)
-----------------------------------------------------------|


	    E A D G B E

A         --x-0-2-2-2-0--|
Dsus4     --x-x-0-2-3-0--|
A7        --x-0-2-0-2-0--|
Cadd9sus4 --x-3-2-0-3-0--|



 Intro:

   A		   Dsus4 Cadd9sus4 A	       Dsus4 Cadd9sus4
E ---------------------------------------------------------| 
B ---------------------------------------------------------|
G -------5h7-7b7-5b5---------------------5h7-7b7-5b5-------|
D --7-5h7-----------7--7h5----------7-5h7-----------7--7h5-|
A ---------------------------------------------------------|
E ---------------------------------------------------------|


 Verse 1: (1:07)

A                  
There we were, now here we are
Dsus4                Cadd9sus4
All this confusion, nothing's the same to me
A
There we were, now here we are
Dsus4                Cadd9sus4
All this confusion, nothing's the same to me


 Chorus: (1:26)

    A
But I can't tell you the way I feel
         Dsus4         Cadd9sus4
'Cos the way I feel is oh so new to me
   A
No I can't sell you the way I feel
         Dsus4         Cadd9sus4
'Cos the way I feel is oh so new to me


 Solo: (1:46)

   A			      Dsus4	    Cadd9sus4
E ---------------------------------------------------------|      
B ---------------------------------------------------------|
G --7---6---------7---6---------7---6---------7---5--------|
D ----7---7--5h7----7---7--5h7----7---7--5h7----7---7--5h7-|
A ---------------------------------------------------------|
E ---------------------------------------------------------|


 Verse 2: (2:05)

What I heard is not what I hear
I can see the signs but they're not very clear
What I heard is not what I hear
I can see the signs but they're not very clear


But I can't tell you the way I feel,
'Cos the way I feel is oh so new to me
No I can't sell you the way I feel
'Cos the way I feel is oh so new to me

   A			      Dsus4	    Cadd9sus4      
E ---------------------------------------------------------|
B ---------------------------------------------------------|
G --7---6---------7---6---------7---6---------7---5--------|
D ----7---7--5h7----7---7--5h7----7---7--5h7----7---7--5h7-|
A ---------------------------------------------------------|
E ---------------------------------------------------------|
			      This is confusion, am I confusing you?

   A			      Dsus4	    Cadd9sus4   
E ---------------------------------------------------------|   
B ---------------------------------------------------------|
G --7---6---------7---6---------7---6---------7---5--------|
D ----7---7--5h7----7---7--5h7----7---7--5h7----7---7--5h7-|
A ---------------------------------------------------------|
E ---------------------------------------------------------|
			      This is confusion, am I confusing you?

   A			Dsus4		  Cadd9sus4    
E ----------------------------------------------------------------|
B -15^17----b17--b17---15^17--b17---b17---15^17--b17--b17---15^17-|
G ----------------------------------------------------------------|
D ----------------------------------------------------------------|
A ----------------------------------------------------------------|
E ----------------------------------------------------------------|
			This is peculiar, we don't wanna fool ya

   A			Dsus4		  Cadd9sus4    
E ----------------------------------------------------------------|
B -15^17----b17--b17---15^17--b17---b17---15^17--b17--b17---15^17-|
G ----------------------------------------------------------------|
D ----------------------------------------------------------------|
A ----------------------------------------------------------------|
E ----------------------------------------------------------------|
			This is peculiar, we don't wanna fool ya

 Outro: (3:21) 


   A			 Dsus4	     Cadd9sus4
E -----------------------------------------------|
B -----------------------------------------------|
G -----------------------------------------------|
D -----------------------------------------------| (x2)
A --0-0-3-5-3---0-0-3-5-3---0-0-3-5-3--5b5-3---0-|
E -3-----------3-----------3-----------------3---|

   A			      Dsus4	    Cadd9sus4
E ---------------------------------------------------------|      
B ---------------------------------------------------------|
G --7---6---------7---6---------7---6---------7---5--------|
D ----7---7--5h7----7---7--5h7----7---7--5h7----7---7--5h7-| (x2)
A ---------------------------------------------------------|
E ---------------------------------------------------------|

   A			      Dsus4	    Cadd9sus4      
E -------------------------------------------------------------|
B -------------------------------------------------------------|
G --7b7-5h7-5---5h7-7b7-5h7-5---5h7-7b7-5------5-7-7b7-5-------|
D ------------7---------------7----------7-5h7-----------7-5h7-| (x3)
A -------------------------------------------------------------|
E -------------------------------------------------------------|

   A			      Dsus4	    Cadd9sus4      
E -----------------------------------------------------------|
B -----------------------------------------------------------|
G --7b7-5h7-5---5h7-7b7-5h7-5---5h7-7b7-5------7b7b7b7b7-5---|
D ------------7---------------7----------7-5h7-------------7-|
A -----------------------------------------------------------|
E -----------------------------------------------------------|

  A		Dsus4	Cadd9sus4 
E ----------------------------------|     
B ----------------------------------|
G ---------------7------------------|
D ---9b9-7---9b9----9b9--9b9--9b9-9-| (x3)
A ----------------------------------|
E ----------------------------------|

   A		     Dsus4 Cadd9sus4      
E ----------------------------------|
B ----------------------------------|
G -----5b5--5b5--5b5--5b5--5b5--5b5-|
D ----------------------------------| [ Repeat to Fade ]
A ----------------------------------|
E ----------------------------------|
				  Yeah Yeah Yeah



-----------------------------------------------------------|
 6. Supersonic			(4:43)
-----------------------------------------------------------|


      E A D G B E

F#m --2-4-4-2-2-2--|
A   --5-7-7-6-5-5--|
B   --7-9-9-8-7-7--|
E   --0-2-2-1-0-0--|
C#  --x-4-6-6-6-4--|
D   --x-x-0-2-3-2--|



 Intro:

E ------0---------------|      E ------0----------------------|
B --------0-------------|      B --------0--------------------|
G -----2----2-----2-----|      G -----2----2-----2------------|
D ---4---------4--2---1-| (x3) D ---4---------4--2---------4b-|
A -4--------------0---2-|      A -4--------------0--2-3b2h0---|
E ----------------------|      E -----------------------------|
							(I need...)

 Verse 1: (0:27)


  Riff 1:	    Riff 2:

E --------------|     E ---7-------|
B --------------|     B -----5-----|
G --------------|     G -------6---|
D -----------4b-| (*) D -----------| (**)
A --(2)-3b2h0---|     A -----------|
E --------------|     E -----------|
	
[ Transitions between B and F#m ]


	  F#m	    A  B   (**)
I need to be myself
          F#m       A  B   (*)
I can be no one else
     F#m		A	      B   (**)          
I'm feeling supersonic give me gin & tonic
F#m			  A		  B  
You can have it all, but how much do you want it
    F#m		  A  B   **
You make me laugh
	  F#m	       A  B   (*)
Give me your autograph
       F#m		    A B  (**)
Can I ride with you in your BMW
 	  F#m		    A		B
You can sail with me in my yellow submarine


 Pre-Chorus:

	     E
You need to find out 'cos no one's gonna tell you
         F#m     (**)
What I'm on about
	     E					C#
You need to find a way for what you want to say
C#
But before tomorrow 


 Chorus: (1:25)

 Riff 3: [ Lead Guitar during Chorus ]

   D	    A  E       F#m
 E -----------------------|
 B -----------------------|
 G -----------------------|
 D ------2-2---------2-2--|
 A -0h2h4---4h2-0h2h4-----|
 E ---------------------2-|

 D		A
'Cos my friend said 
      E		F#m
He'd take you home 
 D		A               
He sits in the corner
 E     F#m
All alone
 D        A       E     F#m
He lives under a waterfall
 D	    A        
Nobody can see him
 E	      F#m		(***)
Nobody could ever hear him call
D A  E		  F#m
    Nobody could ever hear him call


 Solo: (***) [ Play this TWICE ]

  D	   A E	  F#m		  D	   A  E		F#m
E ------------------------------------------------------------------------|
B ---------------------------------------------17-14----------------------|
G --16b16-14--16-14-----14----------16b16-14--------16-14-----14h16-14-14-|
D -----------------14-16-16-14h(16)----------------------14h16------------|
A ------------------------------------------------------------------------|
E ------------------------------------------------------------------------|


 [ Rhythm Guitar plays F#m E C# then Lead Guitar plays (*) ]


 Verse 2: (2:10) [ Same as Verse 1 ]

You need to be youself
You can be no one else
I know a girl called Elsa - She's into alka-seltza
She sniffs it through a cane On a supersonic train
And she makes me laugh
I've got her autograph
She done it with a doctor On a helicopter
She's sniffin' in a tissue - Selling the big issue


When she finds out
No ones's gonna tell her what I'm on about
You need to find a way for What you want to say
But before tomorrow


Cos my friend said he'd take you home
he sits in a corner all alone
He lives under a waterfall
Nobody can see him 
Nobody can ever hear him call
Nobody can ever hear him call

 [ Instead of playing Solo (***) play this twice ]

  D	   A E	  F#m		  D	   A  E		F#m
E ------------------------------------------------------------------------|
B ---------------------------------------------17-14----------------------|
G --16b16-14--16-14-----14----------16b16-14--------16-14-----14h16-14-14-|
D -----------------14-16-16-14h(16)----------------------14h16------------|
A ------------------------------------------------------------------------|
E ------------------------------------------------------------------------|

  D	   A E	  F#m	      D		A	    E		 F#m
E -------------------------------------------------------------------------|
B -------------------------------------------------------------------------|
G -16b16-14--16-14---------14--------14--------14--16b16-14-16h16-14h16h14-|
D ----------------(16)14h16--16h14h16--16h14h16----------------------------|
A -------------------------------------------------------------------------|
E -------------------------------------------------------------------------|

 Outro: (4:01)

  D	   A	     E	     F#m	D	    A	  E	 F#m
E ------------------------------------------------------------------------|
B ------------------------------------------------------------------------|
G -14----14--14h16h14-14h16h14-14h16h14--14----14-14-16h14-16b16b16b14-14-|
D -14h16h14--14--------------------------14h16h14-------------------------|
A ------------------------------------------------------------------------|
E ------------------------------------------------------------------------|

  D	   A	     E	     F#m	D	    A	  E	 F#m
E ------------------------------------------------------------------------|
B ------------------------------------------------------------------------|
G -14----14--14h16h14-14h16h14-14h16h14--14----14-14-16h14-16b16b16b14-14-|
D -14h16h14--14--------------------------14h16h14-------------------------|
A ------------------------------------------------------------------------|
E ------------------------------------------------------------------------|

 D	   A	   E	  F#m	   D	   A  E      F#m	D....
E -------------------------------------------------------------------------|
B -------------------------------------------------------------------------|
G -16b16-16h14-----14-16b16h14------16b16h14--16b16b16b16h14-14---16b16-14-|
D ------------14h16--------------------------------------------------------|
A -------------------------------------------------------------------------|
E -------------------------------------------------------------------------|


 [ Music fades ]


-----------------------------------------------------------|
 7. Bring It On Down		(4:17)
-----------------------------------------------------------|


     E A D G B E

B  --x-2-4-4-x-x--| or --7-9-9-x-x-x-|
A  --x-0-2-2-x-x--| or --5-7-7-x-x-x-|
D  --x-5-7-7-x-x--|
E  --0-2-2-1-x-x--|
G  --3-5-5-x-x-x--| or --x-x-0-0-x-x-|




Note: To play the "A B" part, you can play:

E ------------|          E -------------|
B ------------|          B -------------|  
G --4-4-4-4-4-|          G -------------|
D --4-4-4-4-4-|    or    D -7-7-7s9-9-9-| 
A --0-0h2-2-2-|          A -7-7-7s9-9-9-| 
E ------------|          E -5-5-5s7-7-7-|




 Intro: Drums + Rhythm Guitar plays "A B" 3 times, then:

 A B  A B  A B  A B   D	     E	    D	   A B A B
E ---------------------------------------------------|
B ---------------------------------------------------|
G -----------------------9b9-9h7-9h7---7h7-----------| 
D -----------------------------------9-----9b--------| 
A ---------------------------------------------------|
E ---------------------------------------------------|


 Verse 1: (0:42)

A B		     A B		A B     A B 
What was that sound ringin' around your brain?
 D		      E		 D	    A B		A B
Today was just a blur, you got a head like a ghost train
A B		     A B		A B	A B
What was that sound ringin' around your brain?
 D			E		 D	A B	A B
E ----------------------------------------------------|
B ----------------------------------------------------|
G -----------------------9b9-9h7-9h7---7h7------------| 
D -----------------------------------9-----9b---------|
A ----------------------------------------------------|
E ----------------------------------------------------|
You're here on your own, who you gonna find to blame?


 Bridge: (1:07)

	   B	    D  A	    B		D  A
E ----------------------------------------------------|
B ----------------------------------------------------|
G -----------------9b9-7h6-------------------9b9-7h6--| 
D ----------------------------------------------------|
A ----------------------------------------------------|
E ----------------------------------------------------|
You're the outcast	 you're the underclass

	B	    D  A	  B		   D  A
E --------------------------------------------------|
B --------------------------------------------------|
G ---------------9b9-7h6-------------------9b9-7h6--| 
D --------------------------------------------------| 
A --------------------------------------------------|
E --------------------------------------------------|
But you don't care	because you're living fast



 Chorus: (1:20)

	    B			  D
You're the uninvited guest that stays till the end

  G				     E
E ---------------------------------------------------|
B ---------------------------------------------------|
G -------------------------------------------9b9-7---| 
D ------------------------------------------------9b-|
A ---------------------------------------------------|
E ---------------------------------------------------|
I know you've got a problem that the devil sends

    B					    D
You think they're talking 'bout you but you don't know who

	  G			     E
E ------------------------------------------------------|
B ------------------------------------------------------|
G-----------------------------------------------9b9-7---| 
D----------------------------------------------------9b-|
A ------------------------------------------------------|
E ------------------------------------------------------|
I'll be scraping your life from the sole of my shoe tonight



 Solo: (1:33)

  B	     D		 G	      E
E --------------------------------------------------|
B --------------------------------------------------|
G ----7--7--7-9b9-7--7----9b9-9h7-9h7--9b9-9h7-9h7--| 
D -7h9-9--9--------9--9b-------------9------------9-| 
A --------------------------------------------------|
E --------------------------------------------------|

 B	     D		 G	      E
E -----------------------------------------------------------|
B -----------------------------------------------------------|
G ----7--7--7-9b9-7--7----9b9-9h7-9h7--9b9-9^11-11^14-14^16b-| 
D -7h9-9--9--------9--9b-------------------------------------| 
A -----------------------------------------------------------|
E -----------------------------------------------------------|

 A B   A B   A B  A B   A B   A B  A B  A B
E -------------------------------------|
B -------------------------------------|
G -16b16-16h14b-14h13b-13h11--9b9------| 
D -------------------------------------| 
A ------------------------------7-7h9b-|
E -------------------------------------|


 Verse 2: (1:58) [ Rhythm Guitar + Bass ]

Bring it on down. Bring it down for me.
Your head's in a fish tank
your body and your mind can't breathe
Bring it on down. Bring it down for me.
Your head's in a fish tank
your body and your mind can't breathe


 Bridge: (2:22) [ Same ]

You're the outcast
you're the underclass
But you don't care
because you're living fast


 Chorus: (2:35) [ Same ]

You're the uninvited guest who stays till the end
I know you've got a problem that the devil sends
You think they're talking 'bout you but you don't know who
I'll be scraping your life from the sole of my shoe tonight


 Outro: (2:48)

  B	     D		 G	      E
E --------------------------------------------------|
B --------------------------------------------------|
G ----7--7--7-9b9-7--7----9b9-9h7-9h7--9b9-9h7-9h7--| 
D -7h9-9--9--------9--9b-------------9------------9-| 
A --------------------------------------------------|
E --------------------------------------------------|

 B	     D		 G	      E
E -----------------------------------------------------------|
B -----------------------------------------------------------|
G ----7--7--7-9b9-7--7----9b9-9h7-9h7--9b9-9^11-11^14-14^15b-| 
D -7h9-9--9--------9--9b-------------------------------------| 
A -----------------------------------------------------------|
E -----------------------------------------------------------|

  B		D	      G		    E
E ----------------------------------------------------------|
B ------15-----15-----15-----15-----15-----15-----15-----15-|
G -14h16--14h16--14h16--14h16--14h16--14h16--14h16--14h16---| 
D ----------------------------------------------------------| 
A ----------------------------------------------------------|
E ----------------------------------------------------------|

 B		D	      G		    E
E ----------------------------------------------------------|
B -17h15--15h15--17h15--15h15--17h15--15h15--15-17b17-15----|
G ------14------------14------------14------------------16b-| 
D ----------------------------------------------------------| 
A ----------------------------------------------------------|
E ----------------------------------------------------------|

  B	 D	   G	   E		B	D	  G	 E
E --------------------------------------------------------------------------|
B --------------------------------------------------------------------------|
G -9b9-7-----7------7h7-----9b9b9-7h9h7--9b9-7-----7------9h9h7--9b9b9b9b-7-|
D ------9-7h9-9-7h9----9-7h9-----------9------9-7h9-9-7h9------9------------|
A --------------------------------------------------------------------------|
E --------------------------------------------------------------------------|

 B	    D	      G		E
E ------------------------------------------|
B ------------------------------------------|
G -9b9b9b-7--9b9b9b-7--9b9b9b-7--9-7h7--7---| 
D ------------------------------------9---9-| (x2)
A ------------------------------------------|
E ------------------------------------------|

  B	    D	       G	E
E -------------------------------------------|
B -------------------------------------------|
G -7h7-------7h7-------7h7-------9b9b9-7h9h7-| 
D ----9-7h9b----9-7h9b----9-7h9b-------------|
A -------------------------------------------|
E -------------------------------------------|

  B	    D	     G		E
E -----------------------------------------|
B -----------------------------------------|
G -7h7-------9b9-7----9b9-7-----9b9b9b9b-7-| 
D ----9-7h9h------7h9------7h9-------------|
A -----------------------------------------|
E -----------------------------------------|

 B	    D	      G		E
E ------------------------------------------|
B ------------------------------------------|
G -9b9b9b----9b9b9b----9b9b9b----9b9b9b-----| 
D ------------------------------------------|
A ------------------------------------------|
E ------------------------------------------|

 B	    D	      G		E	B
E -----------------------------------------------------|
B -----------------------------------------------------|
G -9b9b9b----9b9b9b----9b9b9b----9b9--9b9--9b9---------| 
D ----------------------------------------------7h9--9-|
A -----------------------------------------------------|
E -----------------------------------------------------|




-----------------------------------------------------------|
 8. Cigarettes and Alcohol 	(4:49)
-----------------------------------------------------------|


        E A D G B E

E     --0-2-2-1-0-0--|
E5    --x-7-9-9-x-x--|
F#    --2-4-4-3-2-2--|
A     --x-0-2-2-2-0--|
C     --x-3-2-0-1-0--|
Dsus4 --x-x-0-2-3-0--|



 Intro: (0:09)
 
E ---------------------------------------------------|
B ---------------------------------------------------|
G ---------------------------------------------------|
D ------------2-2---------------------2-2------------|
A --2-2-4-2-4----4-2--------2-2-4-2-4-----4-2--------|
E --0-0-0-0----------3-2-0--0-0-0-0-----------3-2-0--|

		     (F#)   (A)
E ----------------------------0--0--0--0--0----|
B ----------------------------12-12-12-10-10---|
G ----------------------------13-13-13-11-11-9-|
D ------------2-2----2-2h4-4-(4^7)-------------|
A --2-2-4-2-4----4-2-2-2h4-4-(4^7)-------------|
E --0-0-0-0------------------------------------|

  E			    E
E ------------------------------------------------|
B ------------------------------------------------|
G -9-9-9-9-9-9-9-9-9-9--------9-9-9-9-9-11-9-11-9-|
D -9-9-9-9-9-9-9-9-9-9--------9-9-9-9-9-11-9-11-9-| (*)
A -7-7-0-7-7-0-7-7-0-7--------7-0-7-7-------------|
E ---------------------3-2-0----------------------|


 Verse 1: (0:33)

      E    
Is it my imagination
	   F#		 A			E   (*)            
Or have I finally found something worth living for?
	E
I was looking for some action
    F#		     A			E   (*)                 
But all I found was cigarettes and alcohol


 Bridge: (1:08)

A			 E  
   You could wait for a lifetime
A			     E 
  To spend your days in the sunshine
A			    E 
  You might as well do the white line
	     Dsus4	 A
Cos when it comes on top


 Chorus: (1:22)

		   E	  Dsus4		   A	   E	  Dsus4
You gotta make it happen!	You gotta make it happen!
	   A	   E	  Dsus4		   A	   E	  Dsus4 A
You gotta make it happen!	You gotta make it happen!

  C	  Dsus4	   E
E ---------------------|
B ---------------------|
G -11b11-9-------------|
D ---------11b11-9--6b-|
A ---------------------|
E ---------------------|


 [ Repeat whole Intro ]


 Verse 2: (2:10) [ Same as Verse 1 ]

Is it worth the aggravation
To find yourself a job when there's nothing worth working for?
It's a crazy situation
But all I need are cigarettes and alcohol!

 Bridge: (2:44)

You could wait for a lifetime
To spend your days in the sunshine
You might as well do the white line
Cos when it comes on top

 Chorus: (2:59)

You gotta make it happen! You gotta make it happen!
You gotta make it happen! You gotta make it happen!


 Solo: (3:17)

  E		 Dsus4  A	E		Dsus4  A
A ---------------------------------------------------------------------|
B ---------------------------------------------------------------------|
G -9----9h11-10h9-11b11-9-9h11-9--9----9h11-10h9-11b11-9-9h11-9-9h11-9-|
D -9h11-9-------------------------9h11-9-------------------------------|
A ---------------------------------------------------------------------|
A ---------------------------------------------------------------------|

  E		 Dsus4  A	E		Dsus4	    A
A -----------------------------------------------------------------------|
B -----------------------------------------------------------------------|
G -9----9h11-10h9-11b11-9-9h11-9--9----9h11-10h9-11b11-11b11-11b11-11b11-|
D -9h11-9-------------------------9h11-9---------------------------------|
A -----------------------------------------------------------------------|
A -----------------------------------------------------------------------|


E		   Dsus4	   A      
  You gotta, You gotta, You gotta make it!
  You gotta, You gotta, You gotta fake it!
  You gotta, You gotta, You gotta make it!
  You gotta, You gotta, You gotta fake it! (woo!)


 Outro: (3:50)

  E		 Dsus4	  A	    E		    Dsus4 A
E -----------------------------------------------------------|
B -----------------------------------------------------------|
G -14b14-14b14-14-12--12--------12-14-14b14-12-14-12---------|
D ------------------14--14-12h14-----------------------------| (X2)
A -----------------------------------------------------------|
E -----------------------------------------------------------|

  E		   Dsus4 A	   E		     Dsus4 A	    E
E -----------------------|      E -----------------------------------------|
B -----------------------|      B -----------------------------------------|
G -14b14B14b14-14-12-----|      G -14^16-14^16-14^16-14^16-14^16-14-14^16b-|
D -----------------------| (X3) D -----------------------------------------|
A -----------------------|      A -----------------------------------------|
E -----------------------|      E -----------------------------------------|


E ------------------|
B ------2--2-2-2^3--|
G ---2-----2-2------|
D ---2-------2------|
A ---0--------------|
E ------------------|



-----------------------------------------------------------|
 9. Digsy's Dinner		(2:32)
-----------------------------------------------------------|


        E A D G B E

A     --x-0-2-2-2-0--|
c#m   --x-4-6-6-5-4--|
D     --x-x-0-2-3-2--|
Dsus4 --x-x-0-2-3-0--|
D7    --x-x-0-2-1-2--|
F#m   --2-4-4-2-2-2--|
Bm    --x-2-4-4-3-2--|
Asus4 --x-0-2-2-3-0--|


 Intro:

    A              C#m            D         E        Dsus4       E 
E --5-x-5-x-5-x-5--4-x-4-x-4-x-4--2-0-2--0--0-0-0-0--0--0--0--0--0-0-0-|
B --5-x-5-x-5-x-5--5-x-5-x-5-x-5--3-3-3--0--0-0-0-3--3--3--3--0--0-0-0-|
G --6-x-6-x-6-x-6--6-x-6-x-6-x-6--2-2-2--2--1-1-1-1--2--2--2--2--1-1-1-|
D --7-x-7-x-7-x-7--6-x-6-x-6-x-6--0-0-0--0--2-2-0-2--0--0--0--0--2-2-2-|
A --7-x-7-x-7-x-7--4-x-4-x-4-x-4------------2-2-2-2--------------2-2-2-|
E --5-x-5-x-5-x-5---------------------------0-0-0-0--------------0-0-0-|


  D7            A    Asus4  A 
E --2--2--2--2-----------------| 
B --1--1--1--1---2--2--3--3--2-| 
G --2--2--2--2---2--2--2--2--2-| 
D --0--0--0--0---2--2--2--2--2-| 
A ---------------0--0--0--0--0-| 
E -----------------------------|


  A      C#m    D      E         Dsus2   E      D7       A
E ----5-------4------0-----0---0---0--0-----0---0---2--2---------|
B --5---5---6--6---3---3-----3----------3-----3------------2h3h2-|
G -------------------------------------------------------2-------|
D ---------------------------------------------------------------|
A ---------------------------------------------------------------|
E ---------------------------------------------------------------|

  
A		      C#m  
 What a life it would be 
	     D			E
If you could come to mine for tea
	     Dsus4		E
I'll pick you up at half past three
	     D7	A Asus4 A
We'll have lasagne

A		      C#m 
I'll treat you like a queen
D				E
I'll give you strawberries and cream
	     Dsus2		E
Then your friends will all go green
	 D7 A Asus4 A
For my lasagne



F#m				    A Asus4 A
These could be the best days of our lives 
	Bm                                C#m  
But I don't think we've been living very wise, said "Oh no no"



A		      C#m  
 What a life it would be 
	     D			E
If you could come to mine for tea
	     Dsus4		E
I'll pick you up at half past three
	     D7	A  Asus4 A
We'll have lasagne



 SOlo:

  A	      C#m	    D	    E
E ---------------------------------------------|
B -2--2--2h3h2-----------2---------------------|
G -------------4--4--2h4---4h2--2h4h2-------2--|
D ------------------------------------2--2h4---|
A ---------------------------------------------|
E ---------------------------------------------|

 Dsus4	    E	      D7	A
E -----------------------------------------|
B -------------------------------2--2h3h2--|
G -4b4-2h4h2-------2---4b4-2h4b------------|
D -----------2--4h2------------------------|
A -----------------------------------------|
E -----------------------------------------|



F#m				    A Asus4 A
These could be the best days of our lives 
	Bm                                C#m  
But I don't think we've been living very wise, said "Oh no no"
 


A		      C#m  
 What a life it would be 
	     D			E
If you could come to mine for tea
	     Dsus4		E
I'll pick you up at half past three
	     D7	A  Asus4 A
We'll have lasagne

A		      C#m 
I'll treat you like a queen
D				E
I'll give you strawberries and cream
	     Dsus4		E
Then your friends will all go green
	     Dsus4		E
Then your friends will all go green
	     Dsus4		E
Then your friends will all go green
	 D7 A
For my lasagne


E ----------------| 
B ------3--3p2----| 
G -------------2--| 
D --2h4-----------|
A ----------------| 
E ----------------| 


-----------------------------------------------------------|
 10. Slide Away			(6:32)
-----------------------------------------------------------|


        E A D G B E

Am7   --x-0-2-0-1-0--|
G     --3-2-0-0-3-3--|
Fsus9 --x-3-3-0-1-0--|
Dsus4 --x-x-0-2-3-0--|
C     --x-3-2-0-1-0--|



 Intro:

E -------------3-0-------3----------0--3-0-----3-------0-|
B ----------------1-0------0---0---1-------1-0--1-----1--|
G -5h7b------0----------0----0----0--------------0---0---|
D ---------2---------------------3------------------3----|
A -------0-----------------------------------------------|
E --------------------3----------------------------------|

 Am7	      G  Fsus9	     Am7   G  Fsus9
E -------------------------------------------|
B -------------------------------------------|
G -7^9b--7b9-7-5-----------5--5--------------|
D --------------7-------5h7-----7-------7----|
A -------------------5h7------------6^5---0--|
E -------------------------------------------|


 Verse 1: (0:22)

Am7		 G		    Fsus9
Slide away, and give it all you've got
Am7	   G		    Fsus9
My today, fell in from the top
Am7		    G			Fsus9
I dream of you, and all the things you say
Am7			    G  Fsus9
  I wonder where you are now


 Verse 2: (0:43) [ Same as Verse 1 ]

Hold me down - all the world's asleep
I need you now - you've knocked me off my feet
I dream of you - we talk of growing old
But you said please don't

 
 Bridge: (1:03)

G	   Fsus9   G		Fsus9
Slide in, baby, together we'll fly
G	    Fsus9		G			 G
I've tried praying but I Don't know what you're sayin to me


 Chorus: (1:15)

		 C
Now that you're mine, 
	    G
we'll find a way
		Fsus9
of chasing the sun
	      Am7
Let me be the one
		G
Who shines with you
	Dsus4				    Fsus9
In the morning when you don't know what to do
	  C
Two of a kind
	    G
We'll find a way
		  Fsus9
To do what we've done
	      Am7		   G
Let me be the one that shines with you
		   Fsus9 Dsus4	     Fsus9 Dsus4
And we can slide away	     slide away
 G	E
Away...


 Solo: (2:13)

 Am7	G	  Fsus9 Am7 G		Fsus9 	Am7	G	Fsus9
E -------5----------------------8-8h10p8-----------------------------------|
B ---------5----------------8h10--------10-8-8h10--------------------------|
G -7^9b-7-----7-5-5-5h7-5-------------------------7b9-9r7-5-5-5h7-5--------|
D -----------------------5h7--------------------------------------5h7---7--|
A -------------------------------------------------------------------6b7-0-|
E -------------------------------------------------------------------------|

  G		 Fsus9				G
E ------------------------------------------------------------------|
B -15^17b-17-15-13---------------13^15^17--15^17b-15b17-17-15-13----|
G -----------------14------12h14---------------------------------14-|
D --------------------14h14-----------------------------------------|
A ------------------------------------------------------------------|
E ------------------------------------------------------------------|

 Fsus9
E ---------------------------|
B ---------------------------|
G --------12-----------------|
D -12h14---14-12-10----------|
A ------------------12-10h12-|
E ---------------------------|


Slide away, and give it all you've got
My today, fell in from the top
I dream of you, and all the things you say
I wonder where you are now


Slide in, baby, together we'll fly
I've tried praying but I Don't know what you're sayin to me


Now that you're mine, 
we'll find a way
of chasing the sun
Let me be the one
Who shines with you
In the morning when you don't know what to do
Two of a kind
We'll find a way
To do what we've done
Let me be the one that shines with you
And we can slide away... slide away
Slide away... slide away
Slide away... slide away


	Fsus9
Slide away (And I wanna try now)
	Dsus4
Slide away (Gonna make you mine now)

	(x3)

 Fsus9		  Dsus4
E ------------------------------------|
B ------------------------------------|
G --7b9--b9r7--5-------------5--7--5--|
D ----------------7------5h7----------| [ Lead Guitar keep playing this ]
A -------------------5h7--------------|
E ------------------------------------|
 (ooooooooooo....oo....ooooooo)

Fsus9
I don't know, I don't care
Dsus4
All I know is you take me there s

Fsus9
I don't know, I don't care
Dsus4
All I know is you take me there (Slide Away) 

		[x5]

Fsus9
Take me there, take me there
Dsus4
Take me there, take me there (Slide Away)
Fsus9
Take me there, take me there
Dsus4
Take me there, All I know is you take me there
Fsus9
Take me there, take me there
Dsus4
Take me there, take me there
Fsus9                        D7sus4
Take me there, take me there

	Fsus9	   Dsus4      Fsus9	 Dsus4
E -----------------------------------------------|
B ------13-----13-----13-----13-----13-----13----|
G -12h14--12h14--12h14--12h14--12h14--12h14--12--|
D -----------------------------------------------|
A -----------------------------------------------|
E -----------------------------------------------|
  slide Away Slide Away Slide Away Slide Away....


 [ Music Fades ]


-----------------------------------------------------------|
 11. Married with Children 	(3:11)
-----------------------------------------------------------|


        E A D G B E

E     --0-2-2-1-0-0--|
G#    --4-6-6-5-4-4--|
C#m   --x-4-6-6-5-4--|
A     --x-0-2-2-2-0--|
C     --x-3-2-0-1-0--|
B     --x-2-4-4-4-2--|
F#    --2-4-4-3-2-2--|
A7    --x-0-2-0-2-0--|



 Intro:

  E G# C#m A	  C  B	E	  E	G# C#m	      A	   C	B   E	
E -------------------------------------------------------------------------|
B ----------5h7-5b-7b7-5b-----------------------5-7b7-7b7-5-7b7-5--7b7--5b-|
G ---------------------------4--------------4-6----------------------------|
D -------------------------6---4h6h4-2--4^6--------------------------------|
E -------------------------------------------------------------------------|
E -------------------------------------------------------------------------|


E	      G#	      C#m	 A
  There's no need for you to say you're sorry

	  C	    B	  E       
E ------------------------------------------------|             
B ---------5--------7b7-5b------------------------|
G -----4h6------------------------4---------------|
D -4h6------------------------4h6---6-4-6-4-6-4-2-|
A ------------------------------------------------|
E ------------------------------------------------|
      Goodbye, I'm going home

  E	   G#		   C#m	     A		 C	  B	E
E ---------------------------------------------------------------------|
B -------------------------------------------------5--------7b7-5b-----|
G ---------------------------------------------4h6---------------------|
D -----------------------------------------4h6-------------------------|
A ---------------------------------------------------------------------|
E ---------------------------------------------------------------------|
  I don't care no more so don't you worry   Goodbye, I'm going home

	    A				  E			A  
E ---------------------------------------------------------------------|
B ------------5--------------------------------------------7b7-5-------|
G -----4--4h6----------------------------------------------------------|
D -4h6-----------------------------------------------------------------|
A ---------------------------------------------------------------------|
E ---------------------------------------------------------------------|
               I hate the way that even though you know you're wrong

		   E		      A
E ---------------------------------------------------------------------|
B ---------------------------------------------------------------------|
G ---------------------4-----------------------------------------------|
D -----------------4h6-----4h6-4-6-4-2---------------------------------|
E ---------------------------------------------------------------------|
E ---------------------------------------------------------------------|
   You say you're right		       I hate the books you read and 

  E			  F#			  A7
E ---------------------------------0---------------------------------------|
B ---------------------------0--------0------------------------------------|
G ------------------------------3--------3-----------------------------3-0-|
D -------------------------------------------------------------------------|
A -------------------------------------------------------------------------|
E -------------------------------------------------------------------------|
  all your friends Your music's shite it keeps me up all night up all night

 E	      G#	      C#m	 A	     C	      B	    E  
E ----------------------------------------------------------------------|
B -----------------------------------------------5h7-5--------7b7-5-----|
G -------------------------------------------4h6------------------------|
D ----------------------------------------------------------------------|
E ----------------------------------------------------------------------|
E ----------------------------------------------------------------------|
  There's no need for you to say you're sorry   Goodbye, I'm going home

			E	  G#		  C#m	    A   
E -----------------------------------------------------------------|
B -----------------------------------------------------------------|
G -----4-----------------------------------------------------------|
D -4h6---6---4-6-4-6-4-2-------------------------------------------|
A -----------------------------------------------------------------|
E -----------------------------------------------------------------|
			 I don't care no more so don't you worry

	     C	      B	    E	  A				 E
E -------------------------------------------------------------------------|
B --5--7--5--------7b8-7-5----------5--------------------------------------|
G ------------------------------4h6----------------------------------------|
D -------------------------------------------------------------------------|
A -------------------------------------------------------------------------|
E -------------------------------------------------------------------------|
	Goodbye, I'm going home	     I hate the way the you are so sarcastic

		  A		  E			A
E -----------------------------------------------------------------------|
B ---7b7-7-5-------------------------------------------------------------|
G ----------------------------------------4------------------------------|
D ------------------------------------4h6---6--4-6-4-6-4-2---------------|
A -----------------------------------------------------------------------|
E -----------------------------------------------------------------------|
	     And you're not very bright			 You think that

		     E			   F#
E --------------------------------------------------0-----------------|
B ---------------------------------------------0-------0--------------|
G ------------------------------------------------3-------3-----------|
D --------------------------------------------------------------------|
A --------------------------------------------------------------------|
E --------------------------------------------------------------------|
  everything you've done's fantastic  Your music's shite it keeps me

  A7                   
E ---------------------------|
B ---------------------------|
G ---------------------------|
D ----------------------3-0--|
A ---------------------------|
E ---------------------------|
  up all night up all night


 Solo:

  E    G#      C#m       A       C        B      E		       E
E -------------------------------------------------------------------------|
B ----------5---5-7b7-7b7--7-5---------------------------------------------|
G ------4-6---6------------------------------------------4-----------------|
D --4^6---------------------------4b4-4b4-4--2-4-2---4h6---6--4-6-4-6-4-2--|
A -------------------------------------------------------------------------|
E -------------------------------------------------------------------------|

  E      G#    C#m       A     C       B     E
E ----------------------------------7------------|
B ----------5---5-7b7-7b7--7-5--7^9---9-7b-7b-5b-|
G ------4-6---6----------------------------------|
D --4^6------------------------------------------|
A -----------------------------------------------|
E -----------------------------------------------|



C#m		  G#m	      A			 E
  And it will be nice to be alone for a week or two
C#m               G#m		     A
  Then I know that I will be right, right back here with
 B	   A	   G#m	     F#	      B	      A		G#m  F#
E ---0--------0--------4------2--2-------0--------0--------4-----0---| 
B ----0--------0--------4-----2---2-------0--------0--------4-----0--|
G ----------------------------3--------------------------------------|
D -9--------7--------6--------4--------9--------7--------6-----4-----|
A -9--------7--------6--------4--------9--------7--------6-----4-----|
E -7--------5--------4--------2--------7--------5--------4-----2-----|
 you with you with you with you with you with you with you.....


  E	      G#	      C#m	 A	     C	      B	    E 
E ----------------------------------------------------------------------|
B ----------------------------------------7b7-5---5--------7b8r7--------|
G -----------------------------------------------6----------------------|
D ----------------------------------------------------------------------|
A ----------------------------------------------------------------------|
E ----------------------------------------------------------------------|
  There's no need for you to say you're sorry   Goodbye, I'm going home

		E	   G#		   C#m	     A   
E ---------------------------------------------------------|
B ---------------------------------------------------------|
G -----4-----4---------------------------------------------|
D -4h6---4h6---4-2-----------------------------------------|
A ---------------------------------------------------------|
E ---------------------------------------------------------|
		  I don't care no more so don't you worry

		C	     B		   E
           Goodbye	I'm going	  home
E ------------------------------------------------0--|
B -------5b--7b-----7b7-5b-------------5---5b-----8--|
G ----4^6--------------------------4h6---6--------7--|
D -4h6--------------------------------------------6--|
A ------------------------------------------------7--|
E ------------------------------------------------x--|




-----------------------------------------------------------|
 12. Sad Song		 	(4:22)
-----------------------------------------------------------|


           E A D G B E

Am       --x-0-2-2-1-0--|
C        --x-3-2-0-1-0--|
Fsus4    --x-3-3-2-1-0--|
D        --x-x-0-2-3-2--|
Dsus4    --x-x-0-2-3-0--|
Dsus2    --x-x-0-2-3-3--|
E        --0-2-2-1-0-0--|
G        --3-2-0-0-3-3--|
Em/Badd6 --x-2-0-0-1-0--|



 NOTE: tune the guitars 1/2 step down


 Intro:

                                     
  Am	C   Am	      C   Am	    C	Am		Am
Eb ---0-0-------------0-------------0--------0---0---0---0----------3--3-|
Bb ----1-1------1-0-1--1------1-0-1--1------1---1---1---1---1-0-1--1-----|
Gb ----------------------------------------------------------------------|
Db -------------------------------------------0--------------------------|
Ab -------3-3-0---------3-3-0---------3-3-0-------3---2---0--------------|
Eb ----------------------------------------------------------------------|


 Verse 1: (0:19)

	Am	      Fsus4
Sing a sad song in a lonely place,
    Dsus4		     E	G
And try to put a word in for me
	   Am		 Fsus4
It's been so long since I found a space,
      Dsus4			E  G
You'd better put in two or three
      Am		Fsus4
We as people are just walking round,
    Dsus4			      E  G
Our heads are firmly fixed in the ground
        Am		  Fsus4
What we don't see, well it can't be real,
     Dsus4			E  G
What we don't touch we cannot feel


 Chorus: (0:53)

C		   Em/Badd6
While we're livin' in this town
    Am				Fsus4
The sun is coming up and it's going down,
	C		G			D Dsus4 D Dsus2 D
But it's all just the same at the end of the day
	C	     Em/Badd6 
And we cheat and we lie,
Am			     Fsus4
Nobody says it's wrong so we don't ask why,
	  C		G			D Dsus4 D Dsus2 D
'Cos it's all just the same at the end of the day


		  Fsus4 C
We're throwing it all away?
		  Fsus4 C
We're throwing it all away,
		  Fsus4 C                      
We're throwing it all away 
		   E	E7
at the end of the day...


  Am	C   Am	      C   Am	     C	Am		Am
Eb ---0-0-------------0-----------------------0---0---0---0----------3--3-|
Bb ----1-1------1-0-1--1------1-0-1-1-3------1---1---1---1---1-0-1--1-----|
Gb -----------------------------------------------------------------------|
Db --------------------------------------------0--------------------------|
Ab -------3-3-0---------3-3-0----------3-3-0-------3---2---0--------------|
Eb -----------------------------------------------------------------------|


 Verse 2: (2:00)

	  Am		    Fsus4
If you're needing something I can give,
    Dsus4		 E   G
You know I help you if I can
	  Am		 Fsus4
If you're honest and you say that you did,
    Dsus4			   E   G
You know that I would give you my hand
      Am	   Fsus4
Or a sad song in a lonely place,
    Dsus4			E  G
I'll try and put a word in for you
	Am		  Fsus4
Need a shoulder? Well if that's the case,
     Dsus4			    E  G
You know there's nothing I wouldn't do


While we're livin' in this town
The sun is coming up and it's going down
But it's all just the same at the end of the day
And we cheat and we lie
Nobody says it's wrong so we don't ask why,
'Cos it's all just the same at the end of the day

Don't throw it all away
Don't throw it all away
Don't throw it all away
Don't throw it all away...


 Solo: (3:20)

 Fsus4	     C		Fsus4	    C
Eb -------------------------------------------|
Bb -----------------------------------8-------|
Gb -------5-7h5-7^9^7-7h5------5-7-7^9--9-7-5-|
Db ----5h7------------------5h7---------------|
Ab -5h7------------------5h7------------------|
Eb -------------------------------------------|

 Fsus4	     C		Fsus4	    C
Eb ---------------------------------------|
Bb -----------------------------------8b8-|
Gb -------5-7h5-7^9^7-7h5------5-7-7^9----|
Db ----5h7------------------5h7-----------|
Ab -5h7------------------5h7--------------|
Eb ---------------------------------------|


 Fsus4			C
Eb -7------7------7------7----|
Bb ---8------8------8------8--|
Gb ------5------5------5------|
Db ---------------------------| (x3)
Ab ---------------------------|
Eb ---------------------------|
 Throwing it all away

             E
at the end of the day...



 Outro: (3:51)

  Am	C   Am	      C   Am	     C	Am		Am
Eb---0-0-------------0-----------------------0---0---0---0-------0--3--3-|
Bb----1-1------1-0-1--1------1-0-1-1-3------1---1---1---1---1-0-1--1-----|
Gb-----------------------------------------------------------------------|
Db--------------------------------------------0--------------------------|
Ab-------3-3-0---------3-3-0----------3-3-0-------3---2---0--------------|
Eb-----------------------------------------------------------------------|

 [ Ends with Am7 ]
comments
print report bad tab
2 comments total.
0 reply
madferit_96 wrote on August 21 2007, 03:37 am

I believe its Am7 instead of Am in Sad Song

0 reply
dostacysmom69 wrote on April 3 2008, 04:16 pm

nice job, the effort was worth it

I want to post or [tab]
guest
You may want to rate the tab now too:
select rating
Please do not post tabs as comments. Select "correction" instead!