Oops, an error
Loading. Please wait.

Dyou Know What I Mean Tab

ver2
ver2

Whole song

Interactive

More versions @911Tabs.com
8,029 views 15 this week
1 commentread comment
1 2 3 4 5
excellent!
x 3
Autoscroll
+/-
esc
set tempo
stop
Contributor
Hey! There's an official Ultimate Guitar app which is ideal
for learning songs when you're away from computer. Get the app
WARNING: You are trying to view
                                    content from Ultimate-Guitar.com
                                    in an unauthorized application,
                                    which is prohibited.

                                    Please use an official Ultimate
                                    Guitar Tabs application for iPhone,
                                    iPad or Android to access legitimate
                                    chords, guitar, bass, and drum tabs
                                    from Ultimate-Guitar.com database.

                                    Type "ultimate guitar tabs" in Apple
                                    App Store's or Android Market's
                                    search to find the application.
#----------------------------------PLEASE NOTE---------------------------------#
#This file is the author's own work and represents their interpretation of the #
#song. You may only use this file for private study, scholarship, or research. #
#------------------------------------------------------------------------------#

D'YOU KNOW WHAT I MEAN?
As recorded by Oasis
(From the 1997 Album BE HERE NOW)

Transcribed by Gareth Simpson
	

Words and Music by Noel Gallagher

Em/G
x x x 12 12 12
	
Em7
0 2 2 0 3 0
	
G
3 2 0 0 3 3
	
Dsus2
x x 0 2 3 0

Asus4
x 0 2 2 3 0
	
Cadd9
x 3 2 0 3 0
	
Esus4
0 2 2 2 0 0
	
E
0 2 2 1 0 0

A
x 0 2 2 2 0
	
Cmaj7
x 3 2 0 0 0
	
Em
0 2 2 0 0 0

ALL GUITARS CAPO SECOND FRET!

Gtr I (E A D G B E) - 'w/ distortion and feedback'
Gtr II (E A D G B E) - 'w/ wah wah and percussive effects'
Gtr III (E A D G B E) - 'Acoustic'
Gtr IV (E A D G B E) - 'w/ chorus'
Gtr V (E A D G B E) - 'Gtr IV - pitch shifted 8va'

 Intro
  Q=82
               Em/G
 4/4
           Gtr II
  W             S  S S S S S S S S S S S S S S S
                |  | | | | | | | | | | | | | | |
                /  / / / / / / / / / / / / / / /

  Gtr I
  W            +W
|----------||------------------------------------|
|----------||o-----------------------------------|
|----------||------------------------------------|
|----------||------------------------------------|
|----------||o-----------------------------------|
|-0--------||--(0)-------------------------------|


   S  S S S S S S S S S S S S S S S
   |  | | | | | | | | | | | | | | |
   /  / / / / / / / / / / / / / / /

  +W
|------------------------------------||
|-----------------------------------o||
|------------------------------------||
|------------------------------------||
|-----------------------------------o||
|-(0)--------------------------------||


  Em7        G               Dsus2           Asus4
  Gtr III
  E E E  S S S S S S E S S    S  S S S E S S S S S S S S S S
  | | |  | | | | | | | | |    |  | | | | | | | | | | | | | |
  / / /  / / / / / / / / /    /  / / / / / / / / / / / / / /

  E E H.                     +H              E   E   E   E
|-0---0--------------------|-(0)-------------0-----------3---|
|---0-0--------------------|-(0)-----------------0-----------|
|-----0--------------------|-(0)---------------------0-------|
|-----2--------------------|-(2)-----------------------------|
|--------------------------|---------------------------------|
|--------------------------|---------------------------------|


  Em7         G
   E  E E S S S S S S E S S
   |  | | | | | | | | | | |
   /  / / / / / / / / / / /

  +W
|-(3)-------------------------|
|-----------------------------|
|-----------------------------|
|-----------------------------|
|-----------------------------|
|-----------------------------|


  Dsus2           Asus4             Em7         G
   S  S S S E S S S S S S S S S S    E  E E S S S S S S E S S
   |  | | | | | | | | | | | | | |    |  | | | | | | | | | | |
   /  / / / / / / / / / / / / / /    /  / / / / / / / / / / /

  +H              E   E   E   E     +W
|-(3)-------------3---------------|---------------------------|
|---------------------0---0-------|---------------------------|
|-----------------------------0---|-(0)-----------------------|
|---------------------------------|---------------------------|
|---------------------------------|---------------------------|
|---------------------------------|---------------------------|


  Dsus2           Asus4
   S  S S S E S S S S S S S S S S
   |  | | | | | | | | | | | | | |
   /  / / / / / / / / / / / / / /

  +W
|-----------------------------------|
|-----------------------------------|
|-(0)-------------------------------|
|-----------------------------------|
|-----------------------------------|
|-----------------------------------|


  Cadd9     Dsus2 Asus4
  E E E S S E E E E   +W
  | | | | | | | | |    |
  / / / / / / / / /    /

                         Gtr IV
  W                    W
|-------------------|-------12-12---------------||
|-------------------|-------------12-(12)-12----||
|-------------------|------------------------12-||
|-------------------|---------------------------||
|-------------------|---------------------------||
|-------------------|---------------------------||
                       H     E  S  S  +S   S  E


   Verse
    $
    Em7          G
    Gtr III
      E  E E S S S S S S E S S
      |  | | | | | | | | | | |
      /  / / / / / / / / / / /

    Gtr I
      E  E E S S S S S S E S S
||----0--0-0-0-0-3-3-3-3-3-3-3-|
||o---3--3-3-3-3-3-3-3-3-3-3-3-|
||--(12)-0-0-0-0-0-0-0-0-0-0-0-|
||----2--2-2-2-2-0-0-0-0-0-0-0-|
||o---2--2-2-2-2-2-2-2-2-2-2-2-|
||----0--0-0-0-0-3-3-3-3-3-3-3-|
     +W


  Dsus2         Asus4             Em7       G
  S S S S E S S S S S S S S S S   E E E S S S S S S E S S
  | | | | | | | | | | | | | | |   | | | | | | | | | | | |
  / / / / / / / / / / / / / / /   / / / / / / / / / / / /

  S S S S E S S S S S S S S S S   E E E S S S S S S E S S
|-0-0-0-0-0-0-0-0-0-0-0-0-0-0-0-|-0-0-0-0-0-3-3-3-3-3-3-3--|
|-3-3-3-3-3-3-3-3-3-3-3-3-3-3-3-|-3-3-3-3-3-3-3-3-3-3-3-3--|
|-2-2-2-2-2-2-2-2-2-2-2-2-2-2-2-|-0-0-0-0-0-0-0-0-0-0-0-0--|
|-0-0-0-0-0-0-0-2-2-2-2-2-2-2-2-|-2-2-2-2-2-0-0-0-0-0-0-0--|
|-0-0-0-0-0-0-0-0-0-0-0-0-0-0-0-|-2-2-2-2-2-2-2-2-2-2-2-2--|
|-------------------------------|-0-0-0-0-0-3-3-3-3-3-3-3--|


  Dsus2         Asus4
  S S S S E S S  S S  S  S   S   S  S S
  | | | | | | |  | |  |  |   |   |  | |
  / / / / / / /  / /  /  /   /   /  / /

  S S S S E S S  S S  S  S   S   S  S S
|-0-0-0-0-0-0-0--0-0--0--0---0---0--0-0-|
|-3-3-3-3-3-3-3--3-3--3--3---3---3--3-3-|
|-2-2-2-2-2-2-2--2-2--2--2---2---2--2-2-|
|-0-0-0-0-0-0-0--2-2--2--2---2---2--2-2-|
|-0-0-0-0-0-0-0--0-0--0--0---0---0--0-0-|
|---------------------------------------|
|
| Gtr IV
| H              E    S  S  +S   S  E
|---------------12---12-----------------|
|-----------------------12-(12)-12------|
|----------------------------------12---|
|---------------------------------------|
|---------------------------------------|
|---------------------------------------|


  Em7       G               Dsus2         Asus4
  E E E S S S S S S E S S   S S S S E S S S S S S S S S S
  | | | | | | | | | | | |   | | | | | | | | | | | | | | |
  / / / / / / / / / / / /   / / / / / / / / / / / / / / /

  E E E S S S S S S E S S   S S S S E S S S S S S S S S S
|-0-0-0-0-0-3-3-3-3-3-3-3-|-0-0-0-0-0-0-0-0-0-0-0-0-0-0-0---|
|-3-3-3-3-3-3-3-3-3-3-3-3-|-3-3-3-3-3-3-3-3-3-3-3-3-3-3-3---|
|-0-0-0-0-0-0-0-0-0-0-0-0-|-2-2-2-2-2-2-2-2-2-2-2-2-2-2-2---|
|-2-2-2-2-2-0-0-0-0-0-0-0-|-0-0-0-0-0-0-0-2-2-2-2-2-2-2-2---|
|-2-2-2-2-2-2-2-2-2-2-2-2-|-0-0-0-0-0-0-0-0-0-0-0-0-0-0-0---|
|-0-0-0-0-0-3-3-3-3-3-3-3-|---------------------------------|
|
| W                         W
|-------------------------|---------------------------------|
|-------------------------|---------------------------------|
|-------------------------|---------------------------------|
|-------------------------|---------------------------------|
|-------------------------|---------------------------------|
|-------------------------|---------------------------------|


                           1.
                                                           To Coda
  Em7       G               Dsus2         Asus4
  E E E S S S S S S E S S   S S S S E S S  S S  S  S   S   S  S S
  | | | | | | | | | | | |   | | | | | | |  | |  |  |   |   |  | |
  / / / / / / / / / / / /   / / / / / / /  / /  /  /   /   /  / /

  E E E S S S S S S E S S   S S S S E S S  S S  S  S   S   S  S S
|-0-0-0-0-0-3-3-3-3-3-3-3-|-0-0-0-0-0-0-0--0-0--0--0---0---0--0-0-|
|-3-3-3-3-3-3-3-3-3-3-3-3-|-3-3-3-3-3-3-3--3-3--3--3---3---3--3-3-|
|-0-0-0-0-0-0-0-0-0-0-0-0-|-2-2-2-2-2-2-2--2-2--2--2---2---2--2-2-|
|-2-2-2-2-2-0-0-0-0-0-0-0-|-0-0-0-0-0-0-0--2-2--2--2---2---2--2-2-|
|-2-2-2-2-2-2-2-2-2-2-2-2-|-0-0-0-0-0-0-0--0-0--0--0---0---0--0-0-|
|-0-0-0-0-0-3-3-3-3-3-3-3-|---------------------------------------|
|
| W                         H              E    S  S  +S   S  E
|-------------------------|---------------12---12-----------------|
|-------------------------|-----------------------12-(12)-12------|
|-------------------------|----------------------------------12---|
|-------------------------|---------------------------------------|
|-------------------------|---------------------------------------|
|-------------------------|---------------------------------------|


  Em7       G
  E E E S S S S S S E S S
  | | | | | | | | | | | |
  / / / / / / / / / / / /

  E E E S S S S S S E S S
|-0-0-0-0-0-3-3-3-3-3-3-3---|
|-3-3-3-3-3-3-3-3-3-3-3-3---|
|-0-0-0-0-0-0-0-0-0-0-0-0---|
|-2-2-2-2-2-0-0-0-0-0-0-0---|
|-2-2-2-2-2-2-2-2-2-2-2-2---|
|-0-0-0-0-0-3-3-3-3-3-3-3---|
|
| W
|---------------------------|
|---------------------------|
|---------------------------|
|---------------------------|
|---------------------------|
|---------------------------|


  Dsus2         Asus4             Em7       G
  S S S S E S S S S S S S S S S   E E E S S S S S S E S S
  | | | | | | | | | | | | | | |   | | | | | | | | | | | |
  / / / / / / / / / / / / / / /   / / / / / / / / / / / /

  S S S S E S S S S S S S S S S   E E E S S S S S S E S S
|-0-0-0-0-0-0-0-0-0-0-0-0-0-0-0-|-0-0-0-0-0-3-3-3-3-3-3-3-|
|-3-3-3-3-3-3-3-3-3-3-3-3-3-3-3-|-3-3-3-3-3-3-3-3-3-3-3-3-|
|-2-2-2-2-2-2-2-2-2-2-2-2-2-2-2-|-0-0-0-0-0-0-0-0-0-0-0-0-|
|-0-0-0-0-0-0-0-2-2-2-2-2-2-2-2-|-2-2-2-2-2-0-0-0-0-0-0-0-|
|-0-0-0-0-0-0-0-0-0-0-0-0-0-0-0-|-2-2-2-2-2-2-2-2-2-2-2-2-|
|-------------------------------|-0-0-0-0-0-3-3-3-3-3-3-3-|


  Dsus2         Asus4
  S S S S E S S S S S S S S S S
  | | | | | | | | | | | | | | |
  / / / / / / / / / / / / / / /

  S S S S E S S S S S S S S S S
|-0-0-0-0-0-0-0-0-0-0-0-0-0-0-0----||
|-3-3-3-3-3-3-3-3-3-3-3-3-3-3-3---o||
|-2-2-2-2-2-2-2-2-2-2-2-2-2-2-2----||
|-0-0-0-0-0-0-0-2-2-2-2-2-2-2-2----||
|-0-0-0-0-0-0-0-0-0-0-0-0-0-0-0---o||
|----------------------------------||


  2.
  Dsus2             Asus4
  S S S S E S S      S  S S S S S S S
  | | | | | | |      |  | | | | | | |
  / / / / / / /      /  / / / / / / /

  S S S S E S S a   +E    S S S S S S
|-0-0-0-0-0-0-0-----------------------||
|-3-3-3-3-3-3-3-----------------------||
|-2-2-2-2-2-2-2-2b4-(2)---2-0-2-0-----||
|-0-0-0-0-0-0-0-------------------2-0-||
|-0-0-0-0-0-0-0-----------------------||
|-------------------------------------||


 Pre-Chorus
  Esus4    E         Dsus2         A                 Esus4    E
  Gtrs II, IV
  E E E. S E E E E   E E E S S      E  E   S S S S   E E E. S E E E E
  | | |  | | | | |   | | | | |      |  |   | | | |   | | |  | | | | |
  / / /  / / / / /   / / / / /      /  /   / / / /   / / /  / / / / /

  Gtr I                        Gtrs I, V             Gtr I
  E E E. S E E E E   E E E S S a   +E  S S S S S S   E E E. S E E E E
|-----0--0-0-0-0-0-|-0-0-0-0-0---------------------|-----0--0-0-0-0-0-|
|-----0--0-0-0-0-0-|-3-3-3-3-3---------------------|-----0--0-0-0-0-0-|
|-----2--2-1-1-1-1-|-2-2-2-2-2-2b4-(2)-2-0-2-0-----|-----2--2-1-1-1-1-|
|-----2----2-2-2---|-0-0-0-0-0-----------------2-0-|-----2----2-2-2---|
|-----2----2-------|-0-0-0-0-0---------------------|-----2----2-------|
|-0-0-0----0-------|-------------------------------|-0-0-0----0-------|


  Dsus2         A                 Esus4    E         Dsus2     A
  E E E S S      E  E   S S S S   E E E. S E E E E   E E E S S E E   S S S S
  | | | | |      |  |   | | | |   | | |  | | | | |   | | | | | | |   | | | |
  / / / / /      /  /   / / / /   / / /  / / / / /   / / / / / / /   / / / /

            Gtrs I, V             Gtr I              Gtrs I, IV
  E E E S S a   +E  S S S S S S   E E E. S E E E E   E E E S S E S S E   E
|-0-0-0-0-0---------------------|-----0--0-0-0-0-0-|-0-0-0-0-0-0-0-0-0---0----|
|-3-3-3-3-3---------------------|-----0--0-0-0-0-0-|-3-3-3-3-3-2-2-2-2---2----|
|-2-2-2-2-2-2b4-(2)-2-0-2-0-----|-----2--2-1-1-1-1-|-2-2-2-2-2-2-2-2-2---2----|
|-0-0-0-0-0-----------------2-0-|-----2----2-2-2---|-0-0-0-0-0-2-2-2-2---2----|
|-0-0-0-0-0---------------------|-----2----2-------|-0-0-0-0-0-0-0-0-0---0----|
|-------------------------------|-0-0-0----0-------|--------------------------|


  Cmaj7      Dsus2       A
  E E E.   S E   E E E   E E E S S  E    E   S S S S
  | | |    | |   | | |   | | | | |  |    |   | | | |
  / / /    / /   / / /   / / / / /  /    /   / / / /

  E E E  S S S S E E E   E E E S S +S  S S S S S S S
|-0-0-0--0-0-2-2-2-2-2-|-0-0-0-0-0-(0)-0-0-0-0-0-0-0-||
|-0-0-0--0-0-3-3-3-3-3-|-2-2-2-2-2-(2)-2-2-2-2-2-2-2-||
|-0-0-0--0-0-2-2-2-2-2-|-2-2-2-2-2-(2)-2-2-2-2-2-2-2-||
|-2-2-2--2-2-0-0-0-0-0-|-2-2-2-2-2-(2)-2-2-2-2-2-2-2-||
|-3-3-3--3-3-----------|-0-0-0-0-0-(0)-0-0-0-0-0-0-0-||
|----------------------|-----------------------------||


 Chorus
  $$
  Em        G                 Dsus2         A
  Gtr III
  E E E S S S S S S S S S S   S S S S E S S S S S S S S S S
  | | | | | | | | | | | | |   | | | | | | | | | | | | | | |
  / / / / / / / / / / / / /   / / / / / / / / / / / / / / /

  Gtrs I, IV
  E E E S S S S S S E   S S   S S S S E S S S S S S S S E
|-0-0-0-0-0-3-3-3-3-3---3-3-|-0-0-0-0-0-0-0-0-0-0-0-0-0-0---|
|-0-0-0-0-0-3-3-3-3-3---3-3-|-3-3-3-3-3-3-3-2-2-2-2-2-2-2---|
|-0-0-0-0-0-0-0-0-0-0---0-0-|-2-2-2-2-2-2-2-2-2-2-2-2-2-2---|
|-2-2-2-2-2-0-0-0-0-0---0-0-|-0-0-0-0-0-0-0-2-2-2-2-2-2-2---|
|-2-2-2-2-2-2-2-2-2-2---2-2-|-0-0-0-0-0-0-0-0-0-0-0-0-0-0---|
|-0-0-0-0-0-3-3-3-3-3---3-3-|-------------------------------|


  Em                 G
       E  E  E  S  S  S  S  S S  S S S S
       |  |  |  |  |  |  |  | |  | | | |
       /  /  /  /  /  /  /  / /  / / / /

       Q     E.    S  S  S  E    Q
|----------------------------------------|
|----------------------------------------|
|-2b4-(2)----2-----0--2--0---------------|
|-----14----14----12-12-12--2----2-------|
|--------------------------14---14-------|
|----------------------------------------|
  a   +Q     E.    S  S  S  E    Q


      Dsus2              A
       S  S S S  E  S  S  S  S  S S  S S S S
       |  | | |  |  |  |  |  |  | |  | | | |
       /  / / /  /  /  /  /  /  / /  / / / /

       Q         E.    S  S  S  E    Q
|--------------------------------------------|
|--------------------------------------------|
|-2b4-(2)--------2-----0--2--0---------------|
|-----14--------14----12-12-12--2----2-------|
|------------------------------14---14-------|
|--------------------------------------------|
  a   +Q         E.    S  S  S  E    Q


  Em        G                 Dsus2         A
  E E E S S S S S S S S S S   S S S S E S S S S S S S S S S
  | | | | | | | | | | | | |   | | | | | | | | | | | | | | |
  / / / / / / / / / / / / /   / / / / / / / / / / / / / / /

  E E E S S S S S S E   S S   S S S S E S S S S S S S S E
|-0-0-0-0-0-3-3-3-3-3---3-3-|-0-0-0-0-0-0-0-0-0-0-0-0-0-0---|
|-0-0-0-0-0-3-3-3-3-3---3-3-|-3-3-3-3-3-3-3-2-2-2-2-2-2-2---|
|-0-0-0-0-0-0-0-0-0-0---0-0-|-2-2-2-2-2-2-2-2-2-2-2-2-2-2---|
|-2-2-2-2-2-0-0-0-0-0---0-0-|-0-0-0-0-0-0-0-2-2-2-2-2-2-2---|
|-2-2-2-2-2-2-2-2-2-2---2-2-|-0-0-0-0-0-0-0-0-0-0-0-0-0-0---|
|-0-0-0-0-0-3-3-3-3-3---3-3-|-------------------------------|


  Em                 G
       E  E  E  S  S  S  S  S S  S S S S
       |  |  |  |  |  |  |  | |  | | | |
       /  /  /  /  /  /  /  / /  / / / /

       Q     E.    S  S  S  E    Q
|----------------------------------------|
|----------------------------------------|
|-2b4-(2)----2-----0--2--0---------------|
|-----14----14----12-12-12--2----2-------|
|--------------------------14---14-------|
|----------------------------------------|
  a   +Q     E.    S  S  S  E    Q


      Dsus2              A
       S  S S S  E  S  S  S  S  S S  S S  S S
       |  | | |  |  |  |  |  |  | |  | |  | |
       /  / / /  /  /  /  /  /  / /  / /  / /

       Q         E.    S  S  S  E    E    E
|---------------------------------------------|
|---------------------------------------------|
|-2b4-(2)--------2-----0--2--0------------0---|
|-----14--------14----12-12-12--2----2---12---|
|------------------------------14---14--------|
|---------------------------------------------|
  a   +Q         E.    S  S  S  E    E    E


  Em        G                 Dsus2         A
  E E E S S S S S S S S S S   S S S S E S S S S S S S S S S
  | | | | | | | | | | | | |   | | | | | | | | | | | | | | |
  / / / / / / / / / / / / /   / / / / / / / / / / / / / / /

  E E E S S S S S S E   S S   S S S S E S S S S S S S S E
|-0-0-0-0-0-3-3-3-3-3---3-3-|-0-0-0-0-0-0-0-0-0-0-0-0-0-0---|
|-0-0-0-0-0-3-3-3-3-3---3-3-|-3-3-3-3-3-3-3-2-2-2-2-2-2-2---|
|-0-0-0-0-0-0-0-0-0-0---0-0-|-2-2-2-2-2-2-2-2-2-2-2-2-2-2---|
|-2-2-2-2-2-0-0-0-0-0---0-0-|-0-0-0-0-0-0-0-2-2-2-2-2-2-2---|
|-2-2-2-2-2-2-2-2-2-2---2-2-|-0-0-0-0-0-0-0-0-0-0-0-0-0-0---|
|-0-0-0-0-0-3-3-3-3-3---3-3-|-------------------------------|


  Em                 G
       E  E  E  S  S  S  S  S S  S S S S
       |  |  |  |  |  |  |  | |  | | | |
       /  /  /  /  /  /  /  / /  / / / /

       Q     E.    S  S  S  E    Q
|----------------------------------------|
|----------------------------------------|
|-2b4-(2)----2-----0--2--0---------------|
|-----14----14----12-12-12--2----2-------|
|--------------------------14---14-------|
|----------------------------------------|
  a   +Q     E.    S  S  S  E    Q


                                 To Dbl. Coda
      Dsus2              A
       S  S S S  E  S  S  S  S  S S  S S S S
       |  | | |  |  |  |  |  |  | |  | | | |
       /  / / /  /  /  /  /  /  / /  / / / /

       Q         E.    S  S  S  E    Q
|---------------------------------------------|
|---------------------------------------------|
|-2b4-(2)--------2-----0--2--0----------------|
|-----14--------14----12-12-12--2----2--------|
|------------------------------14---14--------|
|---------------------------------------------|
  a   +Q         E.    S  S  S  E    Q


  Em           G                     Dsus2          A
  Gtr IV
  E    E E S S  S  S S S  S  S S S   S S  S S E S S  S  S S S S   S   S S
  |    | | | |  |  | | |  |  | | |   | |  | | | | |  |  | | | |   |   | |
  /    / / / /  /  / / /  /  / / /   / /  / / / / /  /  / / / /   /   / /

  ~~~~~~~~~~~~~~~~~~~~~~~~~~~~~~~~~~~~~~~~~~~~~~~~~~~~~~
                                                              |--3--|
  S E.   E S S +E    E   +S  E   S   S E.     E S S +S  S E   S S   S E
|----------------------------------|--------------------------------------|
|----------------------------------|--------------------------------------|
|-7-9----9-9-9-(9)S==7---(7)-7---7-|-7-7------7-7-7-(7)-6-6---6h7p==6-----|
|----------------------------------|----------------------------------7---|
|----------------------------------|--------------------------------------|
|----------------------------------|--------------------------------------|


  Em           G
  E   E E  S S S S S S S S S S
  |   | |  | | | | | | | | | |
  /   / /  / / / / / / / / / /

  ~~~~~~~~~~~~~~~~~~~~~~~~~~~
  S S E E.   S E   S S S S E
|------------------------------|
|------------------------------|
|------------------------------|
|-7s9-9-9----9-7s==9s7-7p5-----|
|--------------------------7---|
|------------------------------|


                                        D.S. al Coda
  Dsus2                  A
  S S S S E   S       S   S  S S       S   S  S S S
  | | | | |   |       |   |  | |       |   |  | | |
  / / / / /   /       /   /  / /       /   /  / / /

  E   S S S S S a    +S  +S  S S a    +S  +S  S E
|----------------------------------------------------||
|----------------------------------------------------||
|----------------------------------------------------||
|---------5h7---7b8==(7)r(7)p5---7b8==(7)r(7)p5-0----||
|-7---5h7-----7----------------7---------------------||
|----------------------------------------------------||


 Pre-Chorus
  &
  Esus4    E         Dsus2         A                 Esus4    E
  Gtrs II, IV
  E E E. S E E E E   E E E S S      E  E   S S S S   E E E. S E E E E
  | | |  | | | | |   | | | | |      |  |   | | | |   | | |  | | | | |
  / / /  / / / / /   / / / / /      /  /   / / / /   / / /  / / / / /

  Gtr I                        Gtrs I, V             Gtr I
  E E E. S E E E E   E E E S S a   +E  S S S S S S   E E E. S E E E E
|-----0--0-0-0-0-0-|-0-0-0-0-0---------------------|-----0--0-0-0-0-0-|
|-----0--0-0-0-0-0-|-3-3-3-3-3---------------------|-----0--0-0-0-0-0-|
|-----2--2-1-1-1-1-|-2-2-2-2-2-2b4-(2)-2-0-2-0-----|-----2--2-1-1-1-1-|
|-----2----2-2-2---|-0-0-0-0-0-----------------2-0-|-----2----2-2-2---|
|-----2----2-------|-0-0-0-0-0---------------------|-----2----2-------|
|-0-0-0----0-------|-------------------------------|-0-0-0----0-------|


  Dsus2         A                 Esus4    E         Dsus2     A
  E E E S S      E  E   S S S S   E E E. S E E E E   E E E S S E E   S S S S
  | | | | |      |  |   | | | |   | | |  | | | | |   | | | | | | |   | | | |
  / / / / /      /  /   / / / /   / / /  / / / / /   / / / / / / /   / / / /

            Gtrs I, V             Gtr I              Gtrs I, IV
  E E E S S a   +E  S S S S S S   E E E. S E E E E   E E E S S E S S E   E
|-0-0-0-0-0---------------------|-----0--0-0-0-0-0-|-0-0-0-0-0-0-0-0-0---0----|
|-3-3-3-3-3---------------------|-----0--0-0-0-0-0-|-3-3-3-3-3-2-2-2-2---2----|
|-2-2-2-2-2-2b4-(2)-2-0-2-0-----|-----2--2-1-1-1-1-|-2-2-2-2-2-2-2-2-2---2----|
|-0-0-0-0-0-----------------2-0-|-----2----2-2-2---|-0-0-0-0-0-2-2-2-2---2----|
|-0-0-0-0-0---------------------|-----2----2-------|-0-0-0-0-0-0-0-0-0---0----|
|-------------------------------|-0-0-0----0-------|--------------------------|


  Cmaj7      Dsus2       A
  E E E.   S E   E E E   E E E S S  E    E   S S S S
  | | |    | |   | | |   | | | | |  |    |   | | | |
  / / /    / /   / / /   / / / / /  /    /   / / / /

  E E E  S S S S E E E   E E E S S +S  S S S S S S S
|-0-0-0--0-0-2-2-2-2-2-|-0-0-0-0-0-(0)-0-0-0-0-0-0-0-|
|-0-0-0--0-0-3-3-3-3-3-|-2-2-2-2-2-(2)-2-2-2-2-2-2-2-|
|-0-0-0--0-0-2-2-2-2-2-|-2-2-2-2-2-(2)-2-2-2-2-2-2-2-|
|-2-2-2--2-2-0-0-0-0-0-|-2-2-2-2-2-(2)-2-2-2-2-2-2-2-|
|-3-3-3--3-3-----------|-0-0-0-0-0-(0)-0-0-0-0-0-0-0-|
|----------------------|-----------------------------|


             D.S.S. al Dbl. Coda
  E E E   S S  E    E   S S S S
  | | |   | |  |    |   | | | |
  / / /   / /  /    /   / / / /

  E E S S S S +S  S S S S S S S
|-0-0-0-0-0-0-(0)-0-0-0-0-0-0-0--||
|-2-2-2-2-2-2-(2)-2-2-2-2-2-2-2--||
|-2-2-2-2-2-2-(2)-2-2-2-2-2-2-2--||
|-2-2-2-2-2-2-(2)-2-2-2-2-2-2-2--||
|-0-0-0-0-0-0-(0)-0-0-0-0-0-0-0--||
|--------------------------------||


 Chorus leading up to solo
  &&
  Em            G
  Gtrs II, III
   E E  E  S  S S  S  S S  S S  S S
   | |  |  |  | |  |  | |  | |  | |
   / /  /  /  / /  /  / /  / /  / /

  Gtrs I, IV
   ~~              ~~~~~~~~~~
   Q    E  S  S S  S  E    E    E
|-----------------------------------|
|-----------------------------------|
|------------14---------------------|
|-14---14-14------14-14---14---14---|
|-----------------------------------|
|-----------------------------------|


         Dsus2                            A
           S  S   S   S  E  S          S    S  S  S  S  S S S S
           |  |   |   |  |  |          |    |  |  |  |  | | | |
           /  /   /   /  /  /          /    /  /  /  /  / / / /

                         ~~~
   a      +E     +S   S  E.    a      +S   +E     S  S  Q
|---------------------------------------------------------------|
|---------------------------------------------------------------|
|-14b16==(14)r==(14)p12-------14b16==(14)r(14)---14-12----------|
|-----------------------14-----------------------------14-------|
|---------------------------------------------------------------|
|---------------------------------------------------------------|


  Em            G
   E E  E  S  S S  S  S S  S S  S S
   | |  |  |  | |  |  | |  | |  | |
   / /  /  /  / /  /  / /  / /  / /

   ~~              ~~~~~~~~~~
   Q    E  S  S S  S  E    E    E
|-----------------------------------|
|-----------------------------------|
|------------14---------------------|
|-14---14-14------14-14---14---14---|
|-----------------------------------|
|-----------------------------------|


  Dsus2                                   A
           S  S   S   S  E  S          S    S  S  S  S  S S S S
           |  |   |   |  |  |          |    |  |  |  |  | | | |
           /  /   /   /  /  /          /    /  /  /  /  / / / /

                         ~~~
   a      +E     +S   S  E.    a      +S   +E     S  S  Q
|---------------------------------------------------------------|
|---------------------------------------------------------------|
|-14b16==(14)r==(14)p12-------14b16==(14)r(14)---14-12----------|
|-----------------------14-----------------------------14-------|
|---------------------------------------------------------------|
|---------------------------------------------------------------|


  Em            G
   E E  E  S  S S  S  S S  S S  S S
   | |  |  |  | |  |  | |  | |  | |
   / /  /  /  / /  /  / /  / /  / /

   ~~              ~~~~~~~~~~
   Q    E  S  S S  S  E    E    E
|-----------------------------------|
|-----------------------------------|
|------------14---------------------|
|-14---14-14------14-14---14---14---|
|-----------------------------------|
|-----------------------------------|


  Dsus2                                   A
           S  S   S   S  E  S          S    S  S  S  S  S S S S
           |  |   |   |  |  |          |    |  |  |  |  | | | |
           /  /   /   /  /  /          /    /  /  /  /  / / / /

                         ~~~
   a      +E     +S   S  E.    a      +S   +E     S  S  Q
|---------------------------------------------------------------|
|---------------------------------------------------------------|
|-14b16==(14)r==(14)p12-------14b16==(14)r(14)---14-12----------|
|-----------------------14-----------------------------14-------|
|---------------------------------------------------------------|
|---------------------------------------------------------------|


  Cmaj7     Dsus2 Cmaj7             Dsus2 Cmaj7             Dsus2 Asus4
  Gtrs II, III
  E E E S S E E E E   +S  S E E S S E E E E   +S  S E E S S E E E E
  | | | | | | | | |    |  | | | | | | | | |    |  | | | | | | | | |
  / / / / / / / / /    /  / / / / / / / / /    /  / / / / / / / / /

  Gtr IV
  Q   E E   E E E E   +E    E Q     E E E E   +E    E Q     E E E E
|-------------------|-----------------------|---------------------0-|
|-------------------|-----------------------|---------------------3-|
|-------0-------0---|---------0---------0---|---------0---------0-2-|
|-----2-------4-----|-------2---------4-----|-------2---------4---2-|
|-3---------5-----3-|-(3)-----------5-----3-|-(3)-----------5-----0-|
|-------------------|-----------------------|-----------------------|


  +S  S E E. S +S S E S S S S    S  E. S S S S +S S S S S S S S
   |  | | |  |  | | | | | | |    |  |  | | | |  | | | | | | | |
   /  / / /  /  / / / / / / /    /  /  / / / /  / / / / / / / /

  +W                            +W
|-(0)-------------------------|-(0)-----------------------------||
|-(3)-------------------------|-(3)-----------------------------||
|-(2)-------------------------|-(2)-----------------------------||
|-(2)-------------------------|-(2)-----------------------------||
|-(0)-------------------------|-(0)-----------------------------||
|-----------------------------|---------------------------------||


 Guitar Solo
         Em                       G
  Gtrs II, III, IV
           E    E   E  S       S    S   S  S  S  E S S
           |    |   |  |       |    |   |  |  |  | | |
           /    /   /  /       /    /   /  /  /  / / /

  Gtr I
                                                 ~~
   a      +E   +E   E  S      +S   +S   S  S  S  Q
|------------------------------------------------------|
|-15b17==(15)r(15)-------------------------------------|
|------------------12-14b15==(14)r(14)-12--------------|
|-----------------------------------------14-12-14-----|
|------------------------------------------------------|
|------------------------------------------------------|


  Dsus2                   A
   S  S S  S   E      S S  S  S  S S  S S  S S
   |  | |  |   |      | |  |  |  | |  | |  | |
   /  / /  /   /      / /  /  /  / /  / /  / /

   S  e    S  +S   S  E    S  S  E    E    E
|-----------------------------------------------|
|-----------------------------------------------|
|---------12-(12)-12------------12--------12----|
|-12-14--------------14---12h14------14---------|
|-----------------------------------------------|
|-----------------------------------------------|


         Em                         G
           E    E   E         S   S  S  S  S S  E  S  S
           |    |   |         |   |  |  |  | |  |  |  |
           /    /   /         /   /  /  /  / /  /  /  /

   a      +E   +E   S  S     +S   S  S  S  E    E  S  S
|-------------------------------------------------------|
|-15b17==(15)r(15)---------------15---------------------|
|------------------12-14b16-(14)----14-12---------12-12-|
|-----------------------------------------14---14-------|
|-------------------------------------------------------|
|-------------------------------------------------------|


  Dsus2                    A
   S S  S  S   E      S  S  S  S  S  S  S  S  S S
   | |  |  |   |      |  |  |  |  |  |  |  |  | |
   / /  /  /   /      /  /  /  /  /  /  /  /  / /

   E    S  S  +S   S  S  S  S  S  S  S  S  S  E
|-------------------------------------------------|
|-12---12-12-(12)-12-12-12----12----12------------|
|-12---12-12-(12)-12-12-12-12----14----14-12------|
|--------------------------------------------14---|
|-------------------------------------------------|
|-------------------------------------------------|


         Em                        G
           E    E   E         S  S  S  S  S S  E S S
           |    |   |         |  |  |  |  | |  | | |
           /    /   /         /  /  /  /  / /  / / /

                                               ~~
   a      +E   +E   S     +E     S  S  S  E    Q
|----------------------------------------------------|
|-15b17==(15)r(15)--------------15-------------------|
|------------------14b16-(14)------14-12-------------|
|----------------------------------------14---14-----|
|----------------------------------------------------|
|----------------------------------------------------|


  Dsus2                            A
   S  S  S  S   E      S  S          S    S   S  S  S S  S S
   |  |  |  |   |      |  |          |    |   |  |  | |  | |
   /  /  /  /   /      /  /          /    /   /  /  / /  / /

   S  S  S  S  +S   S  S  S  a      +S   +S   S  S  E    E
|------------------------------------------------------------|
|------------------------------------------------------------|
|------------------------12-14b16==(14)r(14)-12----12--------|
|----------12-(12)-12-14------------------------14------14---|
|-12h13h14---------------------------------------------------|
|------------------------------------------------------------|


         Em                         G
           E    E   E         S   S  S  S  S S  E S S
           |    |   |         |   |  |  |  | |  | | |
           /    /   /         /   /  /  /  / /  / / /

   a      +E   +E   S  S     +S   S  S  S  E    E S S
|-----------------------------------------------------|
|-15b17==(15)r(15)---------------15---------------x-x-|
|------------------12-14b16-(14)----14-12---------x-x-|
|-----------------------------------------14---14-----|
|-----------------------------------------------------|
|-----------------------------------------------------|


  Dsus2                   A
   S  S  S  S  E     S  S  S  S  S S          S  S   S   S
   |  |  |  |  |     |  |  |  |  | |          |  |   |   |
   /  /  /  /  /     /  /  /  /  / /          /  /   /   /

   S  S  S  S  S  S  S  S  S  S  E    a      +E     +S   S
|----------------------------------------------------------||
|-12-12----12-12-12----12-------12-------------------------||
|-12-12----12-12-12----12-------12---14b16==(14)r==(14)p12-||
|-------14----------14----14-14----------------------------||
|----------------------------------------------------------||
|----------------------------------------------------------||


 Out-Chorus
  Em         G                 Dsus2         A
  Gtr III
   E E E S S S S S S S S S S   S S S S E S S S S S S S S S S
   | | | | | | | | | | | | |   | | | | | | | | | | | | | | |
   / / / / / / / / / / / / /   / / / / / / / / / / / / / / /

  Gtrs I, IV
   E E E S S S S S S E   S S   S S S S E S S S S S S S S E
|--0-0-0-0-0-3-3-3-3-3---3-3-|-0-0-0-0-0-0-0-0-0-0-0-0-0-0---|
|--0-0-0-0-0-3-3-3-3-3---3-3-|-3-3-3-3-3-3-3-2-2-2-2-2-2-2---|
|--0-0-0-0-0-0-0-0-0-0---0-0-|-2-2-2-2-2-2-2-2-2-2-2-2-2-2---|
|-14-2-2-2-2-0-0-0-0-0---0-0-|-0-0-0-0-0-0-0-2-2-2-2-2-2-2---|
|--2-2-2-2-2-2-2-2-2-2---2-2-|-0-0-0-0-0-0-0-0-0-0-0-0-0-0---|
|--0-0-0-0-0-3-3-3-3-3---3-3-|-------------------------------|
   W


      Em             G
       E  E  E  S  S  S  S  S S  S S S S
       |  |  |  |  |  |  |  | |  | | | |
       /  /  /  /  /  /  /  / /  / / / /

       Q     E.    S  S  S  E    Q
|----------------------------------------|
|----------------------------------------|
|-2b4-(2)----2-----0--2--0---------------|
|-----14----14----12-12-12--2----2-------|
|--------------------------14---14-------|
|----------------------------------------|
  a   +Q     E.    S  S  S  E    Q


      Dsus2              A
       S  S S S  E  S  S  S  S  S S  S S S S
       |  | | |  |  |  |  |  |  | |  | | | |
       /  / / /  /  /  /  /  /  / /  / / / /

       Q         E.    S  S  S  E    Q
|--------------------------------------------|
|--------------------------------------------|
|-2b4-(2)--------2-----0--2--0---------------|
|-----14--------14----12-12-12--2----2-------|
|------------------------------14---14-------|
|--------------------------------------------|
  a   +Q         E.    S  S  S  E    Q


  Em        G                 Dsus2         A
  E E E S S S S S S S S S S   S S S S E S S S S S S S S S S
  | | | | | | | | | | | | |   | | | | | | | | | | | | | | |
  / / / / / / / / / / / / /   / / / / / / / / / / / / / / /

  E E E S S S S S S E   S S   S S S S E S S S S S S S S E
|-0-0-0-0-0-3-3-3-3-3---3-3-|-0-0-0-0-0-0-0-0-0-0-0-0-0-0---|
|-0-0-0-0-0-3-3-3-3-3---3-3-|-3-3-3-3-3-3-3-2-2-2-2-2-2-2---|
|-0-0-0-0-0-0-0-0-0-0---0-0-|-2-2-2-2-2-2-2-2-2-2-2-2-2-2---|
|-2-2-2-2-2-0-0-0-0-0---0-0-|-0-0-0-0-0-0-0-2-2-2-2-2-2-2---|
|-2-2-2-2-2-2-2-2-2-2---2-2-|-0-0-0-0-0-0-0-0-0-0-0-0-0-0---|
|-0-0-0-0-0-3-3-3-3-3---3-3-|-------------------------------|


      Em             G
       E  E  E  S  S  S  S  S S  S S S S
       |  |  |  |  |  |  |  | |  | | | |
       /  /  /  /  /  /  /  / /  / / / /

       Q     E.    S  S  S  E    Q
|----------------------------------------|
|----------------------------------------|
|-2b4-(2)----2-----0--2--0---------------|
|-----14----14----12-12-12--2----2-------|
|--------------------------14---14-------|
|----------------------------------------|
  a   +Q     E.    S  S  S  E    Q


      Dsus2              A
       S  S S S  E  S  S  S  S  S S  S S S S
       |  | | |  |  |  |  |  |  | |  | | | |
       /  / / /  /  /  /  /  /  / /  / / / /

       Q         E.    S  S  S  E    Q
|--------------------------------------------|
|--------------------------------------------|
|-2b4-(2)--------2-----0--2--0---------------|
|-----14--------14----12-12-12--2----2-------|
|------------------------------14---14-------|
|--------------------------------------------|
  a   +Q         E.    S  S  S  E    Q


  Em        G                 Dsus2         A
  E E E S S S S S S S S S S   S S S S E S S S S S S S S S S
  | | | | | | | | | | | | |   | | | | | | | | | | | | | | |
  / / / / / / / / / / / / /   / / / / / / / / / / / / / / /

  E E E S S S S S S E   S S   S S S S E S S S S S S S S E
|-0-0-0-0-0-3-3-3-3-3---3-3-|-0-0-0-0-0-0-0-0-0-0-0-0-0-0---|
|-0-0-0-0-0-3-3-3-3-3---3-3-|-3-3-3-3-3-3-3-2-2-2-2-2-2-2---|
|-0-0-0-0-0-0-0-0-0-0---0-0-|-2-2-2-2-2-2-2-2-2-2-2-2-2-2---|
|-2-2-2-2-2-0-0-0-0-0---0-0-|-0-0-0-0-0-0-0-2-2-2-2-2-2-2---|
|-2-2-2-2-2-2-2-2-2-2---2-2-|-0-0-0-0-0-0-0-0-0-0-0-0-0-0---|
|-0-0-0-0-0-3-3-3-3-3---3-3-|-------------------------------|


      Em             G
       E  E  E  S  S  S  S  S S  S S S S
       |  |  |  |  |  |  |  | |  | | | |
       /  /  /  /  /  /  /  / /  / / / /

       Q     E.    S  S  S  E    Q
|----------------------------------------|
|----------------------------------------|
|-2b4-(2)----2-----0--2--0---------------|
|-----14----14----12-12-12--2----2-------|
|--------------------------14---14-------|
|----------------------------------------|
  a   +Q     E.    S  S  S  E    Q


      Dsus2              A
       S  S S S  E  S  S  S  S  S S  S S S S
       |  | | |  |  |  |  |  |  | |  | | | |
       /  / / /  /  /  /  /  /  / /  / / / /

       Q         E.    S  S  S  E    Q
|--------------------------------------------|
|--------------------------------------------|
|-2b4-(2)--------2-----0--2--0---------------|
|-----14--------14----12-12-12--2----2-------|
|------------------------------14---14-------|
|--------------------------------------------|
  a   +Q         E.    S  S  S  E    Q


      Em             G
       E  E  E  S  S  S  S  S S  S S S S
       |  |  |  |  |  |  |  | |  | | | |
       /  /  /  /  /  /  /  / /  / / / /

       Q     E.    S  S  S  E    Q
|----------------------------------------|
|----------------------------------------|
|-2b4-(2)----2-----0--2--0---------------|
|-----14----14----12-12-12--2----2-------|
|--------------------------14---14-------|
|----------------------------------------|
  a   +Q     E.    S  S  S  E    Q


      Dsus2              A
       S  S S S  E  S  S  S  S  S S  S S S S
       |  | | |  |  |  |  |  |  | |  | | | |
       /  / / /  /  /  /  /  /  / /  / / / /

       Q         E.    S  S  S  E    Q
|--------------------------------------------|
|--------------------------------------------|
|-2b4-(2)--------2-----0--2--0---------------|
|-----14--------14----12-12-12--2----2-------|
|------------------------------14---14-------|
|--------------------------------------------|
  a   +Q         E.    S  S  S  E    Q


      Em             G
       E  E  E  S  S  S  S  S S  S S S S
       |  |  |  |  |  |  |  | |  | | | |
       /  /  /  /  /  /  /  / /  / / / /

       Q     E.    S  S  S  E    Q
|----------------------------------------|
|----------------------------------------|
|-2b4-(2)----2-----0--2--0---------------|
|-----14----14----12-12-12--2----2-------|
|--------------------------14---14-------|
|----------------------------------------|
  a   +Q     E.    S  S  S  E    Q


      Dsus2              A
       S  S S S  E  S  S  S  S  S S  S S S S
       |  | | |  |  |  |  |  |  | |  | | | |
       /  / / /  /  /  /  /  /  / /  / / / /

       Q         E.    S  S  S  E    Q
|--------------------------------------------||
|--------------------------------------------||
|-2b4-(2)--------2-----0--2--0---------------||
|-----14--------14----12-12-12--2----2-------||
|------------------------------14---14-------||
|--------------------------------------------||
  a   +Q         E.    S  S  S  E    Q


 Outro
  Cmaj7     Dsus2 Cmaj7             Dsus2 Cmaj7
  E E E S S E E E E   +S  S E E S S E E E E
  | | | | | | | | |    |  | | | | | | | | |
  / / / / / / / / /    /  / / / / / / / / /

  Q   E E   E E E E   +E    E Q     E E E E
|-------------------|-----------------------|
|-------------------|-----------------------|
|-------0-------0---|---------0---------0---|
|-----2-------4-----|-------2---------4-----|
|-3---------5-----3-|-(3)-----------5-----3-|
|-------------------|-----------------------|


                Dsus2 Em
  +S  S E E S S E E E E   +W
   |  | | | | | | | | |    |
   /  / / / / / / / / /    /

  +E    E Q     E E E E   +W
|---------------------0-|-(0)----*|
|---------------------0-|-(0)----*|
|---------0---------0-0-|-(0)----*|
|-------2---------4---2-|-(2)----*|
|-(3)-----------5-----2-|-(2)----*|
|---------------------0-|-(0)----*|



Duration Legend
---------------
W - whole; H - half; Q - quarter; E - 8th; S - 16th; T - 32nd; X - 64th; a - acciaccatura
+ - note tied to previous; . - note dotted; .. - note double dotted
Uncapitalized letters represent notes that are staccato (1/2 duration)
Irregular groupings are notated above the duration line
Duration letters will always appear directly above the note/fret number it represents the
duration for.  Duration letters with no fret number below them represent rests.  Multi-
bar rests are notated in the form Wxn, where n is the number of bars to rest for.  Low
melody durations appear below the staff

Tablature Legend
----------------
 h   - hammer-on
 p   - pull-off
 b   - bend
 pb  - pre-bend
 r   - bend release (if no number after the r, then release immediately)
 /\  - slide into or out of (from/to "nowhere")
 s   - legato slide
 S   - shift slide
<n> - natural harmonic
[n]  - artificial harmonic
n(n) - tapped harmonic
 ~   - vibrato
 tr  - trill
 T   - tap
 TP  - trem. picking
 PM  - palm muting
\n/  - tremolo bar dip; n = amount to dip
 \n  - tremolo bar down
 n/  - tremolo bar up
/n\  - tremolo bar inverted dip
 =   - hold bend; also acts as connecting device for hammers/pulls
 <> - volume swell (louder/softer)
 x   - on rhythm slash represents muted slash
 o   - on rhythm slash represents single note slash

Misc Legend
-----------
 |  - bar
||  - double bar
||o - repeat start
o|| - repeat end
*|  - double bar (ending)
 :  - bar (freetime)
 $  - Segno
 &  - Coda
Tempo markers - <E/E./Q/Q./H/H.> = BPM(8/16=s8/s16), where s8 = swing 8ths, s16 = swing 16ths

comments
We did not receive enough feedback on this tab! Please rate:
print report bad tab
1 2 3 4 5
1 comment total.
0 reply
drpdrp97 wrote on May 6 2013, 04:24 pm

You're my hero this has to be Oasis's best song screw Wonderwall

I want to post or [tab]
guest
You may want to rate the tab now too:
select rating
Please do not post tabs as comments. Select "correction" instead!