Oops, an error
Loading. Please wait.

Fade In-out Tab

5,385 views 12 this week
1 commentread comment
1 2 3 4 5
excellent!
x 2
add to favorites launch autoscroll
font size
0
reset
Autoscroll
+/-
esc
set tempo
stop
Contributor
WARNING: You are trying to view
                                    content from Ultimate-Guitar.com
                                    in an unauthorized application,
                                    which is prohibited.

                                    Please use an official Ultimate
                                    Guitar Tabs application for iPhone,
                                    iPad or Android to access legitimate
                                    chords, guitar, bass, and drum tabs
                                    from Ultimate-Guitar.com database.

                                    Type "ultimate guitar tabs" in Apple
                                    App Store's or Android Market's
                                    search to find the application.
                                  FADE IN-OUT
                              As recorded by Oasis
                        (From the 1997 Album BE HERE NOW)

Words and Music by Noel Gallagher

         Em/D                 Dadd9                 A/D                 G6/D
      x x 0 9 8 0          x x 0 7 7 0          x x 0 6 5 0          x x 0 4 3 0

         Gm6/D                 Dm9                  G5                 F6sus2
      x x 0 3 3 0          0 x 3 2 1 0          5 x 0 0 3 3          3 x 0 0 3 3

          D5                 A7sus4                 G/B                 Csus2
      0 0 0 2 3 x          x 0 0 2 3 3          x 2 0 0 3 3          x 3 0 0 3 3

         D5/C                 D5/A                 D5/F                  A5
      x 3 0 2 3 x          x 0 0 2 3 x          3 0 0 2 3 x          x 0 2 2 x x

Gtr I (D A D G B E) - 'Noel Gallagher'
Gtr II (D A D G B E) - 'Bonehead (Acoustic)'
Gtr III (D A D G B E) - 'Bonehead (distortion)'
Gtr IV (D A D G B E) - 'Noel Gallagher (Clean)'

                  Intro
  Moderately Slow Rock Q=86
                   Em/D     Dadd9
 4/4
                   Gtr II
  W                 Q  E. S +S S E E E
                    |  |  |  | | | | |
                    /  /  /  / / / / /

  Gtr I
  H..       S S     W
|---------------||---------------------|
|-----------3-3-||---------------------|
|-----------2-2-||-!2------------------|
|-----------0-0-||-!0------------------|
|---------------||-!0------------------|
|---------------||-!0------------------|


  A/D       G6/D     Gm6/D   Em/D     Dadd9
   Q   E. S +S S E   E E      Q  E. S +S S E E E
   |   |  |  | | |   | |      |  |  |  | | | | |
   /   /  /  / / /   / /      /  /  /  / / / / /

  +H         S S S S E S S    W
|--------------------------|------------------------|
|--------------------------|------------------------|
|-(2)----------------------|-!2---------------------|
|-(0)----------------0-----|-!0---------------------|
|-(0)----------------------|-!0---------------------|
|-(0)----------0-3p0---3S2-|-!0---------------------|


  A/D        G6/D     Gm6/D
    Q   E. S +S S E   E E
    |   |  |  | | |   | |
    /   /  /  / / /   / /

   +H         S S S S E S S
|---------------------------|
|---------------------------|
|-!(2)----------------------|
|-!(0)----------------0-----|
|-!(0)----------------------|
|-!(0)----------0-3p0---3S2-|


  Em/D     Dadd9            A/D       G6/D     Gm6/D
   Q  E. S +S S E   E E      Q   E. S +S S E   E E
   |  |  |  | | |   | |      |   |  |  | | |   | |
   /  /  /  / / /   / /      /   /  /  / / /   / /

   W                        +H         H
|-------------------------|--------------------------|
|-/3----------------------|-(3)----------------------|
|-!2----------------------|-!2-----------------------|
|-!0----------------0-----|-!0-----------------0-----|
|-!0----------------------|-!0-----------------------|
|-!0----------0-3p0---3S2-|-!0-----------0-3p0---3S2-|
   H        S S S S E S S    H         S S S S E S S


  Dadd9                    G5    F6sus2D5
  Q  E. S +S S E   Q       Q  Q  E E E E
  |  |  |  | | |   |       |  |  | | | |
  /  /  /  / / /   /       /  /  / / / /

  H        S S S S E S S   H     E E E E
|------------------------|---------------|
|------------------------|---------------|
|------------------------|---------------|
|------------------0-----|---------3-2-0-|
|------------------------|---------------|
|-0----------0-3p0---3p0-|-0-----3-3-2-0-|
|                          H     E E E E
|
| W                        W
|------------------------|---------------|
|------------------------|---------------|
|------------------------|---------------|
|------------------------|---------------|
|------------------------|---------------|
|------------------------|---------------|


                     1.,2.,3.
    +W                 W
     |
     /

     W                +H     +S  S S S E S S
||------------------|-------------------------||
||o-----------------|------------------------o||
||--!2--------------|-(2)----(2)--------------||
||--!0--------------|-(0)----(0)-------0------||
||o-!0--------------|-(0)----(0)-------------o||
||--!0--------------|-(0)----(0)-0-3p0---3S2--||
|
|   Gtr III
|    Q  Q  E. S E E   +H      H
||------------------|-------------------------||
||o--3--3-----3-----|------------------------o||
||---2--------2-----|-------------------------||
||---0--------------|-------------------------||
||o--------3----0---|------------------------o||
||----------------5-|-(5)---------------------||


  4.
                     D5
  Gtrs I, III        Gtrs I, II, IV
  H    Q  S S E      Q  E. S +S  S E S S S S
|-----------------||-------------------------|
|---------x-x-----||-3--3--3-(3)-3-3-3-3-3-3-|
|---------x-x-----||-2--2--2-(2)-2-2-2-0-0-0-|
|---------x-x-----||-0--0--0-(0)-0-0-0-0-0-0-|
|-----------------||-------------------------|
|-5-----------3S2-||-------------------------|
  H    Q  S S S S


  Q  E. S +S  S E S S S S   Q  E. S +S  S E S S S S
|-------------------------|-------------------------|
|-3--3--3-(3)-3-3-3-3-3-3-|-3--3--3-(3)-3-3-3-3-3-3-|
|-2--2--2-(2)-2-2-2-0-0-0-|-2--2--2-(2)-2-2-2-0-0-0-|
|-0--0--0-(0)-0-0-0-0-0-0-|-0--0--0-(0)-0-0-0-0-0-0-|
|-------------------------|-------------------------|
|-------------------------|-------------------------|


   ~~~
   H.               Q
|-10------------------------||
|--3---3--3-(3)-3-3-3-3-3-3-||
|--2---2--2-(2)-2-2-2-0-0-0-||
|--0---0--0-(0)-0-0-0-0-0-0-||
|---------------------------||
|---------------------------||
   Q   E. S +S  S E S S S S


   Verse
    $
    D5                        A7sus4
    Gtrs II, IV
      Q   E. S +S S E E S S   Q  E. S +S S E  E  S S
      |   |  |  | | | | | |   |  |  |  | | |  |  | |
      /   /  /  / / / / / /   /  /  /  / / /  /  / /

    Gtr I
      H         H             H        Q      E  E
||--------------------------|------------------------|
||o-(12)--------------------|------------------------|
||---(7)--------------------|------------------------|
||--------------------------|----------------10S12---|
||o-------------------------|------------------------|
||--------------------------|------------------------|


  G/B        Csus2
    Q   E. S +S S E  E     S S
    |   |  |  | | |  |     | |
    /   /  /  / / /  /     / /

    ~~~~
   +H         Q      S  S  E
|-----------------------------|
|-----------------------------|
|-------------------10S12-----|
|-(12)--------------------12--|
|-----------------------------|
|-----------------------------|


  D5                                                    A7sus4
    Q   E. S +S S E   E S S   Q     E. S +S S E E S S   Q  E. S +S S E E S S
    |   |  |  | | |   | | |   |     |  |  | | | | | |   |  |  |  | | | | | |
    /   /  /  / / /   / / /   /     /  /  / / / / / /   /  /  /  / / / / / /

    ~~~~
   +Q   E. S  Q       Q       S E. +H.                  W
|---------------------------|-------------------------|----------------------|
|---------------------------|-------------------------|----------------------|
|---------------------0-----|-------------------------|----------------------|
|-(12)-----0--3-------0-----|-------------------------|----------------------|
|---------------------------|-3S5--(5)----------------|----------------------|
|---------------0-3p0---3p0-|-0-----------------------|----------------------|
    H         S S S S E S S   W


                                              To Coda
  G/B      Csus2                D5
   Q  E. S +S   S E   E   S S    Q   E. S +S S E E S S
   |  |  |  |   | |   |   | |    |   |  |  | | | | | |
   /  /  /  /   / /   /   / /    /   /  /  / / / / / /

   H       +E     S S S S E     +W
|-----------------------------|------------------------||
|-----------------------------|------------------------||
|-----------------------------|------------------------||
|-----------------------------|------------------------||
|-----------------------------|------------------------||
|-/5-------(5)\-----0-3-2-0---|-(0)--------------------||


 Chorus
  Csus2    G/B     D5                                 Csus2 G/B     D5
   Q  Q    E E E   E   +S  S  E  E. S  S  S E E S S   Q  Q  E E E   E
   |  |    | | |   |    |  |  |  |  |  |  | | | | |   |  |  | | |   |
   /  /    / / /   /    /  /  /  /  /  /  / / / / /   /  /  / / /   /

                                 ~~~
   H     a Q   S S E   +E     E  Q    +Q.       E     H     Q   S S E
|--------------------|------------------------------|------------------|
|--------------------|------------------------------|------------------|
|--------------------|-----------7----(7)-----------|------------------|
|--------------------|-------/7-(7)---(7)-----------|------------------|
|--------------------|------------------------------|------------------|
|-/5-----5s7---3S2-0-|-(0)----------------------3s==|=5-----7---3S2-0--|


                              Csus2 G/B     D5
  +S   S E E. S S S E E S S   Q  Q  E E E   E   +S  S E E. S S S E E S S
   |   | | |  | | | | | | |   |  |  | | |   |    |  | | |  | | | | | | |
   /   / / /  / / / / / / /   /  /  / / /   /    /  / / /  / / / / / / /

  +H..                  E     H     Q   S S E   +W
|---------------------------|-----------------|--------------------------|
|---------------------------|-----------------|--------------------------|
|---------------------------|-----------------|--------------------------|
|---------------------------|-----------------|--------------------------|
|---------------------------|-----------------|--------------------------|
|-(0)-------------------3s==|=5-----7---3S2-0-|-(0)----------------------|


  F6sus2              G5                  D5
   Q  E. S S S E Q     Q  E. S  S S E  E  E
   |  |  | | | | |     |  |  |  | | |  |  |
   /  /  / / / / /     /  /  /  / / /  /  /

   W                   H        Q     +E  E
|-------------------|-----------------------|
|-------------------|-----------------------|
|-------------------|-----------------------|
|-------------------|-----------------------|
|-------------------|-----------------------|
|-/3----------------|-/7-------/7-----(7)-0-|


          D5/D5/D5/F
  +Q   Q  Q  E  E   +W
   |   |  |  |  |    |
   /   /  /  /  /    /

  +W                 H    S S S S E S S
|-----------------|---------------------|
|-----------------|---------------------|
|-----------------|---------------------|
|-----------------|---------------0-----|
|-----------------|---------------------|
|-(0)-------------|---------0-3p0---3p0-|


  D5      D5/D5/D5/F
   Q   Q  Q  E  E   +W
   |   |  |  |  |    |
   /   /  /  /  /    /

  +W                +H     +E. S S S E
|-----------------|---------------------||
|-----------------|------------x-x-x---o||
|-----------------|------------x-x-x----||
|-----------------|------------x-x-x----||
|-----------------|--------------------o||
|-(0)-------------|-(0)----(0)----------||


  D5    D5/D5D5/F                        D5      D5/D5D5/F
  Q  Q  Q  E E     +W                     Q   Q  Q  E E
  |  |  |  | |      |                     |   |  |  | |
  /  /  /  / /      /                     /   /  /  / /

  W                 H    S S S S E S S   +W              4x
|--------------||----------------------|-----------------||
|--------------||o---------------------|----------------o||
|--------------||----------------------|-----------------||
|--------------||----------------0-----|-----------------||
|--------------||o---------------------|----------------o||
|-0------------||----------0-3p0---3p0-|-(0)-------------||


 Guitar Solo
  D5
   Q      E.   S  S  S E E E   Q      E.   S  S  S E  E    E
   |      |    |  |  | | | |   |      |    |  |  | |  |    |
   /      /    /  /  / / / /   /      /    /  /  / /  /    /

   H.                    Q     E   E +Q       Q       S S  E
|-10-------------------------|-----8-(8)---------------------|
|----------------------------|-----------------------10s9-10-|
|----------------------------|-------------------------------|
|----------------------------|-------------------------------|
|----------------------------|-------------------------------|
|----------------------------|-------------------------------|
|
| Gtr III
|  S  S E E  S S +S  S E E E   S S E  E  S S +S  S E  Q
|----------------------------|-------------------------------|
|----------------------------|-------------------------------|
|----------------------------|-------------------------------|
|-------0-3--0-------0-0-3-0-|-----0--3--0-------0-2--0------|
|--3--3--------3-(3)---------|-3-3---------3-(3)-------------|
|----------------------------|-------------------------------|


    Q      E.   S  S  S E E  E       Q      E.       S   S  S E E  E
    |      |    |  |  | | |  |       |      |        |   |  | | |  |
    /      /    /  /  / / /  /       /      /        /   /  / / /  /

   +H              Q      E  S  S    Q      S   S  E    +Q      E  E
|---------------------------------|-------------------------------10-|
|-(10)----------------------------|----------------------------------|
|---------------------------10s12-|-12-------------------------------|
|---------------------------------|-12-----10-----12---(12)----------|
|---------------------------------|------------12--------------------|
|---------------------------------|----------------------------------|
|
|   S  S E E  S S +S  S E E  E       S S E  E      S S  +S  S E Q
|---------------------------------|----------------------------------|
|---------------------------------|----------------------------------|
|---------------------------------|----------------------------------|
|--------0-3--0-------0-0-3--0----|------0--3------0--------0-2-0----|
|---3--3--------3-(3)-------------|--3-3-------------3--(3)----------|
|---------------------------------|----------------------------------|


  A7sus4                       G/B             Csus2
    Q     E.   S  S  S E E E   Q        E.   S   S  S E   E  E
    |     |    |  |  | | | |   |        |    |   |  | |   |  |
    /     /    /  /  / / / /   /        /    /   /  / /   /  /

    H             H            E     Q.          Q        E  E
|-/10------------13----------|-----/13---------/13------/13-13-|
|----------------------------|---------------------------------|
|----------------------------|---------------------------------|
|----------------------------|---------------------------------|
|----------------------------|---------------------------------|
|----------------------------|---------------------------------|
|
|   S S E E  S S +S  S E E E   S S   E  E  S S  +S  S E   Q
|----------------------------|---------------------------------|
|----------------------------|---------------------------------|
|----------------------------|---------------------------------|
|-------0-3--0-------0-0-3-0-|-------0--3--0--------0-2---0----|
|---3-3--------3-(3)---------|-3-3-----------3--(3)------------|
|----------------------------|---------------------------------|


  D5
    Q      E.   S  S  S E  E      E   Q      E.    S  S  S E    E     E
    |      |    |  |  | |  |      |   |      |     |  |  | |    |     |
    /      /    /  /  / /  /      /   /      /     /  /  / /    /     /

   +Q      E  E    E    E +S   E.     E   E +Q        S  S S  S S  S  S  S
|-(13)-----8s10---------8-(8)-10----|-----8-(8)\------8s=7s8------------------|
|-----------------------------------|------------------------10s9s10----------|
|-----------------------------------|--------------------------------10s12----|
|-----------------------------------|--------------------------------10s12----|
|-----------------------------------|-----------------------------------------|
|-----------------------------------|-----------------------------------------|
|
|   S  S E E  S S +S  S E  E      E   S S E  E   S S +S  S E    Q
|-----------------------------------|-----------------------------------------|
|-----------------------------------|-----------------------------------------|
|-----------------------------------|-----------------------------------------|
|--------0-3--0-------0-0--3------0-|-----0--3---0-------0-2----0-------------|
|---3--3--------3-(3)---------------|-3-3----------3-(3)----------------------|
|-----------------------------------|-----------------------------------------|


    Q       E.   S   S  S E  E     E     Q       E.     S  S   S E   E   E
    |       |    |   |  | |  |     |     |       |      |  |   | |   |   |
    /       /    /   /  / /  /     /     /       /      /  /   / /   /   /

                                   ~~~~~~~~~
    Q       E  E    +Q       S  S  E    +Q       S S  S S +E     E   E   E
|------------------------------------|-------------------------------------|
|--12--------------------------------|-----------------------------/10-/10-|
|-(12)----------------------10s12----|-----------------------------/10-/10-|
|-(12)-----10S12---(12)-----------12-|-(12)-----10s9s10--------------------|
|------------------------------------|------------------8-(8)\-------------|
|------------------------------------|-------------------------------------|
|
|   S  S E  E  S S  +S  S E  E     E     S  S E  E    S S +S   S E   Q
|------------------------------------|-------------------------------------|
|------------------------------------|-------------------------------------|
|------------------------------------|-------------------------------------|
|--------0--3--0--------0-0--3-----0-|--------0--3----0--------0-2---0-----|
|---3--3---------3--(3)--------------|---3--3-----------3-(3)--------------|
|------------------------------------|-------------------------------------|


  Q      E.   S  S  S E   E E   Q     E.   S  S  S E E E
  |      |    |  |  | |   | |   |     |    |  |  | | | |
  /      /    /  /  / /   / /   /     /    /  /  / / / /

                                ~
  E   E  E.   S +S  S S S E E   H            +E    E E E
|-----------------------------|--------------------------|
|-----------------------------|--------------------------|
|-----------------------------|--------------------------|
|-------/5----0-(0)-3s2s0-3-0S|=7------------(7)-----3-0-|
|-3---5-----------------------|--------------------------|
|-----------------------------|--------------------------|
|
| S S E  E  S S +S  S E   E E   S S E E  S S +S  S E Q
|-----------------------------|--------------------------|
|-----------------------------|--------------------------|
|-----------------------------|--------------------------|
|-----0--3--0-------0-0---3-0-|-----0-3--0-------0-2-0---|
|-3-3---------3-(3)-----------|-3-3--------3-(3)---------|
|-----------------------------|--------------------------|


  A7sus4                            G/B            Csus2
   Q          E.   S  S  S E  E E    Q     E.    S  S  S  E  E  E
   |          |    |  |  | |  | |    |     |     |  |  |  |  |  |
   /          /    /  /  / /  / /    /     /     /  /  /  /  /  /

  +E.      S +H               Q      Q.        e    E     E  E  E
|---------------------------------|-------------------------------|
|---------------------------------|-------------------------------|
|---------/9-(9)S============10---|-10s=======12---10/------------|
|-(0)-----------------------------|----------------------12-10-12-|
|---------------------------------|-------------------------------|
|---------------------------------|-------------------------------|
|
|  S  S E     E  S S +S  S E  E E    S S E E   S S +S  S  E  Q
|---------------------------------|-------------------------------|
|---------------------------------|-------------------------------|
|---------------------------------|-------------------------------|
|-------0-----3--0-------0-0--3-0-|------0-3---0-------0--2--0----|
|--3--3------------3-(3)----------|--3-3---------3-(3)------------|
|---------------------------------|-------------------------------|


  D5
    Q      E.   S   S   S   E     E E        Q         E.   S  S  S E E E
    |      |    |   |   |   |     | |        |         |    |  |  | | | |
    /      /    /   /   /   /     / /        /         /    /  /  / / / /

                                                   ~~~~~~~
   +H              +S   S   S  S  E.   S    +E     E  +H.
|----------------------------------------|--------------------------------||
|----------------------------------------|--------------------------------||
|----------------------------------------|--------10-(10)-----------------||
|-(12)------------(12)-12\-10----10s==12-|-(12)---------------------------||
|-----------------------------12---------|--------------------------------||
|----------------------------------------|--------------------------------||
|
|   S  S E E  S S  +S   S   E     E E        S  S  E   E  S S +S  S E Q
|----------------------------------------|--------------------------------||
|----------------------------------------|--------------------------------||
|----------------------------------------|--------------------------------||
|--------0-3--0---------0---0-----3-0----|---------0---3--0-------0-2-0---||
|---3--3--------3--(3)-------------------|---3--3-----------3-(3)---------||
|----------------------------------------|--------------------------------||


 Chorus
  Csus2    G/B     D5                                 Csus2 G/B     D5
  Gtrs II, III, IV
   Q  Q    E E E   E   +S  S  E  E. S  S  S E E S S   Q  Q  E E E   E
   |  |    | | |   |    |  |  |  |  |  |  | | | | |   |  |  | | |   |
   /  /    / / /   /    /  /  /  /  /  /  / / / / /   /  /  / / /   /

  Gtr I
                                 ~~~
   H     a Q   S S E   +E     E  Q    +Q.       E     H     Q   S S E
|--------------------|------------------------------|------------------|
|--------------------|------------------------------|------------------|
|--------------------|-----------7----(7)-----------|------------------|
|--------------------|-------/7-(7)---(7)-----------|------------------|
|--------------------|------------------------------|------------------|
|-/5-----5s7---3S2-0-|-(0)----------------------3s==|=5-----7---3S2-0--|


                              Csus2 G/B     D5
  +S   S E E. S S S E E S S   Q  Q  E E E   E   +S  S E E. S S S E E S S
   |   | | |  | | | | | | |   |  |  | | |   |    |  | | |  | | | | | | |
   /   / / /  / / / / / / /   /  /  / / /   /    /  / / /  / / / / / / /

  +H..                  E     H     Q   S S E   +W
|---------------------------|-----------------|--------------------------|
|---------------------------|-----------------|--------------------------|
|---------------------------|-----------------|--------------------------|
|---------------------------|-----------------|--------------------------|
|---------------------------|-----------------|--------------------------|
|-(0)-------------------3s==|=5-----7---3S2-0-|-(0)----------------------|


  F6sus2              G5
   Q  E. S S S E Q     Q  E. S  S S E  Q
   |  |  | | | | |     |  |  |  | | |  |
   /  /  / / / / /     /  /  /  / / /  /

   W                   H        Q     +E   E
|-------------------|---------------------------|
|-------------------|---------------------------|
|-------------------|---------------------12b14-|
|-------------------|---------------------------|
|-------------------|---------------------------|
|-/3----------------|-/7-------/7-----(7)--0----|


  D5
    S     S  E E. S S S E E    S  S        S  S  E E. S S S E E    S  S
    |     |  | |  | | | | |    |  |        |  |  | |  | | | | |    |  |
    /     /  / /  / / / / /    /  /        /  /  / /  / / / / /    /  /

   +E        E H          S  E    S       +E     E H          S  E    S
|--------------------------------------|-----------------------------------|
|-----------13-------------------------|--------13-------------------------|
|-(12)b14-------------------12---12b14-|-(12)-------------------12---12b14-|
|--------------------------------------|-----------------------------------|
|--------------------------------------|-----------------------------------|
|--------------------------------------|-----------------------------------|


                                                              D.S. al Coda
    S  S  E E. S S S E E    S  S        S  S  E E. S S S  E     E     S S
    |  |  | |  | | | | |    |  |        |  |  | |  | | |  |     |     | |
    /  /  / /  / / / / /    /  /        /  /  / /  / / /  /     /     / /

   +E     E H          S  E    S       +E     E Q    E    S  S  S  S  E
|-----------------------------------|---------------------------------------||
|--------13-------------------------|--------13-----------------------------||
|-(12)-------------------12---12b14-|-(12)---------------------------10-----||
|-----------------------------------|--------------------------10h12--------||
|-----------------------------------|--------------------10h12--------------||
|-----------------------------------|---------------------------------------||


   Coda
    &
    Csus2    G/B     D5
    Q   Q     E E  E  E    +S  S E   E. S S S E E S S
    |   |     | |  |  |     |  | |   |  | | | | | | |
    /   /     / /  /  /     /  / /   /  / / / / / / /

    Q   E  E  Q    E  E    +Q        H          Q      7x
||----------------------|-----------10-----------------||
||o---------------------|-----------------------------o||
||-----12s14-14s==12S10-|-(10)-----(10)----------------||
||----------------------|------------------------------||
||o---------------------|-----------------------------o||
||----------------------|------------------------------||


  G5
  +S    S   E   E. S S S E E S S   +S  S E E. S S S E E S S
   |    |   |   |  | | | | | | |    |  | | |  | | | | | | |
   /    /   /   /  / / / / / / /    /  / / /  / / / / / / /

   E       +E   Q    Q     E E     +W
|--------------------------------|--------------------------|
|--------------13----------------|--------------------------|
|-12b14---(12)-------------------|--------------------------|
|----------------------------7---|-(7)----------------------|
|--------------------------------|--------------------------|
|--------------------------------|--------------------------|


        A5
  +S    S   E   E. S S S E E S S   +S S E E. S  S S  E E  S S
   |    |   |   |  | | | | | | |    | | | |  |  | |  | |  | |
   /    /   /   /  / / / / / / /    / / / /  /  / /  / /  / /

   E       +E   Q    H              H           E    Q    E
|--------------------------------|----------------------------|
|--------------13----------------|----------------------------|
|-12b14---(12)-------------------|-------------14s==12---10---|
|--------------------------------|----------------------------|
|--------------------------------|----------------------------|
|--------------------------------|----------------------------|


  D5
    S  S E   E. S S S E  E S S   +S  S E E. S S S E E   S S
    |  | |   |  | | | |  | | |    |  | | |  | | | | |   | |
    /  / /   /  / / / /  / / /    /  / / /  / / / / /   / /

   +Q        H           E E      H.                S S E
|-----------10-----------------|----------------------------|
|------------------------------|----------------------------|
|-(10)-----(10)---------10S9---|--9-----------------9s7-7---|
|------------------------------|----------------------------|
|------------------------------|----------------------------|
|------------------------------|----------------------------|


  W                 +W
  |                  |
  /                  /

  Q  E S E. E E E    Q  E S E. E E E
|--------0--------|---------0----------|
|------3----3---3-|-------3----3---3---|
|----2--------2---|-----2--------2-----|
|-0---------------|--0-----------------|
|-----------------|--------------------|
|-----------------|--------------------|


  +W                 +W                 +W                 +W
   |                  |                  |                  |
   /                  /                  /                  /

   Q  E S E. E E E    Q  E S E. E E E    Q  E S E. E E E    Q  E S E. E E E
|---------0--------|---------0--------|---------0--------|---------0--------|
|-------3----3---3-|-------3----3---3-|-------3----3---3-|-------3----3---3-|
|-----2--------2---|-----2--------2---|-----2--------2---|-----2--------2---|
|--0---------------|--0---------------|--0---------------|--0---------------|
|------------------|------------------|------------------|------------------|
|------------------|------------------|------------------|------------------|


  +W                 +W                 +W          +W
   |                  |                  |           |
   /                  /                  /           /

   Q  E S E. E E E    Q  E S E. E E E    W          +W
|---------0--------|---------0--------|-----------|--------|
|-------3----3---3-|-------3----3---3-|-----------|--------|
|-----2--------2---|-----2--------2---|-----------|--------|
|--0---------------|--0---------------|-----------|--------|
|------------------|------------------|--5--------|-(5)----|
|------------------|------------------|-----------|--------|


                            N.C.(D5)
  +W           +W           W
   |            |
   /            /

  +W           +W           E S S S S S S +Q   Q
|------------|------------|-----------------------*|
|------------|------------|-----------------------*|
|------------|------------|-----------------------*|
|------------|------------|-----------------------*|
|-(5)--------|-(5)--------|---3-2-0---------------*|
|------------|------------|---------3-0-0-(0)-----*|


Duration Legend
---------------
W - whole; H - half; Q - quarter; E - 8th; S - 16th; T - 32nd; X - 64th; a - acciaccatura
+ - note tied to previous; . - note dotted; .. - note double dotted
Uncapitalized letters represent notes that are staccato (1/2 duration)
Irregular groupings are notated above the duration line
Duration letters will always appear directly above the note/fret number it represents the
duration for.  Duration letters with no fret number below them represent rests.  Multi-
bar rests are notated in the form Wxn, where n is the number of bars to rest for.  Low
melody durations appear below the staff

Tablature Legend
----------------
 h   - hammer-on
 p   - pull-off
 b   - bend
 pb  - pre-bend
 r   - bend release (if no number after the r, then release immediately)
 /\  - slide into or out of (from/to "nowhere")
 s   - legato slide
 S   - shift slide
<n>  - natural harmonic
[n]  - artificial harmonic
n(n) - tapped harmonic
 ~   - vibrato
 tr  - trill
 T   - tap
 TP  - trem. picking
 PM  - palm muting
\n/  - tremolo bar dip; n = amount to dip
 \n  - tremolo bar down
 n/  - tremolo bar up
/n\  - tremolo bar inverted dip
 =   - hold bend; also acts as connecting device for hammers/pulls
 <>  - volume swell (louder/softer)
 x   - on rhythm slash represents muted slash
 o   - on rhythm slash represents single note slash

Misc Legend
-----------
 |  - bar
||  - double bar
||o - repeat start
o|| - repeat end
*|  - double bar (ending)
 :  - bar (freetime)
 $  - Segno
 &  - Coda
Tempo markers - <E/E./Q/Q./H/H.> = BPM(8/16=s8/s16), where s8 = swing 8ths, s16 = swing 16ths
comments
We did not receive enough feedback on this tab! Please rate:
print report bad tab
1 2 3 4 5
1 comment total.
0 reply
RyanMcCartney wrote on August 1 2007, 09:44 am

I think you'll find Johnny Depp played the slide intro to this,... it was because Noel was too drunk to play it properly and kept fecking it up!

I want to post or [tab]
guest
You may want to rate the tab now too:
select rating
Please do not post tabs as comments. Select "correction" instead!