Oops, an error
Loading. Please wait.

Fucking In The Bushes Tab

ver2
ver2

Whole song

More versions @911Tabs.com
30,857 views 27 this week
2 commentsread comments
1 2 3 4 5
accurate
x 3
Autoscroll
+/-
esc
set tempo
stop
Contributor
Difficulty
advanced
Hey! There's an official Ultimate Guitar app which is ideal
for learning songs when you're away from computer. Get the app
WARNING: You are trying to view
                                    content from Ultimate-Guitar.com
                                    in an unauthorized application,
                                    which is prohibited.

                                    Please use an official Ultimate
                                    Guitar Tabs application for iPhone,
                                    iPad or Android to access legitimate
                                    chords, guitar, bass, and drum tabs
                                    from Ultimate-Guitar.com database.

                                    Type "ultimate guitar tabs" in Apple
                                    App Store's or Android Market's
                                    search to find the application.
                         FUCKIN' IN THE BUSHES
                              As recorded by oasis
              (From the 2000 Album STANDING ON SHOULDERS OF GIANTS)

Words and Music by noel gallagher
Transcribed by jon symons

          A5                  A5/G                 A5/F#                A5/F
      x 0 2 2 3 x          3 0 2 0 2 3          2 0 2 2 x 2          1 0 2 2 1 1

Gtr I (E A D G B E) - 'gtr1'
Gtr II (E A D G B E) - 'gtr2'
Gtr III (E A D G B E) - 'gtr3'
Gtr IV (E A D G B E) - 'gtr4'
Gtr V (E A D G B E) - 'organ'
Gtr VI (E A D G B E) - 'vocals (synth)'

 Intro
  Q=100
                 N.C.
 4/4
  Gtr I
  Wx9            E  E  S S S S +S  S S S Q    E  S S S S S S +S  S S S Q
|------------||-----------------------------|-----------------------------|
|------------||o----------------------------|-----------------------------|
|------------||-----------------------------|-----------------------------|
|------------||--------------2-(2)---0---2--|--------------2-(2)---0---2--|
|------------||o-------------------2---2----|--------------------2---2----|
|------------||--0--0--3p0-0----------------|-0--0-0-3p0-0----------------|


  E  E  S S S S +S  S S S Q    E  E  S S S S +S  S S S Q   3x
|----------------------------|-----------------------------||
|----------------------------|----------------------------o||
|----------------------------|-----------------------------||
|-------------2-(2)---0---2--|-------------2-(2)---0---2---||
|-------------------2---2----|-------------------2---2----o||
|-0--0--3p0-0----------------|-0--0--3p0-0-----------------||


    (Em)                       (F#m/E)   (F/E)
    Gtr V
    W                          H         H
||--3------------------------|-5---------5--------------|
||o-5------------------------|-7---------6--------------|
||--4------------------------|-6---------5--------------|
||---------------------------|--------------------------|
||o--------------------------|--------------------------|
||---------------------------|--------------------------|
|
|   Gtr I
|   E E S S S S +S  S S S Q    E E S S S S +S  S S S Q
||---------------------------|--------------------------|
||o--------------------------|--------------------------|
||---------------------------|--------------------------|
||------------2-(2)---0---2--|-----------2-(2)---0---2--|
||o-----------------2---2----|-----------------2---2----|
||--0-0-3p0-0----------------|-0-0-3p0-0----------------|


 1.,2.,3.
  N.C.(Em)
  Gtr II
    H              +H
|-<12>-----------(<12>)----------|
|--------------------------------|
|--------------------------------|
|--------------------------------|
|--------------------------------|
|--------------------------------|
|
|   E  E S S S S   +S   S S S Q
|--------------------------------|
|--------------------------------|
|--------------------------------|
|--------------2---(2)----0---2--|
|-----------------------2---2----|
|---0--0-3p0-0-------------------|


                                   4.
                                    N.C.(Em)
                                Gtr III
                                    <
    +W                           4x H.                     a    +E  +S  S
|-(<12>)-------------------------||---------------------------------------|
|-------------------------------o||---------------------------------------|
|--------------------------------||-2----------------------2b4==(2)r(2)p0-|
|--------------------------------||---------------------------------------|
|-------------------------------o||---------------------------------------|
|--------------------------------||---------------------------------------|
|
|    E   E S S S S +S  S S S Q   4x E  E S S S S +S  S S S       Q
|--------------------------------||---------------------------------------|
|-------------------------------o||---------------------------------------|
|--------------------------------||---------------------------------------|
|----------------2-(2)---0---2---||------------2-(2)---0---------2--------|
|----------------------2---2----o||------------------2---2----------------|
|----0---0-3p0-0-----------------||-0--0-3p0-0----------------------------|


  E S S S S S S  S  S S S a    +E  +S  S
|-----------------------------------------|
|-----------------------------------------|
|-------------------------2b4==(2)r(2)p0--|
|-2-2-2-2-2-0-2-----2---2-----------------|
|-----------------------------------------|
|-----------------------------------------|
|
| E E   S S S S +S  S S S       Q
|-----------------------------------------|
|-----------------------------------------|
|-----------------------------------------|
|-------------2-(2)---0---------2---------|
|-------------------2---2-----------------|
|-0-0---3p0-0-----------------------------|


                ~~~~
  S    +E.     +Q          H
|--------------------------------------------------|
|--------------------------------------------------|
|-7b9==(7)-----(7)r-----------------2b4==(2)r(2)p0-|
|-2--------2-2--2---2-0-2-----2---2----------------|
|--------------------------------------------------|
|--------------------------------------------------|
| E        S S  S   S S S  S  S S S a    +E  +S  S
|
| E        E    S   S S S +S  S S S       Q
|--------------------------------------------------|
|--------------------------------------------------|
|--------------------------------------------------|
|-----------------------2-(2)---0---------2--------|
|-----------------------------2---2----------------|
|-0--------0----3p==0-0----------------------------|


                      W
|----------------------------------------||
|----------------------------------------||
|-------------------------2b4==(2)r(2)p0-||
|-2-2-2-2-2-0-2-----2---2----------------||
|----------------------------------------||
|----------------------------------------||
| E S S S S S S  S  S S S a    +E  +S  S
|
| E E   S S S S +S  S S S       Q
|----------------------------------------||
|----------------------------------------||
|----------------------------------------||
|-------------2-(2)---0---------2--------||
|-------------------2---2----------------||
|-0-0---3p0-0----------------------------||


  A5
  Gtr VI
  W
  |
  /

              ~~~~
  S    +E.   +Q          S  S S S S S S S
|------------------------5----------------|
|---------------------------8p5-----------|
|-7b9==(7)---(7)r---------------8s7-5-----|
|-------------------------------------7-5-|
|-----------------------------------------|
|-----------------------------------------|
|
| Gtr II
| E        E  S   S S S +S  S S S Q
|-----------------------------------------|
|-----------------------------------------|
|-----------------------------------------|
|---------------------2-(2)---0---2-------|
|---------------------------2---2---------|
|-0--------0--3p==0-0---------------------|


  A5/G                                      A5/F#
  W                                         W
  |                                         |
  /                                         /

              ~~~~                                      ~~~~
  S    +E.   +Q          S  S S S S S S S   S    +E.   +Q          S  S S S S S S S
|------------------------5----------------|------------------------5----------------|
|---------------------------8p5-----------|---------------------------8p5-----------|
|-7b9==(7)---(7)r---------------8s7-5-----|-7b9==(7)---(7)r---------------8s7-5-4---|
|-------------------------------------7-5-|---------------------------------------7-|
|-----------------------------------------|-----------------------------------------|
|-----------------------------------------|-----------------------------------------|
|
| E        E  S   S S S +S  S S S Q         E        E  S   S S S +S  S S S Q
|-----------------------------------------|-----------------------------------------|
|-----------------------------------------|-----------------------------------------|
|-----------------------------------------|-----------------------------------------|
|---------------------2-(2)---0---2-------|---------------------2-(2)---0---2-------|
|---------------------------2---2---------|---------------------------2---2---------|
|-0--------0--3p==0-0---------------------|-0--------0--3p==0-0---------------------|


  A5/F
  W
  |
  /

              ~~~~
  S    +E.   +Q          S  S S S S S S S
|------------------------5----------------|
|---------------------------8p5-----------|
|-7b9==(7)---(7)r---------------8s7-5-4---|
|---------------------------------------7-|
|-----------------------------------------|
|-----------------------------------------|
|
| E        E  S   S S S +S  S S S Q
|-----------------------------------------|
|-----------------------------------------|
|-----------------------------------------|
|---------------------2-(2)---0---2-------|
|---------------------------2---2---------|
|-0--------0--3p==0-0---------------------|


  A5                                           A5/G
  W                                            W
  |                                            |
  /                                            /

              ~~~~                    ~~~~
  S    +E.   +E   E +E      S    +S  +Q        S S S     +S  +Q          Q    E     E
|--------------------------------------------|-5---8b10==(8)-(8)---------8r---8b8.5-5-|
|-----------------8-(8)----------------------|---8------------------------------------|
|-7b9==(7)---(7)r-----------7b9==(7)-(7)r----|----------------------------------------|
|--------------------------------------------|----------------------------------------|
|--------------------------------------------|----------------------------------------|
|--------------------------------------------|----------------------------------------|
|
| E     E  S  S   S  S  +S  S     S   S   Q    E E S      S   S  S +S  S S  S Q
|--------------------------------------------|----------------------------------------|
|--------------------------------------------|----------------------------------------|
|--------------------------------------------|----------------------------------------|
|--------------------2--(2)-------0-------2--|-------------------2-(2)---0----2-------|
|---------------------------2---------2------|-------------------------2----2---------|
|-0-----0--3p=0---0--------------------------|-0-0-3p=====0---0-----------------------|


  A5/F#                           A5/F
  W                               W
  |                               |
  /                               /

          ~~~
  E E    +Q  S S S  S  S S S S      E.     H        E  a    +S    +S  S
|-8----------5------------------|---------------------------------------||
|---8b10-(8)---8p5-----5h8-8p5--|---------------------------------------||
|-------------------8-----------|-8s7--5---7-5---------2b4==(2)r==(2)p0-||
|-------------------------------|--------7------7--(7)-------7--5-------||
|-------------------------------|----------------------------------7--5-||
|-------------------------------|---------------------------------------||
|                                 S S  S S S S  E  +Q        S  S  S  S
|
| E E     S  S S S +S  S S S Q    E E  S S S S +S   S  S     S  Q
|-------------------------------|---------------------------------------||
|-------------------------------|---------------------------------------||
|-------------------------------|---------------------------------------||
|----------------2-(2)---0---2--|------------2-(2)-----0--------2-------||
|----------------------2---2----|-------------------2--------2----------||
|-0-0-----3p=0-0----------------|-0-0--3p0-0----------------------------||


                 W
      Q E S S S  S  S S a    +E  +S  S
|--------------------------------------|
|--------------------------------------|
|-----------------------2b4==(2)r(2)p0-|
|-----2-2-0-2----2----2----------------|
|-(7)----------------------------------|
|--------------------------------------|
|  W
|
|  E  E S S S S +S  S S S         Q
|--------------------------------------|
|--------------------------------------|
|--------------------------------------|
|-------------2-(2)---0-----------2----|
|-------------------2---2--------------|
|--0--0-3p0-0--------------------------|


  Q   E   S S  S  S S S a    +E  +S  S
|--------------------------------------|
|--------------------------------------|
|-----------------------2b4==(2)r(2)p0-|
|-2---2---0-2-----2---2----------------|
|--------------------------------------|
|--------------------------------------|
|
| E E S S S S +S  S S S       Q
|--------------------------------------|
|--------------------------------------|
|--------------------------------------|
|-----------2-(2)---0---------2--------|
|-----------------2---2----------------|
|-0-0-3p0-0----------------------------|


  Q   E   S S  S  S S S a    +E  +S  S   Q   a    +E  +S  S  Q      Q
|--------------------------------------|-----------------------------------||
|--------------------------------------|-----------------------------------||
|-----------------------2b4==(2)r(2)p0-|-----2b4==(2)r(2)p0----------------||
|-2---2---0-2-----2---2----------------|-2-------------------2------2------||
|--------------------------------------|-----------------------------------||
|--------------------------------------|-----------------------------------||
|
| E E S S S S +S  S S S       Q          E E S     S   S  S +S  S S S Q
|--------------------------------------|-----------------------------------||
|--------------------------------------|-----------------------------------||
|--------------------------------------|-----------------------------------||
|-----------2-(2)---0---------2--------|------------------2-(2)---0---2----||
|-----------------2---2----------------|------------------------2---2------||
|-0-0-3p0-0----------------------------|-0-0-3p====0---0-------------------||


 Bridge
  (Em)                       (F#m/E)       (F/E)
  W                          +H.                     a    +E  +S  S
|--------------------------|----------------------------------------|
|--------------------------|----------------------------------------|
|--------------------------|-------------------------2b4==(2)r(2)p0-|
|--------------------------|----------------------------------------|
|--------------------------|----------------------------------------|
|-0------------------------|-(0)------------------------------------|
|
| E E S S S S +S  S S S Q     E  E S S S S +S  S S S       Q
|--------------------------|----------------------------------------|
|--------------------------|----------------------------------------|
|--------------------------|----------------------------------------|
|-----------2-(2)---0---2--|-------------2-(2)---0---------2--------|
|-----------------2---2----|-------------------2---2----------------|
|-0-0-3p0-0----------------|--0--0-3p0-0----------------------------|
|
| Gtr V
| W                           H             H
|-3------------------------|--5-------------5-----------------------|
|-5------------------------|--7-------------6-----------------------|
|-4------------------------|--6-------------5-----------------------|
|--------------------------|----------------------------------------|
|--------------------------|----------------------------------------|
|--------------------------|----------------------------------------|


  N.C.(Em)
    Q    E   S S    S   S S S a    +E  +S  S
|----------------------------------------------|
|----------------------------------------------|
|-----------------------------2b4==(2)r(2)p0---|
|---2----2---0-2--------2---2------------------|
|----------------------------------------------|
|----------------------------------------------|
|
|   E  E S S S S   +S   S S S       Q
|----------------------------------------------|
|----------------------------------------------|
|----------------------------------------------|
|--------------2---(2)----0---------2----------|
|-----------------------2---2------------------|
|---0--0-3p0-0---------------------------------|
|
| Gtr IV
|   H              +H
|-<12>-----------(<12>)------------------------|
|----------------------------------------------|
|----------------------------------------------|
|----------------------------------------------|
|----------------------------------------------|
|----------------------------------------------|


                                              (Em)
     Q     E   S S  S  S S S a    +E  +S  S   H.                     a    +E  +S  S
|-------------------------------------------|---------------------------------------|
|-------------------------------------------|---------------------------------------|
|----------------------------2b4==(2)r(2)p0-|------------------------2b4==(2)r(2)p0-|
|----2-----2---0-2-----2---2----------------|-2-------------------------------------|
|-------------------------------------------|---------------------------------------|
|-------------------------------------------|---------------------------------------|
|
|    E   E S S S S +S  S S S       Q          E  E S S S S +S  S S S       Q
|-------------------------------------------|---------------------------------------|
|-------------------------------------------|---------------------------------------|
|-------------------------------------------|---------------------------------------|
|----------------2-(2)---0---------2--------|------------2-(2)---0---------2--------|
|----------------------2---2----------------|------------------2---2----------------|
|----0---0-3p0-0----------------------------|-0--0-3p0-0----------------------------|
|
|                                             Gtr V
|   +W                                        W
|-(<12>)------------------------------------|-3-------------------------------------|
|-------------------------------------------|-5-------------------------------------|
|-------------------------------------------|-4-------------------------------------|
|-------------------------------------------|---------------------------------------|
|-------------------------------------------|---------------------------------------|
|-------------------------------------------|---------------------------------------|


  (F#m/E)      (F/E)                      N.C.(Em)
  H.                     a    +E  +S  S     Q    E   S S    S   S S S a    +E  +S  S
|---------------------------------------|--------------------------------------------|
|---------------------------------------|--------------------------------------------|
|------------------------2b4==(2)r(2)p0-|-----------------------------2b4==(2)r(2)p0-|
|-2-------------------------------------|---2----2---0-2--------2---2----------------|
|---------------------------------------|--------------------------------------------|
|---------------------------------------|--------------------------------------------|
|
| E  E S S S S +S  S S S       Q            E  E S S S S   +S   S S S       Q
|---------------------------------------|--------------------------------------------|
|---------------------------------------|--------------------------------------------|
|---------------------------------------|--------------------------------------------|
|------------2-(2)---0---------2--------|--------------2---(2)----0---------2--------|
|------------------2---2----------------|-----------------------2---2----------------|
|-0--0-3p0-0----------------------------|---0--0-3p0-0-------------------------------|
|
|                                         Gtr IV
| H             H                           H              +H
|-5-------------5-----------------------|-<12>-----------(<12>)----------------------|
|-7-------------6-----------------------|--------------------------------------------|
|-6-------------5-----------------------|--------------------------------------------|
|---------------------------------------|--------------------------------------------|
|---------------------------------------|--------------------------------------------|
|---------------------------------------|--------------------------------------------|


  Q   E   S S  S  S S S a    +E  +S  S    Q         E        S  S   S   S  S S a    +E  +S  S
|--------------------------------------||-----------------------------------------------------|
|--------------------------------------||-----------------------------------------------------|
|-----------------------2b4==(2)r(2)p0-||--------------------------------------2b4==(2)r(2)p0-|
|-2---2---0-2-----2---2----------------||-2---------2--------0--2-------2----2----------------|
|--------------------------------------||-----------------------------------------------------|
|--------------------------------------||-----------------------------------------------------|
|
| E E S S S S +S  S S S       Q           E     E   S   S    S  S  +S   S  S S       Q
|--------------------------------------||-----------------------------------------------------|
|--------------------------------------||-----------------------------------------------------|
|--------------------------------------||-----------------------------------------------------|
|-----------2-(2)---0---------2--------||-----------------------2--(2)-----0---------2--------|
|-----------------2---2----------------||-------------------------------2----2----------------|
|-0-0-3p0-0----------------------------||-0-----0---3p==0----0--------------------------------|
|
| Gtr IV
|                                                       ~~~~~~~~~~~~~~~~~~~~~~~~~~~~~~~~~~~~~~~
| W                                       S    +S   E   E      +E      +H
|--------------------------------------||-----------------------------------------------------|
|--------------------------------------||-----------8-----------------------------------------|
|--------------------------------------||-7b9==(7)-(7)r-7b9====(7)-----(7)--------------------|
|--------------------------------------||-----------------------------------------------------|
|--------------------------------------||-----------------------------------------------------|
|-0------------------------------------||-----------------------------------------------------|


   Q    E   S S  S   S       S  S a    +E  +S  S
|------------------------------------------------||
|------------------------------------------------||
|---------------------------------2b4==(2)r(2)p0-||
|--2----2---0-2------2----------2----------------||
|------------------------------------------------||
|------------------------------------------------||
|
|  E  E S S S S +S   S       S  S       Q
|------------------------------------------------||
|------------------------------------------------||
|------------------------------------------------||
|-------------2-(2)----------0----------2--------||
|--------------------2----------2----------------||
|--0--0-3p0-0------------------------------------||
|
|~~~~~~
| +H            +E   E      +Q
|------------------------------------------------||
|------------------------------------------------||
|-(7)r==========(7)------------------------------||
|-------------------12b14==(12)------------------||
|------------------------------------------------||
|------------------------------------------------||


 solo/chorus
  A5
  Gtr VI
    W
    |
    /

    E        E    H                 Q
|--------------------------5----------------|
|------------8----------------8p5-----------|
|---7--(7)-------(7)--------------8s7-5-----|
|-(12)-----(12)r------------------------7-5-|
|-------------------------------------------|
|-------------------------------------------|
|   S  +E.       +Q        S  S S S S S S S
|
|   E        E    S S S S +S  S S S Q
|-------------------------------------------|
|-------------------------------------------|
|-------------------------------------------|
|-----------------------2-(2)---0---2-------|
|-----------------------------2---2---------|
|---0--------0----3p0-0---------------------|


  A5/G                                      A5/F#
  W                                         W
  |                                         |
  /                                         /

              ~~~~                                      ~~~~
  S    +E.   +Q          S  S S S S S S S   S    +E.   +Q          S  S S S S S S S
|------------------------5----------------|------------------------5----------------|
|---------------------------8p5-----------|---------------------------8p5-----------|
|-7b9==(7)---(7)r---------------8s7-5-----|-7b9==(7)---(7)r---------------8s7-5-4---|
|-------------------------------------7-5-|---------------------------------------7-|
|-----------------------------------------|-----------------------------------------|
|-----------------------------------------|-----------------------------------------|
|
| E        E  S   S S S +S  S S S Q         E        E  S   S S S +S  S S S Q
|-----------------------------------------|-----------------------------------------|
|-----------------------------------------|-----------------------------------------|
|-----------------------------------------|-----------------------------------------|
|---------------------2-(2)---0---2-------|---------------------2-(2)---0---2-------|
|---------------------------2---2---------|---------------------------2---2---------|
|-0--------0--3p==0-0---------------------|-0--------0--3p==0-0---------------------|


  A5/F
  W
  |
  /

              ~~~~
  S    +E.   +Q          S  S S S S S S S
|------------------------5----------------|
|---------------------------8p5-----------|
|-7b9==(7)---(7)r---------------8s7-5-4---|
|---------------------------------------7-|
|-----------------------------------------|
|-----------------------------------------|
|
| E        E  S   S S S +S  S S S Q
|-----------------------------------------|
|-----------------------------------------|
|-----------------------------------------|
|---------------------2-(2)---0---2-------|
|---------------------------2---2---------|
|-0--------0--3p==0-0---------------------|


    A5                                        A5/G
    W                                         W
    |                                         |
    /                                         /

                ~~~~                                      ~~~~
    S    +E.   +Q          S  S S S S S S S   S    +E.   +Q          S  S S S S S S S
||-------------------------5----------------|------------------------5----------------|
||o---------------------------8p5-----------|---------------------------8p5-----------|
||--7b9==(7)---(7)r---------------8s7-5-----|-7b9==(7)---(7)r---------------8s7-5-----|
||--------------------------------------7-5-|-------------------------------------7-5-|
||o-----------------------------------------|-----------------------------------------|
||------------------------------------------|-----------------------------------------|
|
|   E        E  S   S S S +S  S S S Q         E        E  S   S S S +S  S S S Q
||------------------------------------------|-----------------------------------------|
||o-----------------------------------------|-----------------------------------------|
||------------------------------------------|-----------------------------------------|
||----------------------2-(2)---0---2-------|---------------------2-(2)---0---2-------|
||o---------------------------2---2---------|---------------------------2---2---------|
||--0--------0--3p==0-0---------------------|-0--------0--3p==0-0---------------------|


  A5/F#
  W
  |
  /

              ~~~~
  S    +E.   +Q          S  S S S S S S S
|------------------------5----------------|
|---------------------------8p5-----------|
|-7b9==(7)---(7)r---------------8s7-5-4---|
|---------------------------------------7-|
|-----------------------------------------|
|-----------------------------------------|
|
| E        E  S   S S S +S  S S S Q
|-----------------------------------------|
|-----------------------------------------|
|-----------------------------------------|
|---------------------2-(2)---0---2-------|
|---------------------------2---2---------|
|-0--------0--3p==0-0---------------------|


 1.,2.                                       3.
  A5/F                                        A5/F
  W                                           W
  |                                           |
  /                                           /

              ~~~~                                        ~~~~
  S    +E.   +Q          S  S S S S S S S  3x S    +E.   +Q          S  S S S S S S S
|------------------------5-----------------||------------------------5----------------|
|---------------------------8p5-----------o||---------------------------8p5-----------|
|-7b9==(7)---(7)r---------------8s7-5-4----||-7b9==(7)---(7)r---------------8s7-5-4---|
|---------------------------------------7--||---------------------------------------7-|
|-----------------------------------------o||-----------------------------------------|
|------------------------------------------||-----------------------------------------|
|
| E        E  S   S S S +S  S S S Q        3x E        E  S   S S S +S  S S S Q
|------------------------------------------||-----------------------------------------|
|-----------------------------------------o||-----------------------------------------|
|------------------------------------------||-----------------------------------------|
|---------------------2-(2)---0---2--------||---------------------2-(2)---0---2-------|
|---------------------------2---2---------o||---------------------------2---2---------|
|-0--------0--3p==0-0----------------------||-0--------0--3p==0-0---------------------|


   E5
               ~~~~                      ~~~~
   S    +E.   +E     E   +E    S    +S  +Q
||--------------------------------------------|
||-------------------8---(8)------------------|
||-7b9==(7)---(7)r-------------7b9==(7)-(7)r--|
||--------------------------------------------|
||--------------------------------------------|
||--------------------------------------------|
|
|  E        E  S   S S S +S  S S     S   Q
||--------------------------------------------|
||--------------------------------------------|
||--------------------------------------------|
||---------------------2-(2)---0---------2----|
||---------------------------2-------2--------|
||-0--------0--3p==0-0------------------------|


  Q   E   S S  S  S S S a    +E  +S  S   Q   E   S S  S  S S S a    +E  +S  S
|--------------------------------------|--------------------------------------|
|--------------------------------------|--------------------------------------|
|-----------------------2b4==(2)r(2)p0-|-----------------------2b4==(2)r(2)p0-|
|-2---2---0-2-----2---2----------------|-2---2---0-2-----2---2----------------|
|--------------------------------------|--------------------------------------|
|--------------------------------------|--------------------------------------|
|
| E E S S S S +S  S S S       Q          E E S S S S +S  S S S       Q
|--------------------------------------|--------------------------------------|
|--------------------------------------|--------------------------------------|
|--------------------------------------|--------------------------------------|
|-----------2-(2)---0---------2--------|-----------2-(2)---0---------2--------|
|-----------------2---2----------------|-----------------2---2----------------|
|-0-0-3p0-0----------------------------|-0-0-3p0-0----------------------------|


  Q   E   S S  S  S S S a    +E  +S  S            Wx3
|--------------------------------------|-----------------*|
|--------------------------------------|-----------------*|
|-----------------------2b4==(2)r(2)p0-|-----------------*|
|-2---2---0-2-----2---2----------------|-----------------*|
|--------------------------------------|-----------------*|
|--------------------------------------|-----------------*|
|
| E E S S S S +S  S S S       Q                   Wx3
|--------------------------------------|-----------------*|
|--------------------------------------|-----------------*|
|--------------------------------------|-----------------*|
|-----------2-(2)---0---------2--------|-----------------*|
|-----------------2---2----------------|-----------------*|
|-0-0-3p0-0----------------------------|-----------------*|


Duration Legend
---------------
W - whole; H - half; Q - quarter; E - 8th; S - 16th; T - 32nd; X - 64th; a - acciaccatura
+ - note tied to previous; . - note dotted; .. - note double dotted
Uncapitalized letters represent notes that are staccato (1/2 duration)
Irregular groupings are notated above the duration line
Duration letters will always appear directly above the note/fret number it represents the
duration for.  Duration letters with no fret number below them represent rests.  Multi-
bar rests are notated in the form Wxn, where n is the number of bars to rest for.  Low
melody durations appear below the staff

Tablature Legend
----------------
 h   - hammer-on
 p   - pull-off
 b   - bend
 pb  - pre-bend
 r   - bend release (if no number after the r, then release immediately)
 /\  - slide into or out of (from/to "nowhere")
 s   - legato slide
 S   - shift slide
  - natural harmonic
[n]  - artificial harmonic
n(n) - tapped harmonic
 ~   - vibrato
 tr  - trill
 T   - tap
 TP  - trem. picking
 PM  - palm muting
\n/  - tremolo bar dip; n = amount to dip
 \n  - tremolo bar down
 n/  - tremolo bar up
/n\  - tremolo bar inverted dip
 =   - hold bend; also acts as connecting device for hammers/pulls
 <>  - volume swell (louder/softer)
 x   - on rhythm slash represents muted slash
 o   - on rhythm slash represents single note slash

Misc Legend
-----------
 |  - bar
||  - double bar
||o - repeat start
o|| - repeat end
*|  - double bar (ending)
 :  - bar (freetime)
 $  - Segno
 &  - Coda
Tempo markers -  = BPM(8/16=s8/s16), where s8 = swing 8ths, s16 = swing 16ths
comments
We did not receive enough feedback on this tab! Please rate:
print report bad tab
1 2 3 4 5
2 comments total.
0 reply
Jamma wrote on October 16 2008, 10:07 am

advanced?!?! LoL!!!!

0 reply
Th3Killer wrote on November 9 2011, 06:46 am

|------------------------5-----------------|
|---------------------------8p5-----------o|
|-7b9==(7)---(7)r---------------8s7-5------|
|-------------------------------------7-5--|
|-----------------------------------------o|
|------------------------------------------|
Changed, no 4 there.

I want to post or [tab]
guest
You may want to rate the tab now too:
select rating
Please do not post tabs as comments. Select "correction" instead!