Oops, an error
Loading. Please wait.

Half The World Away Tab

ver3
ver3

Whole song

Interactive

More versions @911Tabs.com
2,451 views 9 this week
no commentswrite comment
1 2 3 4 5
poor
x 1
Autoscroll
+/-
esc
set tempo
stop
Contributor
Hey! There's an official Ultimate Guitar app which is ideal
for learning songs when you're away from computer. Get the app
WARNING: You are trying to view
                                    content from Ultimate-Guitar.com
                                    in an unauthorized application,
                                    which is prohibited.

                                    Please use an official Ultimate
                                    Guitar Tabs application for iPhone,
                                    iPad or Android to access legitimate
                                    chords, guitar, bass, and drum tabs
                                    from Ultimate-Guitar.com database.

                                    Type "ultimate guitar tabs" in Apple
                                    App Store's or Android Market's
                                    search to find the application.
Song: Half The World Away
Band: Oasis
Album: The Masterplan
Tuning: Standard


Intro:

    C                       Fmaj7                    C                       Fmaj7
e|-----------0-----------------------0------------|-----------0-----------------------0------------|
B|--------1--------1-----1-----1-----------1-----1|--------1--------1-----1-----1-----------1-----1|
G|--------------------0-----------2-----------2---|--------------------0-----------2-----------2---|
D|--------------------------3---------------------|--------------------------3---------------------|
A|--3---------------------------------------------|--3---------------------------------------------|
E|------------------------------------------------|------------------------------------------------|


Verse 1:

    C                       Fmaj7                    C                       Fmaj7
e|-----------0-----------------------0------------|-----------0-----------------------0------------|
B|--------1--------1-----1-----1-----------1-----1|--------1--------1-----1-----1-----------1-----1|
G|--------------------0-----------2-----------2---|--------------------0-----------2-----------2---|
D|--------------------------3---------------------|--------------------------3---------------------|
A|--3---------------------------------------------|--3---------------------------------------------|
E|------------------------------------------------|------------------------------------------------|

    C           C/B         Am                       D7                      Fmaj7
e|-----0-----------0-----------0------------------|--2--------3-----2-----------------0------------|
B|--------1-----------1-----------1--0-----1------|-----1-----------------1-----1-----------1-----1|
G|-----------0-----------0------------------------|--------2-----------------------2-----------2---|
D|------------------------------------------------|--------------------------3---------------------|
A|--3-----------2-----------0---------------------|------------------------------------------------|
E|------------------------------------------------|------------------------------------------------|

    C                       Fmaj7                    C                       Fmaj7
e|-----------0-----------------------0------------|-----------0-----------------------0------------|
B|--------1--------1-----1-----1-----------1-----1|--------1--------1-----1-----1-----------1-----1|
G|--------------------0-----------2-----------2---|--------------------0-----------2-----------2---|
D|--------------------------3---------------------|--------------------------3---------------------|
A|--3---------------------------------------------|--3---------------------------------------------|
E|------------------------------------------------|------------------------------------------------|

    C           C/B         Am                       D7                      Fmaj7
e|-----0-----------0-----------0------------------|--2--------3-----2-----------------0------------|
B|--------1-----------1-----------1--0-----1------|-----1-----------------1-----1-----------1-----1|
G|-----------0-----------0------------------------|--------2-----------------------2-----------2---|
D|------------------------------------------------|--------------------------3---------------------|
A|--3-----------2-----------0---------------------|------------------------------------------------|
E|------------------------------------------------|------------------------------------------------|


Chorus 1:

    Am                      C                        E7                      Am
e|-----------0-----------------------0------------|-----------------------------------0------------|
B|--------1--------1--------------1--------1------|-----------3--------------------1--------1------|
G|--------------------2-----------------------0---|--------1--------1--------------------------2---|
D|------------------------------------------------|--------------------2---------------------------|
A|--0-----------------------3---------------------|--------------------------0---------------------|
E|------------------------------------------------|--0---------------------------------------------|

    Fmaj7                   D7                       G                       G7
e|-----------0-----------------------0------------|-----------3--------------------------3---------|
B|-----1-----------1-----1-----1-----------1-----1|-----0-----------0-----0--------0--------0-----0|
G|--------2-----------2-----------2-----------2---|--------0-----------0--------0-----0--------0---|
D|--3-----------------------0---------------------|------------------------------------------------|
A|------------------------------------------------|------------------------------------------------|
E|------------------------------------------------|--3-----------------------3---------------------|

    Am                      C                        E                       Am
e|-----------0-----------------------0------------|------------------------------------------------|
B|--------1--------1--------------1--------1------|-----------3--------------------1--0-----1------|
G|--------------------2-----------------------0---|--------1--------1-----------2------------------|
D|------------------------------------------------|--------------------2---------------------------|
A|--0-----------------------3---------------------|--------------------------0---------------------|
E|------------------------------------------------|--0---------------------------------------------|

    F                                                Fm
e|-----------1-----------1-----------1------------|-----------1-----------1-----------1------------|
B|-----1-----------1-----------1-----------1-----1|-----1-----------1-----------1-----------1-----1|
G|--------2-----------2-----------2-----------2---|--------1-----------1-----------1-----------1---|
D|------------------------------------------------|------------------------------------------------|
A|------------------------------------------------|------------------------------------------------|
E|--1---------------------------------------------|--1---------------------------------------------|

    C           C/B         Am                       D7                      Fmaj7
e|-----0-----------0-----------0------------------|--2--------3-----2-----------------0-----------0|
B|--------1-----------1-----------1--0-----1------|-----1-----------------1-----1-----------1------|
G|-----------0-----------0------------------------|--------2-----------------------2-----------2---|
D|------------------------------------------------|--------------------------3---------------------|
A|--3-----------2-----------0---------------------|------------------------------------------------|
E|------------------------------------------------|------------------------------------------------|


e|-----------0-----------------------0------------|--0--~--~---------------------------------------|
B|-----1-----------1-----1-----1-----------1------|--1--~--~---------------------------------------|
G|--------2-----------2-----------2-----------2---|--2--~--~---Let-Ring----------------------------|
D|--------------------------3---------------------|--3--~--~---------------------------------------|
A|------------------------------------------------|------------------------------------------------|
E|------------------------------------------------|------------------------------------------------|


Verse 2:

    C                       Fmaj7                    C                       Fmaj7
e|-----------0-----------------------0------------|-----------3-----------------------3------------|
B|--------1--------1-----1-----1-----------1-----1|--------1--------1-----1-----1-----------1-----1|
G|--------------------0-----------2-----------2---|--------------------0-----------2-----------2---|
D|--------------------------3---------------------|--------------------------3---------------------|
A|--3---------------------------------------------|--3---------------------------------------------|
E|------------------------------------------------|------------------------------------------------|

    C                       Fmaj7                    C                       Fmaj7
e|-----------0-----------------------0------------|-----------0-----------------------0------------|
B|--------1--------1-----1-----1-----------1-----1|--------1--------1-----1-----1-----------1-----1|
G|--------------------0-----------2-----------2---|--------------------0-----------2-----------2---|
D|--------------------------3---------------------|--------------------------3---------------------|
A|--3---------------------------------------------|--3---------------------------------------------|
E|------------------------------------------------|------------------------------------------------|

    C           C/B         Am                       D7                      Fmaj7
e|-----0-----------0-----------0------------------|--2--------3-----2-----------------0------------|
B|--------1-----------1-----------1--0-----1------|-----1-----------------1-----1-----------1-----1|
G|-----------0-----------0------------------------|--------2-----------------------2-----------2---|
D|------------------------------------------------|--------------------------3---------------------|
A|--3-----------2-----------0---------------------|------------------------------------------------|
E|------------------------------------------------|------------------------------------------------|

    C                       Fmaj7                    C                       Fmaj7
e|-----------0-----------------------0------------|-----------0-----------------------0------------|
B|--------1--------1-----1-----1-----------1-----1|--------1--------1-----1-----1-----------1-----1|
G|--------------------0-----------2-----------2---|--------------------0-----------2-----------2---|
D|--------------------------3---------------------|--------------------------3---------------------|
A|--3---------------------------------------------|--3---------------------------------------------|
E|------------------------------------------------|------------------------------------------------|

    C           C/B         Am                       D7                      Fmaj7
e|-----0-----------0-----------0------------------|--2--------3-----2-----------------0------------|
B|--------1-----------1-----------1--0-----1------|-----1-----------------1-----1-----------1-----1|
G|-----------0-----------0------------------------|--------2-----------------------2-----------2---|
D|------------------------------------------------|--------------------------3---------------------|
A|--3-----------2-----------0---------------------|------------------------------------------------|
E|------------------------------------------------|------------------------------------------------|


Chorus 2:

    Am                      C                        E                       Am
e|-----------0-----------------------0------------|------------------------------------------------|
B|--------1--------1--------------1--------1------|-----------3--------------------1--0-----1------|
G|--------------------2-----------------------0---|--------1--------1-----------2------------------|
D|------------------------------------------------|--------------------2---------------------------|
A|--0-----------------------3---------------------|--------------------------0---------------------|
E|------------------------------------------------|--0---------------------------------------------|

    Fmaj7                   D7                       G                       G7
e|-----------0-----------------------0------------|-----------3--------------------------3---------|
B|-----1-----------1-----1-----1-----------1-----1|-----0-----------0-----0--------0--------0-----0|
G|--------2-----------2-----------2-----------2---|--------0-----------0--------0-----0--------0---|
D|--3-----------------------0---------------------|------------------------------------------------|
A|------------------------------------------------|------------------------------------------------|
E|------------------------------------------------|--3-----------------------3---------------------|

    Am                      C                        E                       Am
e|-----------------------------------0------------|-----------------------------------0------------|
B|--------1--0-----1--------------1--------1------|-----------3--------------------1--------1------|
G|-----2--------------------------------------0---|--------1--------1--------------------------2---|
D|------------------------------------------------|--------------------2---------------------------|
A|--0-----------------------3---------------------|--------------------------0---------------------|
E|------------------------------------------------|--0---------------------------------------------|

    F                                                Fm
e|-----------1-----------1-----------1------------|-----------1-----------1-----------1------------|
B|-----1-----------1-----------1-----------1-----1|-----1-----------1-----------1-----------1-----1|
G|--------2-----------2-----------2-----------2---|--------1-----------1-----------1-----------1---|
D|------------------------------------------------|------------------------------------------------|
A|------------------------------------------------|------------------------------------------------|
E|--1---------------------------------------------|--1---------------------------------------------|

    C           C/B         Am                       D7                      Fmaj7
e|-----0-----------0-----------0------------------|--2--------3-----2-----------------3-----------3|
B|--------1-----------1-----------1--0-----1------|-----1-----------------1-----1-----------1------|
G|-----------0-----------0------------------------|--------2-----------------------2-----------2---|
D|------------------------------------------------|--------------------------3---------------------|
A|--3-----------2-----------0---------------------|------------------------------------------------|
E|------------------------------------------------|------------------------------------------------|


e|-----------3-----------------------3------------|--3-----------3-----------------------3---------|
B|-----1-----------1-----1-----1-----------1------|--------1-----------1-----1-----1-----------1---|
G|--------2-----------2-----------2-----------2---|-----------2-----------2-----------2-----------2|
D|--------------------------3---------------------|-----------------------------3------------------|
A|------------------------------------------------|------------------------------------------------|
E|------------------------------------------------|------------------------------------------------|


e|--3-----------3-----------------------3---------|------------------------------------------------|
B|--------1-----------1-----1-----1-----------1---|------------------------------------------------|
G|-----------2-----------2-----------2-----------2|------------------------------------------------|
D|-----------------------------3------------------|------------------------------------------------|
A|------------------------------------------------|------------------------------------------------|
E|------------------------------------------------|------------------------------------------------|


Outro:

    C                       Fmaj7                    C                       Fmaj7
e|-----------0-----------------------0------------|-----------0-----------------------0------------|
B|--------1--------1-----1-----1-----------1-----1|--------1--------1-----1-----1-----------1-----1|
G|--------------------0-----------2-----------2---|--------------------0-----------2-----------2---|
D|--------------------------3---------------------|--------------------------3---------------------|
A|--3---------------------------------------------|--3---------------------------------------------|
E|------------------------------------------------|------------------------------------------------|

    C                       Fmaj7                    C                       Fmaj7
e|-----------------0-----------------0------------|-----------------0-----------------0------------|
B|-----1-----3-----------1-----1-----------3-----1|-----1-----3-----------1-----1-----------3-----1|
G|--------0-----------------------2---------------|--------0-----------------------2---------------|
D|--------------------------3---------------------|--------------------------3---------------------|
A|--3---------------------------------------------|--3---------------------------------------------|
E|------------------------------------------------|------------------------------------------------|

    C                       Fmaj7                    C                       Fmaj7
e|-----------------0-----------------0------------|-----------------0-----------------0------------|
B|-----1-----3-----------1-----1-----------3-----1|-----1-----3-----------1-----1-----------3-----1|
G|--------0-----------------------2---------------|--------0-----------------------2---------------|
D|--------------------------3---------------------|--------------------------3---------------------|
A|--3---------------------------------------------|--3---------------------------------------------|
E|------------------------------------------------|------------------------------------------------|

    C                       Fmaj7                    C                       Fmaj7
e|-----------------0-----------------0------------|-----------------0-----------------3------------|
B|-----1-----3-----------1-----1-----------3-----1|-----1-----3-----------1-----1-----------1------|
G|--------0-----------------------2---------------|--------0-----------------------2-----------2---|
D|--------------------------3---------------------|--------------------------3---------------------|
A|--3---------------------------------------------|--3---------------------------------------------|
E|------------------------------------------------|------------------------------------------------|

    C                       Fmaj7                    C                       Fmaj7
e|-----------3------------------------3-----------|-----------3-----------------------3------------|
B|-----1-----------1-----------1------------1-----|-----1-----------1-----------1----------1-1h3p1-|
G|--------0-----------0-----------2------------2--|--------0-----------0-----------2---------------|
D|--------------------------3---------------------|--------------------------3---------------------|
A|--3---------------------------------------------|--3---------------------------------------------|
E|------------------------------------------------|------------------------------------------------|

    C                       Fmaj7                    C                       Fmaj7
e|-----------3------------------------3-----------|-----------3-----------------------3------------|
B|-----1-----------1-----------1------------1-----|-----1-----------1-----------1-----------1------|
G|--------0-----------0-----------2------------2--|--------0-----------0-----------2-----------2---|
D|--------------------------3---------------------|--------------------------3---------------------|
A|--3---------------------------------------------|--3---------------------------------------------|
E|------------------------------------------------|------------------------------------------------|



comments
We did not receive enough feedback on this tab! Please rate:
print report bad tab
1 2 3 4 5
I want to post or [tab]
guest
You may want to rate the tab now too:
select rating
Please do not post tabs as comments. Select "correction" instead!