Oops, an error
Loading. Please wait.

Incarnated Bass Tab

ver1
ver1

Whole song

Interactive

More versions @911Tabs.com
1,501 views 9 this week
no commentswrite comment
1 2 3 4 5
excellent!
x 1
add to favorites launch autoscroll
font size
0
reset
Autoscroll
+/-
esc
set tempo
stop
Contributor
Tuning
D G C F A D
WARNING: You are trying to view
                                    content from Ultimate-Guitar.com
                                    in an unauthorized application,
                                    which is prohibited.

                                    Please use an official Ultimate
                                    Guitar Tabs application for iPhone,
                                    iPad or Android to access legitimate
                                    chords, guitar, bass, and drum tabs
                                    from Ultimate-Guitar.com database.

                                    Type "ultimate guitar tabs" in Apple
                                    App Store's or Android Market's
                                    search to find the application.
Band: Obscura
Song: Incarnated
Album: Cosmogenesis (2009)
Bassist: Jeroen Paul Thesseling
Tuning: D tuning
Tabbed by: ThrashMetalhead

Intro

A#|---------|
F |-6-4\3/4-|
C |---------|
G |---------|
D |---------|
A |---------|

Verse 1

A#|----------------------------------------------------|
F |----------------------------------------------------|
C |--------------------------------------------7-5\4/5-|
G |-------------------------------------555555---------|
D |-333333333333333333333333000000000000---------------|
A |----------------------------------------------------|

A#|-------------------------------------------------------------|
F |-----------------------------------------------------6-4\3/4-|
C |---------------------------9---------------------------------|
G |-------------------------------------------------------------|
D |-7-7-7-7-7-7-7-7-7-7-7-7-7---7-7-7-7-7-7-7-7-7-7-7-7---------|
A |-------------------------------------------------------------|

A#|------------------------------------------------------------|
F |------------------------------------------------------------|
C |--------------------------------------------7-5\4/5---------|
G |-------------------------------------555555---------7-5\4/5-|
D |-333333333333333333333333000000000000-----------------------|
A |------------------------------------------------------------|

A#|--------------------------------------------------|
F |--------------------------------------------------|
C |--------------------------------------------------|
G |-------------------------------------999888666444-|
D |-777777777777777777777777666666666666-------------|
A |--------------------------------------------------|

A#|-----------------------------------------------------|
F |-----------------------------------------------------|
C |-----------------------------------------------------|
G |-----------------------------------------------------|
D |-------------------------------------101010999777555-| (10, not 1 and 0)
A |-888888888888888888888888777777777777----------------|

A#|-----------------------------------------------------------------|
F |-----------------------------------------------------------------|
C |-----------------------------------------------------------------|
G |---------------------------------------------------------9-8-6-8-|
D |-7-7-7-7-7-7-7-7-7-7-7-7-7-7-7-7-6-6-6-6-6-6-6-6-6-6-6-6---------|
A |-----------------------------------------------------------------|

A#|------------------------------------------------------------------|
F |------------------------------------------------------------------|
C |------------------------------------------------------------------|
G |------------------------------------------------------------------|
D |---------------------------------------------------------10-9-7-9-|
A |-8-8-8-8-8-8-8-8-8-8-8-8-8-8-8-8-7-7-7-7-7-7-7-7-7-7-7-7----------|

Chorus

A#|----------------------------------------|----------------------------------------|
F |----------------------------------------|----------------------------------------|
C |-9---11/12\11\--9---11/12\11-11h12p11-9-|-8---10/11\10\--8---10/11\10-10h11p10-8-| x2
G |---9--------------9---------------------|---8--------------8---------------------|
D |----------------------------------------|----------------------------------------|
A |----------------------------------------|----------------------------------------|

A#|-----------------------------------------|-----------------------------------------|
F |-----13/14\13\------13/14\13-13/14\13-11-|-----12/13\12\------12/13\12-12/13\12-10-|
C |-9---11/12\11\--9---11/12\11-11/12\11--9-|-8---10/11\10\--8---10/11\10-10/11\10--8-|
G |---9--------------9----------------------|---8--------------8----------------------|
D |-----------------------------------------|-----------------------------------------|
A |-----------------------------------------|-----------------------------------------|

A#|-----------------------------------------|---------------------------------|
F |-----13/14\13\------13/14\13-13/14\13-11-|-----12/13\12\------12/13\12--10-|
C |-9---11/12\11\--9---11/12\11-11/12\11--9-|-8---10/11\10\--8---10/11\10---8-|
G |---9--------------9----------------------|---8--------------8--------------|
D |-----------------------------------------|---------------------------------|
A |-----------------------------------------|---------------------------------|

A#|-------------------------------------------------------------|
F |-----------------------------------------------------6-4\3/4-|
C |---------------------------9---------------------------------|
G |-------------------------------------------------------------|
D |-7-7-7-7-7-7-7-7-7-7-7-7-7---7-7-7-7-7-7-7-7-7-7-7-7---------|
A |-------------------------------------------------------------|

Verse 2

A#|----------------------------------------------------|
F |----------------------------------------------------|
C |--------------------------------------------7-5\4/5-|
G |-------------------------------------555555---------|
D |-333333333333333333333333000000000000---------------|
A |----------------------------------------------------|

A#|-------------------------------------------------------------|
F |-----------------------------------------------------6-4\3/4-|
C |---------------------------9---------------------------------|
G |-------------------------------------------------------------|
D |-7-7-7-7-7-7-7-7-7-7-7-7-7---7-7-7-7-7-7-7-7-7-7-7-7---------|
A |-------------------------------------------------------------|

A#|------------------------------------------------------------|
F |------------------------------------------------------------|
C |--------------------------------------------7-5\4/5---------|
G |-------------------------------------555555---------7-5\4/5-|
D |-333333333333333333333333000000000000-----------------------|
A |------------------------------------------------------------|

A#|--------------------------------------------------|
F |--------------------------------------------------|
C |--------------------------------------------------|
G |-------------------------------------999888666444-|
D |-777777777777777777777777666666666666-------------|
A |--------------------------------------------------|

A#|-----------------------------------------------------|
F |-----------------------------------------------------|
C |-----------------------------------------------------|
G |-----------------------------------------------------|
D |-------------------------------------101010999777555-| (10, not 1 and 0)
A |-888888888888888888888888777777777777----------------|

A#|-----------------------------------------------------------------|
F |-----------------------------------------------------------------|
C |-----------------------------------------------------------------|
G |---------------------------------------------------------9-8-6-8-|
D |-7-7-7-7-7-7-7-7-7-7-7-7-7-7-7-7-6-6-6-6-6-6-6-6-6-6-6-6---------|
A |-----------------------------------------------------------------|

A#|------------------------------------------------------------------|
F |------------------------------------------------------------------|
C |------------------------------------------------------------------|
G |------------------------------------------------------------------|
D |---------------------------------------------------------10-9-7-9-|
A |-8-8-8-8-8-8-8-8-8-8-8-8-8-8-8-8-7-7-7-7-7-7-7-7-7-7-7-7----------|

Chorus

A#|----------------------------------------|----------------------------------------|
F |----------------------------------------|----------------------------------------|
C |-9---11/12\11\--9---11/12\11-11h12p11-9-|-8---10/11\10\--8---10/11\10-10h11p10-8-| x2
G |---9--------------9---------------------|---8--------------8---------------------|
D |----------------------------------------|----------------------------------------|
A |----------------------------------------|----------------------------------------|

A#|-----------------------------------------|-----------------------------------------|
F |-----13/14\13\------13/14\13-13/14\13-11-|-----12/13\12\------12/13\12-12/13\12-10-|
C |-9---11/12\11\--9---11/12\11-11/12\11--9-|-8---10/11\10\--8---10/11\10-10/11\10--8-|
G |---9--------------9----------------------|---8--------------8----------------------|
D |-----------------------------------------|-----------------------------------------|
A |-----------------------------------------|-----------------------------------------|

A#|-----------------------------------------|---------------------------------|
F |-----13/14\13\------13/14\13-13/14\13-11-|-----12/13\12\------12/13\12--10-|
C |-9---11/12\11\--9---11/12\11-11/12\11--9-|-8---10/11\10\--8---10/11\10---8-|
G |---9--------------9----------------------|---8--------------8--------------|
D |-----------------------------------------|---------------------------------|
A |-----------------------------------------|---------------------------------|

Interlude

A#|------------------------------------------------------------------14-13-11h13-11-------|
F |-------------------11-9----------------------------------------14----------------11-12-|
C |------------------------12-11h12p11-9-7h9----------11-11-11/12-------------------------|
G |----------5-----5--------------------------------9-------------------------------------|
D |-/7-----------5---------------------------7--------------------------------------------|
A |-----7-0----3-------------------------------7-0----------------------------------------|

A#|---------------------------------|
F |---------------------------------|
C |----------------------7----------|
G |-------------8-4-5--5------------|
D |-7--7-6-7--6------------0-2--3-5-|
A |---------------------------------|
  |
A#|------------------------------------------------------------------------------------------|
F |------------------------------------------------------------------------------------------|
C |------------------------------------------------------------------------------------------|
G |---------------------------------------------------------5-5-5-5-5-5-5-5-5-5-5-5-5-5-5-5--|
D |-7-7-7-7-7-7-7-7-7-7-7-7-6-6-6-6-7-7-7-7-7-7-7-7-6-6-6-6----------------------------------|
A |------------------------------------------------------------------------------------------|

------------------------|
------------------------|
------------------------|
------------------------|
-2-2-2-2-2-2-2-2-3-5-7\-|
------------------------|

A#|---------|
F |-6-4\3/4-|
C |---------|
G |---------|
D |---------|
A |---------|

Verse 3

A#|----------------------------------------------------|
F |----------------------------------------------------|
C |--------------------------------------------7-5\4/5-|
G |-------------------------------------555555---------|
D |-333333333333333333333333000000000000---------------|
A |----------------------------------------------------|

A#|-------------------------------------------------------------|
F |-----------------------------------------------------6-4\3/4-|
C |---------------------------9---------------------------------|
G |-------------------------------------------------------------|
D |-7-7-7-7-7-7-7-7-7-7-7-7-7---7-7-7-7-7-7-7-7-7-7-7-7---------|
A |-------------------------------------------------------------|

A#|------------------------------------------------------------|
F |------------------------------------------------------------|
C |--------------------------------------------7-5\4/5---------|
G |-------------------------------------555555---------7-5\4/5-|
D |-333333333333333333333333000000000000-----------------------|
A |------------------------------------------------------------|

A#|--------------------------------------------------|
F |--------------------------------------------------|
C |--------------------------------------------------|
G |-------------------------------------999888666444-|
D |-777777777777777777777777666666666666-------------|
A |--------------------------------------------------|

A#|-----------------------------------------------------|
F |-----------------------------------------------------|
C |-----------------------------------------------------|
G |-----------------------------------------------------|
D |-------------------------------------101010999777555-| (10, not 1 and 0)
A |-888888888888888888888888777777777777----------------|

A#|-----------------------------------------------------------------|
F |-----------------------------------------------------------------|
C |-----------------------------------------------------------------|
G |---------------------------------------------------------9-8-6-8-|
D |-7-7-7-7-7-7-7-7-7-7-7-7-7-7-7-7-6-6-6-6-6-6-6-6-6-6-6-6---------|
A |-----------------------------------------------------------------|

A#|------------------------------------------------------------------|
F |------------------------------------------------------------------|
C |------------------------------------------------------------------|
G |------------------------------------------------------------------|
D |---------------------------------------------------------10-9-7-9-|
A |-8-8-8-8-8-8-8-8-8-8-8-8-8-8-8-8-7-7-7-7-7-7-7-7-7-7-7-7----------|

Guitar solo

A#|----------------------------------------|----------------------------------------|
F |----------------------------------------|----------------------------------------|
C |-9---11/12\11\--9---11/12\11-11h12p11-9-|-8---10/11\10\--8---10/11\10-10h11p10-8-| x2
G |---9--------------9---------------------|---8--------------8---------------------|
D |----------------------------------------|----------------------------------------|
A |----------------------------------------|----------------------------------------|

A#|-----------------------------------------|-----------------------------------------|
F |-----13/14\13\------13/14\13-13/14\13-11-|-----12/13\12\------12/13\12-12/13\12-10-|
C |-9---11/12\11\--9---11/12\11-11/12\11--9-|-8---10/11\10\--8---10/11\10-10/11\10--8-|
G |---9--------------9----------------------|---8--------------8----------------------|
D |-----------------------------------------|-----------------------------------------|
A |-----------------------------------------|-----------------------------------------|

A#|-----------------------------------------|---------------------------------|
F |-----13/14\13\------13/14\13-13/14\13-11-|-----12/13\12\------12/13\12--10-|
C |-9---11/12\11\--9---11/12\11-11/12\11--9-|-8---10/11\10\--8---10/11\10---8-|
G |---9--------------9----------------------|---8--------------8--------------|
D |-----------------------------------------|---------------------------------|
A |-----------------------------------------|---------------------------------|

Outro

A#|---------------------------------|
F |---------------------------------|
C |----------------------7----------|
G |-------------8-4-5--5------------|
D |-7--7-6-7--6------------0-2--3-5-|
A |---------------------------------|
  |
A#|------------------------------------------------------------------------------------------|
F |------------------------------------------------------------------------------------------|
C |------------------------------------------------------------------------------------------|
G |---------------------------------------------------------5-5-5-5-5-5-5-5-5-5-5-5-5-5-5-5--|
D |-7-7-7-7-7-7-7-7-7-7-7-7-6-6-6-6-7-7-7-7-7-7-7-7-6-6-6-6----------------------------------|
A |------------------------------------------------------------------------------------------|

---------------------|
---------------------|
---------------------|
---------------------|
-2-2-2-2-2-2-2-2-3-5-|
---------------------|

A#|---------------------------|-------------------|-----------------|
F |---------------------------|-------------------|-----------------|
C |---------------------------|-------------------|-----------------|
G |-------------5-------------|---------5\--------|-------5\--------|
D |-7--7-6-7--7----10\-2--3-5-|-7--6-7-----2--3-5-|-7--7-----2--3-5-|
A |---------------------------|-------------------|-----------------|

Legend
------
| / = slide up
| \ = slide down
| h = hammer-on
| p = pull-off
comments
We did not receive enough feedback on this tab! Please rate:
print report bad tab
1 2 3 4 5
I want to post or [tab]
guest
You may want to rate the tab now too:
select rating
Please do not post tabs as comments. Select "correction" instead!