Oops, an error
Loading. Please wait.

The Anticosmic Overload Bass Tab

5,540 views 15 this week
no commentswrite comment
1 2 3 4 5
accurate
x 6
Autoscroll
+/-
esc
set tempo
stop
Contributor
Tuning
D G C F A D
Hey! There's an official Ultimate Guitar app which is ideal
for learning songs when you're away from computer. Get the app
WARNING: You are trying to view
                                    content from Ultimate-Guitar.com
                                    in an unauthorized application,
                                    which is prohibited.

                                    Please use an official Ultimate
                                    Guitar Tabs application for iPhone,
                                    iPad or Android to access legitimate
                                    chords, guitar, bass, and drum tabs
                                    from Ultimate-Guitar.com database.

                                    Type "ultimate guitar tabs" in Apple
                                    App Store's or Android Market's
                                    search to find the application.
Band: Obscura
Song: The Anticosmic Overload
Album: Cosmogenesis (2009)
Bassist: Jeroen Paul Thesseling
Tuning: D tuning

Intro

A#|------------------------|
F |---4------------------4-|
C |-------4-5-------4b-----|
G |-2---2-----3-3-3----3---|
D |------------------------|
A |------------------------|

A#|------------------------------------------------------------|
F |-----9-----9-----------8------------------------------------|
C |-------------------------------------10-------------9-----9-|
G |-7-7---7-7---7-6-6-6-6---6-6--------------------------------|
D |-----------------------------8-8-8-8----8-8-7-7-7-7---5-7---|
A |------------------------------------------------------------|

A#|----------------------------------------------------------|
F |-----9-----9-----------8----------------------------------|
C |-------------------------------------10-------------9---9-|
G |-7-7---7-7---7-6-6-6-6---6-6------------------------------|
D |-----------------------------8-8-8-8----8-8-7-7-7-7---7---|
A |----------------------------------------------------------|

A#|-----------------------------------------------------------------------------|
F |-----------------------------------------------------------------------------|
C |-----------------------------------------------------------------------------|
G |-7777777777777777999999999999999910101010101010101010101010101010101010101010|
D |-----------------------------------------------------------------------------|
A |-----------------------------------------------------------------------------|
                                    (10, not 1 and 0)
------------------------------|
------------------------------|
--------10/12\--9/10\--7--5-4-|
999777------------------------|
--------8-/10\--7/8-\--5--3-2-|
------------------------------|

Verse 1

A#|------------------------------------------------------------|
F |-----9-----9-----------8------------------------------------|
C |-------------------------------------10-------------9-----9-|
G |-7-7---7-7---7-6-6-6-6---6-6--------------------------------|
D |-----------------------------8-8-8-8----8-8-7-7-7-7---5-7---|
A |------------------------------------------------------------|

A#|----------------------------------------------------------|
F |-----9-----9-----------8----------------------------------|
C |-------------------------------------10-------------9---9-|
G |-7-7---7-7---7-6-6-6-6---6-6------------------------------|
D |-----------------------------8-8-8-8----8-8-7-7-7-7---7---|
A |----------------------------------------------------------|

A#|-----------------------------------------------------------------------------|
F |-----------------------------------------------------------------------------|
C |-----------------------------------------------------------------------------|
G |-7777777777777777999999999999999910101010101010101010101010101010101010101010|
D |-----------------------------------------------------------------------------|
A |-----------------------------------------------------------------------------|

------------------------------|
------------------------------|
--------10/12\--9/10\--7--5-4-|
999777------------------------|
--------8-/10\--7/8-\--5--3-2-|
------------------------------|

A#|-------------------------------------------------|
F |-------------------------------------------------|
C |-------------------------------------------------|
G |-7-----------7-----------6-----------6-----------|
D |-------------------------------------------------|
A |---5-5-8-7-5---5-5-8-7-5---4-4-7-6-4---4-4-4-6-7-|
  |
A#|-------------------------------------------------|
F |-------------------------------------------------|
C |-------------------------------------------------|
G |-7-----------7-----------6-----------6-----6-----|
D |---------------------------------------5-----5---|
A |---5-5-8-7-5---5-5-8-7-5---4-4-7-6-4-----4-----4-|

A#|---------------------------------------------------------|
F |---------------------------------------------------------|
C |-10-------------10-------------9------------9------------|
G |---------------------------------------------------------|
D |----8-8-11-10-8----8-8-11-10-8---7-7-10-9-7---7-7-7-8-10-|
A |---------------------------------------------------------|
  |
A#|-----------------------------/11/12\-------|
F |-------------------------------------------|
C |-10-------------10-----------/9-/10\-------|
G |-------------------------------------------|
D |----8-8-11-10-8----8-8-11-10---------5-7-8-|
A |-------------------------------------------|

A#|-------------------------------------------------|
F |-------------------------------------------------|
C |-------------------------------------------------|
G |-7-----------7-----------6-----------6-----------|
D |-------------------------------------------------|
A |---5-5-8-7-5---5-5-8-7-5---4-4-7-6-4---4-4-4-6-7-|
  |
A#|-------------------------------------------------|
F |-------------------------------------------------|
C |-------------------------------------------------|
G |-7-----------7-----------6-----------6-----6-----|
D |---------------------------------------5-----5---|
A |---5-5-8-7-5---5-5-8-7-5---4-4-7-6-4-----4-----4-|

A#|---------------------------------------------------------|
F |---------------------------------------------------------|
C |-10-------------10-------------9------------9------------|
G |---------------------------------------------------------|
D |----8-8-11-10-8----8-8-11-10-8---7-7-10-9-7---7-7-7-8-10-|
A |---------------------------------------------------------|
  |
A#|-----------------------------|
F |-----------------------------|
C |-10-------------10-----------|
G |-----------------------------|
D |----8-8-11-10-8----8-8-11-10-|
A |-----------------------------|

A#|------------------------|
F |---4------------------4-|
C |-------4-5-------4b-----|
G |-2---2-----3-3-3----3---|
D |------------------------|
A |------------------------|

A#|------------------------------------------------------------|
F |-----9-----9-----------8------------------------------------|
C |-------------------------------------10-------------9-----9-|
G |-7-7---7-7---7-6-6-6-6---6-6--------------------------------|
D |-----------------------------8-8-8-8----8-8-7-7-7-7---5-7---|
A |------------------------------------------------------------|

A#|----------------------------------------------------------|
F |-----9-----9-----------8----------------------------------|
C |-------------------------------------10-------------9---9-|
G |-7-7---7-7---7-6-6-6-6---6-6------------------------------|
D |-----------------------------8-8-8-8----8-8-7-7-7-7---7---|
A |----------------------------------------------------------|

A#|-----------------------------------------------------------------------------|
F |-----------------------------------------------------------------------------|
C |-----------------------------------------------------------------------------|
G |-7777777777777777999999999999999910101010101010101010101010101010101010101010
D |-----------------------------------------------------------------------------|
A |-----------------------------------------------------------------------------|

--------------------------------|
--------------------------------|
--------10/12\--9/10\--7--5-4---|
999777--------------------------|
--------8-/10\--7/8-\--5--3-2---|
------------------------------5-|

Interlude

A#|-----------------------|--------------------------|
F |-----------------------|--------------------------|
C |-9----------9----------|------------------------7-| x2
G |-----------------------|--------------------------|
D |---7-7-7-8\---7-7-7-8\-|-7-7-7-7-8-11-7-7-7-7-8---|
A |-----------------------|--------------------------|

Verse 2

A#|-----------------------|--------------------------|
F |-----------------------|--------------------------|
C |-9----------9----------|------------------------7-| x2
G |-----------------------|--------------------------|
D |---7-7-7-8\---7-7-7-8\-|-7-7-7-7-8-11-7-7-7-7-8---|
A |-----------------------|--------------------------|

A#|---------------------|-----------------|
F |---------------------|-----------------|
C |---------------------|-----------------| x4
G |---------------------|-----------------|
D |-----------7-5-7-8---|-------------5-7-|
A |-5-7-8-5-7---------7-|-5-7-8-5-7-8-----|

A#|------------------|----------------|---------------------------------------|
F |------------------|----------------|---------------------------------------|
C |------------------|--------7-------|---------------------------------------| x4
G |-7---7-10-9-6---7-|---7-10---9---7-|-7---7-10-9-6---------------------10-9-|
D |---7----------7---|-7----------7---|---7----------7-8-----8-7-----7-8------|
A |------------------|----------------|------------------7-8-----7-8----------|

A#|-------------------------------------------|
F |-----------------9/10-12-12/13\12-12/16\15-|
C |-------------------------------------------|
G |---------8-8-8-7-7/8--10-10/11\10-10/14\13-|
D |-------------------------------------------|
A |-5-66-68-----------------------------------|

A#|-------------------------------------------------|
F |-----------------------9/10-12-12/13\12-12/16\15-|
C |-------------------------------------------------| x3
G |-8-----7-------8-8-8-7-7/8--10-10/11\10-10/14\13-|
D |-------------------------------------------------|
A |---66-6--56-68-----------------------------------|

A#|--------|
F |--------|
C |--------|
G |-8------|
D |--------|
A |---66-6-|

Guitar solo

A#|--------------------------------------------------|
F |--------------------------------------------------|
C |--------------------------------------------------|
G |--------------------------------------------------|
D |-777777777777777777777777666666666666-------------|
A |-------------------------------------666777666666-|

A#|----------------------------------------------|
F |----------------------------------------------|
C |----------------------------------------------|
G |----------------------------------------------|
D |--------------------------------------------5-|
A |-888888888888888888888888777777777777-5-7-8---|

A#|--------------------------------------------------|
F |--------------------------------------------------|
C |--------------------------------------------------|
G |-777777777777777777777777666666666666-------------|
D |-------------------------------------666777666666-|
A |--------------------------------------------------|

A#|----------------------------------------------|
F |----------------------------------------------|
C |----------------------------------------------|
G |--------------------------------------------5-|
D |-888888888888888888888888777777777777-5-7-8---|
A |----------------------------------------------|

A#|------------------------------------------------------------|
F |-----9-----9-----------8------------------------------------|
C |-------------------------------------10-------------9-----9-|
G |-7-7---7-7---7-6-6-6-6---6-6--------------------------------|
D |-----------------------------8-8-8-8----8-8-7-7-7-7---5-7---|
A |------------------------------------------------------------|

A#|----------------------------------------------------------|
F |-----9-----9-----------8----------------------------------|
C |-------------------------------------10-------------9---9-|
G |-7-7---7-7---7-6-6-6-6---6-6------------------------------|
D |-----------------------------8-8-8-8----8-8-7-7-7-7---7---|
A |----------------------------------------------------------|

A#|-----------------------------------------------------------------------------|
F |-----------------------------------------------------------------------------|
C |-----------------------------------------------------------------------------|
G |-7777777777777777999999999999999910101010101010101010101010101010101010101010|
D |-----------------------------------------------------------------------------|
A |-----------------------------------------------------------------------------|

------------------------------|
------------------------------|
--------10/12\--9/10\--7--5-4-|
999777------------------------|
--------8-/10\--7/8-\--5--3-2-|
------------------------------|

A#|-------------------------------------------------|
F |-------------------------------------------------|
C |-------------------------------------------------|
G |-7-----------7-----------6-----------6-----------|
D |-------------------------------------------------|
A |---5-5-8-7-5---5-5-8-7-5---4-4-7-6-4---4-4-4-6-7-|
  |
A#|-------------------------------------------------|
F |-------------------------------------------------|
C |-------------------------------------------------|
G |-7-----------7-----------6-----------6-----6-----|
D |---------------------------------------5-----5---|
A |---5-5-8-7-5---5-5-8-7-5---4-4-7-6-4-----4-----4-|

Verse 3

A#|---------------------------------------------------------|
F |---------------------------------------------------------|
C |-10-------------10-------------9------------9------------|
G |---------------------------------------------------------|
D |----8-8-11-10-8----8-8-11-10-8---7-7-10-9-7---7-7-7-8-10-|
A |---------------------------------------------------------|
  |
A#|-----------------------------------------|
F |-----------------------------------------|
C |-10-------------10-----------9/10/-------|
G |-----------------------------------------|
D |----8-8-11-10-8----8-8-11-10-7/8/--5-7-8-|
A |-----------------------------------------|

A#|-------------------------------------------------|
F |-------------------------------------------------|
C |-------------------------------------------------|
G |-7-----------7-----------6-----------6-----------|
D |-------------------------------------------------|
A |---5-5-8-7-5---5-5-8-7-5---4-4-7-6-4---4-4-4-6-7-|
  |
A#|-------------------------------------------------|
F |-------------------------------------------------|
C |-------------------------------------------------|
G |-7-----------7-----------6-----------6-----6-----|
D |---------------------------------------5-----5---|
A |---5-5-8-7-5---5-5-8-7-5---4-4-7-6-4-----4-----4-|

A#|---------------------------------------------------------|
F |---------------------------------------------------------|
C |-10-------------10-------------9------------9------------|
G |---------------------------------------------------------|
D |----8-8-11-10-8----8-8-11-10-8---7-7-10-9-7---7-7-7-8-10-|
A |---------------------------------------------------------|
  |
A#|-----------------------------|
F |-----------------------------|
C |-10-------------10-----------|
G |-----------------------------|
D |----8-8-11-10-8----8-8-11-10-|
A |-----------------------------|

Outro

A#|------------------------|
F |---4------------------4-|
C |-------4-5-------4b-----|
G |-2---2-----3-3-3----3---|
D |------------------------|
A |------------------------|

A#|------------------------------------------------------------|
F |-----9-----9-----------8------------------------------------|
C |-------------------------------------10-------------9-----9-|
G |-7-7---7-7---7-6-6-6-6---6-6--------------------------------|
D |-----------------------------8-8-8-8----8-8-7-7-7-7---5-7---|
A |------------------------------------------------------------|

A#|----------------------------------------------------------|
F |-----9-----9-----------8----------------------------------|
C |-------------------------------------10-------------9---9-|
G |-7-7---7-7---7-6-6-6-6---6-6------------------------------|
D |-----------------------------8-8-8-8----8-8-7-7-7-7---7---|
A |----------------------------------------------------------|

A#|-----------------------------------------------------------------------------|
F |-----------------------------------------------------------------------------|
C |-----------------------------------------------------------------------------|
G |-7777777777777777999999999999999910101010101010101010101010101010101010101010|
D |-----------------------------------------------------------------------------|
A |-----------------------------------------------------------------------------|

------------------------------|
------------------------------|
--------10/12\--9/10\--7--5-4-|
999777------------------------|
--------8-/10\--7/8-\--5--3-2-|
------------------------------|

A#|-----------|
F |-----------|
C |-----------|
G |-----------|
D |-----------|
A |-5-5-5-5-5-|

Legend
------
| / = slide up
| \ = slide down
comments
print report bad tab
I want to post or [tab]
guest
You may want to rate the tab now too:
select rating
Please do not post tabs as comments. Select "correction" instead!