Oops, an error
Loading. Please wait.

Youve Got It Bad Tab

ver2
ver2

Whole song

Interactive

More versions @911Tabs.com
2,136 views 3 this week
no commentswrite comment
1 2 3 4 5
excellent!
x 2
Autoscroll
+/-
esc
set tempo
stop
Contributor
WARNING: You are trying to view
                                    content from Ultimate-Guitar.com
                                    in an unauthorized application,
                                    which is prohibited.

                                    Please use an official Ultimate
                                    Guitar Tabs application for iPhone,
                                    iPad or Android to access legitimate
                                    chords, guitar, bass, and drum tabs
                                    from Ultimate-Guitar.com database.

                                    Type "ultimate guitar tabs" in Apple
                                    App Store's or Android Market's
                                    search to find the application.
                    YOUVE GOT IT BAD
                        As recorded by Ocean Colour Scene
                      (From the 1997 Album MOSELEY SHOALS)

Words and Music by Simon Fowler, Steve Cradock, Oscar Harrison and Damon Minchella


           F                   Eb                   F/C                 Bb/D
    x 8 10 10 10 x         x 6 8 8 8 x        x x 10 10 10 x       x x 12 10 11 x

          F5                   Eb5                  E5                  F6/C
     x 8 10 x x x          x 6 8 x x x          x 7 9 x x x        x x 10 10 10 10

        Eb6/Bb                G#/C                 Eb/Bb                Fmaj7
      x x 8 8 8 8         x x 10 8 9 x          x x 8 8 8 x          1 3 3 2 1 0

        Ebmaj7
      x 6 8 7 8 6

Gtr I (E A D G B E) - 'Untitled'
Gtr II (E A D G B E) - 'Untitled'
Gtr III (E A D G B E) - 'clean elec w/amp tremolo and reverb'

 Intro
  Q=144
  F
 4/4
  Gtr I
   q   a  Q   Q   Q     Q   Q   Q   Q
|--------------------|------------------|
|-----10h11--10------|------------------|
|----------------10--|------------------|
|--------------------|-10---8---7---8---|
|--8-----------------|------------------|
|--------------------|------------------|
|
| Gtr II
|  Q      Q   Q   Q     Q   Q   Q   E E
|--------------------|------------------|
|-10-----10--10--10--|-10--10--10--10---|
|-10-----10--10--10--|-10--10--10--10---|
|-10-----10--10--10--|-10--10--10--10---|
|--8------8---8---8--|--8---8---8---8-0-|
|--------------------|------------------|


  Eb
   Q        a  Q         Q        Q
|-------------------------------------------|
|-----------8h=9---------8------------------|
|---------------------------------8---------|
|-------------------------------------------|
|-10----------------------------------------|
|-------------------------------------------|
|
|  S  S S S    S  S S  S S S  S S S  S S S
|-------------------------------------------|
|-------------------------------------------|
|-------------------------------------------|
|-------8--------10------8------8------8----|
|--8h10---8h==10----8h10---8h10---8-10---8--|
|-------------------------------------------|


                                  F
  +H.                       Q      q   a  Q   Q   Q     Q   Q   Q   Q
|-------------------------------|--------------------|------------------|
|-------------------------------|-----10h11--10------|------------------|
|-(8)---------------------------|----------------10--|------------------|
|---------------------------8---|--------------------|-10---8---7---8---|
|-------------------------------|--8-----------------|------------------|
|-------------------------------|--------------------|------------------|
|
|  S  S S  S S S  S S S  E. E E    Q      Q   Q   Q     Q   Q   Q   E E
|-------------------------------|--------------------|------------------|
|-------------------------------|-10-----10--10--10--|-10--10--10--10---|
|-------------------------------|-10-----10--10--10--|-10--10--10--10---|
|-----8------8------8-----------|-10-----10--10--10--|-10--10--10--10---|
|-10----8-10---8-10---8-10--x---|--8------8---8---8--|--8---8---8---8-0-|
|-----------------------------x-|--------------------|------------------|


  Eb
   q        a  Q         Q        Q          +H.                       Q
|------------------------------------------|-------------------------------||
|-----------8h=9---------8-----------------|-------------------------------||
|---------------------------------8--------|-(8)---------------------------||
|------------------------------------------|---------------------------8---||
|-10---------------------------------------|-------------------------------||
|------------------------------------------|-------------------------------||
|
|  S  S S S    S  S S  S S S  S S S  S S S    S  S S  S S S  S S S  E. E E
|------------------------------------------|-------------------------------||
|------------------------------------------|-------------------------------||
|------------------------------------------|-------------------------------||
|-------8--------10------8------8------8---|-----8------8------8-----------||
|--8h10---8h==10----8h10---8h10---8-10---8h|=10----8-10---8-10---8-10--x---||
|------------------------------------------|-----------------------------x-||


   Verse
    $
    F/C            Bb/D   F/C                               Eb/Bb       G#/C
    Gtr II
     E E  E E E  E  E E    E E E E  H                       E E E E E E  E E
     |    |      |  |      |   |                            |   |     |  |
     /    /      /  /      /   /                            /   /     /  /

    Gtr I
     E E  E E E  E  E E    E E E E  S  S  S  S  S  S  S S   E E E E E E  E E
||----------------------|---------------------------------|------------------|
||o-10---10---x-10-11---|-10---x--------------------------|-8---8---x-8--9---|
||--10---10---x-10-10---|-10---x--------------------------|-8---8---x-8--8---|
||--10---10---x-10-12---|-10---x---------------10h12p10---|-8---8---x-8-10---|
||o---------------------|----------10h12p10h12------------|------------------|
||----------------------|---------------------------------|------------------|


  Eb/Bb                       F/C            Bb/D
  E E E E H                    E E  E E E  E  E E
  |   |                        |    |      |  |
  /   /                        /    /      /  /

  E E E E S  S S S S  S S S    E E  E E E  E  E E
|---------------------------|---------------------|
|-8---x---------------------|-10---10---x-10-11---|
|-8---x---------------------|-10---10---x-10-10---|
|-8---x------------8h10p8---|-10---10---x-10-12---|
|---------8h10p8------------|---------------------|
|---------------------------|---------------------|


  F/C
   E E E E  H
   |   |
   /   /

   E E E E  S  S  S  S  S  S  S S
|---------------------------------|
|-10---x--------------------------|
|-10---x--------------------------|
|-10---x---------------10h12p10---|
|----------10h12p10h12------------|
|---------------------------------|


  Eb/Bb       G#/C   Eb/Bb                       F5
  E E E E E E  E E   E E E E H                    Q   Q   Q   Q
  |   |     |  |     |   |                        |   |   |   |
  /   /     /  /     /   /                        /   /   /   /

  E E E E E E  E E   E E E E S  S S S S  S S S    Q   Q   Q   Q
|------------------|---------------------------|-----------------|
|-8---8---x-8--9---|-8---x---------------------|-----------------|
|-8---8---x-8--8---|-8---x---------------------|-----------------|
|-8---8---x-8-10---|-8---x------------8h10p8---|-10--10--10--10--|
|------------------|---------8h10p8------------|--8---8---8---8--|
|------------------|---------------------------|-----------------|


                     Eb5                    E5   F5
   Q   Q   Q   Q     Q  Q  Q  Q    Q  Q  Q  Q     Q   Q   Q   Q
   |   |   |   |     |  |  |  |    |  |  |  |     |   |   |   |
   /   /   /   /     /  /  /  /    /  /  /  /     /   /   /   /

   Q   Q   Q   E E   Q  Q  Q  Q    Q  Q  Q  Q     Q   Q   Q   Q
|------------------|-------------|-------------|------------------|
|------------------|-------------|-------------|------------------|
|------------------|-------------|-------------|------------------|
|-10--10--10--10-x-|-8--8--8--8--|-8--8--8--9--|-10--10--10--10---|
|--8---8---8---8-x-|-6--6--6--6--|-6--6--6--7--|--8---8---8---8---|
|------------------|-------------|-------------|------------------|


                     Eb5                    E5
   Q   Q   Q   Q     Q  Q  Q  Q    Q  Q  Q  Q
   |   |   |   |     |  |  |  |    |  |  |  |
   /   /   /   /     /  /  /  /    /  /  /  /

   Q   Q   Q   E E   Q  Q  Q  Q    Q  Q  Q  Q
|------------------|-------------|-------------||
|------------------|-------------|-------------||
|------------------|-------------|-------------||
|-10--10--10--10-x-|-8--8--8--8--|-8--8--8--9--||
|--8---8---8---8-x-|-6--6--6--6--|-6--6--6--7--||
|------------------|-------------|-------------||


 Chorus
  F6/C
  Gtr II
   Q   S S S S  S S S S  S S S S
   |   | | | |  | | | |  | | | |
   /   / / / /  / / / /  / / / /

  Gtr I
   Q   Q        Q        Q
|--------------------------------|
|--------------------------------|
|--------------------------------|
|-10--10-------10-------10-------|
|--8---8--------8--------8-------|
|--------------------------------|


                                           Eb6/Bb
  S S  S S S S  S S   S  S  S S S S  S S   Q   S S S S  S  S S  S S S S S
  | |  | | | |  | |   |  |  | | | |  | |   |   | | | |  |  | |  | | | | |
  / /  / / / /  / /   /  /  / / / /  / /   /   / / / /  /  / /  / / / / /

  E    Q        E    +E     Q        E     E Q     E   +E    Q.
|----------------------------------------|--------------------------------|
|-----10-------------------10------------|---8----------------------------|
|--------------10---(10)------------10s==|=8-------8---(8)---8------------|
|----------------------------------------|--------------------------------|
|----------------------------------------|--------------------------------|
|----------------------------------------|--------------------------------|


                                        F6/C
   S  S S S S S S S  S  S S S S S S S    Q   S S S S   S  S  S S  S S S S
   |  | | | | | | |  |  | | | | | | |    |   | | | |   |  |  | |  | | | |
   /  / / / / / / /  /  / / / / / / /    /   / / / /   /  /  / /  / / / /

  +Q.           E   +E    Q.             Q   Q        +E     E    Q
|-------------------------------------|-----------------------------------|
|---------------8---(8)---------------|-----10-------(10)--------10-------|
|-(8)---------------------8S==========|=10------------------10------------|
|-------------------------------------|-----------------------------------|
|-------------------------------------|-----------------------------------|
|-------------------------------------|-----------------------------------|


                                               Eb6/Bb
    S  S  S S  S S  S S   S  S  S S S S  S S   Q   S S S S  S  S S S S S S S
    |  |  | |  | |  | |   |  |  | | | |  | |   |   | | | |  |  | | | | | | |
    /  /  / /  / /  / /   /  /  / / / /  / /   /   / / / /  /  / / / / / / /

   +E     E    E    E    +E     Q        E     E Q     E   +E    Q       E
|--------------------------------------------|-------------------------------|
|-(10)--------10---------------10------------|---8---------------8-----------|
|--------10--------10---(10)------------10S==|=8-------8---(8)-----------8---|
|--------------------------------------------|-------------------------------|
|--------------------------------------------|-------------------------------|
|--------------------------------------------|-------------------------------|


                                        F
   S  S S S S S S S  S  S S S S S S S    W            W
   |  | | | | | | |  |  | | | | | | |
   /  / / / / / / /  /  / / / / / / /

  +E    E   E   E   +E    Q       E      W           +W
|-------------------------------------|-----------|---------|
|-------8-----------------8-----------|-10--------|-(10)----|
|-(8)-------8---8---(8)-----------8---|-10--------|-(10)----|
|-------------------------------------|-10--------|-(10)----|
|-------------------------------------|--8--------|--(8)----|
|-------------------------------------|-----------|---------|


            1.               2.
    To Coda
  Eb
  W          +H.      Q       W
|-8--------|-(8)----------||--8----||
|-8--------|-(8)---------o||--8----||
|-8--------|-(8)----------||--8----||
|-8--------|-(8)------x---||--8----||
|-6--------|-(6)------x--o||--6----||
|----------|----------x---||-------||


 Guitar Solo
  Bb/D    F/C Bb/D    F/C   Bb/D    F/C Bb/D    F/C
  Gtr II
  S S S S E E S S S S E E   S S S S E E S S S S E   E
  | | | | |   | | | | |     | | | | |   | | | | |
  / / / / /   / / / / /     / / / / /   / / / / /

  Gtr I
  Q       E E Q       E E   Q       E E E   S S S S S S
|-------------------------|-----------------------------|
|-------------------------|-----------------------------|
|-------------------------|-----------------------------|
|-------------------------|---------------------1-------|
|-------------------------|-----------------1h3---3-1h3-|
|-1-------x-1-1-------x-1-|-1-------x-1-1---------------|


  G#/C    Eb/BG#/C      Eb/Bb G#/C      Eb/BG#/C      Eb/Bb
  S S S S E E  S  S S S E E    S  S S S E E  S  S S S E   E
  | | | | |    |  | | | |      |  | | | |    |  | | | |
  / / / / /    /  / / / /      /  / / / /    /  / / / /

  Q       e E +Q.         E   +Q        E E +E    S S S S S S
|---------------------------|---------------------------------|
|---------------------------|---------------------------------|
|---------------------------|---------------------------------|
|-1---------1-(1)---------1-|-(1)---------1-(1)-------1-------|
|---------1-----------------|-----------0---------1h3---3-1h3-|
|---------------------------|---------------------------------|


  Bb/D    F/C Bb/D    F/C   Bb/D    F/C Bb/D    F/C
  S S S S E E S S S S E E   S S S S E E S S S S E   E
  | | | | |   | | | | |     | | | | |   | | | | |
  / / / / /   / / / / /     / / / / /   / / / / /

  Q       E E Q       E E   Q       E E E   S S S S S S
|-------------------------|-----------------------------|
|-------------------------|-----------------------------|
|-------------------------|-----------------------------|
|-------------------------|---------------------1-------|
|-------------------------|-----------------1h3---3-1h3-|
|-1-------x-1-1-------x-1-|-1-------x-1-1---------------|


  G#/C    Eb/BG#/C    Eb/Bb G#/C    Eb/BG#/C                Eb/Bb
  S S S S E E S S S S E E   S S S S E E S S  S      S         E    E
  | | | | |   | | | | |     | | | | |   | |  |      |         |
  / / / / /   / / / / /     / / / / /   / /  /      /         /

  W                         H           E    S     +S        +E   +E
|-------------------------|-------------------------------------------|
|-------------------------|-----------------16b18-(16)pb18==(16)r(16)-|
|-------------------------|-------------------------------------------|
|-------------------------|-------------------------------------------|
|-------------------------|-------------------------------------------|
|-------------------------|-------------------------------------------|


  (F)
   Q   +Q    Q   S  S  S  S    e  Q.    +E   S  S  S  S  S  S
|---------------------------|---------------------------------|
|---------------------------|----13----(13)-------------------|
|-13--(13)\-----------------|----13----(13)-------------------|
|---------------15p13h15p13-|-13------------15p13h15p13h15p13-|
|---------------------------|---------------------------------|
|---------------------------|---------------------------------|


  (Eb)
   E     S  S  Q  E E  E     S  S
|---------------------------------|
|---------------------------------|
|-15b17r15p13---------15b17r15p13-|
|-------------15--x---------------|
|---------------------------------|
|---------------------------------|


                                       (F)
   Q   +Q    S S  a  S S  S  S  S  S    a  Q   Q   Q   Q     Q   Q   Q   Q
|------------------------------------|--------------------|------------------|
|------------------------------------|--------------------|------------------|
|------------------------------------|--------------------|---------13--15---|
|-15--(15)\----x---------13-13-------|--------------------|-13--15-----------|
|--------------x-13h15---13-13-13h15-|--------11--13--15--|------------------|
|------------------------------------|-11s13--------------|------------------|


  (Eb)
   |3-|  |3-|  |3-|  |3-|
   Q  E  Q  E  Q  E  Q  E    Q      +H     Q
|-------------13-13-16-16-|-16b18--(16)--------||
|-13-13-16-16-------------|--------------------||
|-------------------------|----------------x\--||
|-------------------------|----------------x\--||
|-------------------------|--------------------||
|-------------------------|--------------------||


  (F)
  Gtr I
   S  S  E  E  E  E  E  E  E    E  S  S  +E   E  +E   E  E  E
|----------------------------|--------------------------------|
|----------------------------|-----------------------------13-|
|----------13----13----------|---------------13-(13)----13----|
|-------15-13-15-13-15-13-13-|-13-13s15-(15)-13-(13)-15-------|
|-13s15----------------------|--------------------------------|
|----------------------------|--------------------------------|


  (Eb)
   S     S  S  S     S  S  S     S  S  S     S  S  S     S  S  S
|-------------------------------------------------------------------|
|----------13----------13----------13----------13----------13-------|
|-15b17-17----15b17-17----15b17-17----15b17-17----15b17-17----15b17-|
|-------------------------------------------------------------------|
|-------------------------------------------------------------------|
|-------------------------------------------------------------------|


   S  S  S     +S   E     +E   +Q.    a  e
|------------------------------------15h16-|
|-13-13-16b18-(16)-16b18-(16)-(16)---------|
|------------------------------------------|
|------------------------------------------|
|------------------------------------------|
|------------------------------------------|


  (F)                                                (Eb)
                                                     \1
   E     Q.        +E   E  Q     +E   E  Q  Q   q    W
|-16b18-16pb18====(16)r16-----|--------------------|----------|
|-----------------------------|--------------------|----------|
|-------------------------13--|-(13)-13\-------10--|-8tr10----|
|-----------------------------|--------------------|----------|
|-----------------------------|--------------------|----------|
|-----------------------------|--------------------|----------|


                   (F)
  +W               +W               +W
|----------------|----------------|----------------|
|----------------|----------------|----------------|
|-(8tr10)--------|-(8tr10)--------|-(8tr10)--------|
|----------------|----------------|----------------|
|----------------|----------------|----------------|
|----------------|----------------|----------------|


  (Eb)
                          |-----3-----|
   +W               H     Q     Q     Q
|-----------------|------15----15----15------||
|-----------------|------18b20-18b20-18b20---||
|--(8tr10)--------|--------------------------||
|-----------------|--------------------------||
|-----------------|--------------------------||
|-----------------|--------------------------||


 Bridge
  Fmaj7                   Ebmaj7
  Gtr III
  W          +W           H     H      +W
|-0--------|-(0)--------|------!6----|-(6)----|
|-1--------|-(1)--------|------!8----|-(8)----|
|-2--------|-(2)--------|------!7----|-(7)----|
|-3--------|-(3)--------|------!8----|-(8)----|
|-3--------|-(3)--------|------!6----|-(6)----|
|-1--------|-(1)--------|------------|--------|


                                         D.S. al Coda
  Fmaj7                         Ebmaj7
  Q  E  E +H       +W           Q  E  E +H       +W
|------!0-(0)----|-(0)--------|------!6-(6)----|-(6)-----||
|------!1-(1)----|-(1)--------|------!8-(8)----|-(8)-----||
|------!2-(2)----|-(2)--------|------!7-(7)----|-(7)-----||
|------!3-(3)----|-(3)--------|------!8-(8)----|-(8)-----||
|------!3-(3)----|-(3)--------|------!6-(6)----|-(6)-----||
|------!1-(1)----|-(1)--------|----------------|---------||


  &
  Eb               F
                   Gtr I
  |-3-| |3|
  Q Q Q Q H         q   a  Q   Q   Q     Q   Q   Q   Q
|--------------||---------------------|------------------|
|--------------||o-----10h11--10------|------------------|
|---7-6-5-4----||-----------------10--|------------------|
|--------------||---------------------|-10---8---7---8---|
|--------------||o--8-----------------|------------------|
|--------------||---------------------|------------------|
|
|                  Gtr II
| W                 Q      Q   Q   Q     Q   Q   Q   E E
|--------------||---------------------|------------------|
|--------------||o-10-----10--10--10--|-10--10--10--10---|
|--------------||--10-----10--10--10--|-10--10--10--10---|
|--------------||--10-----10--10--10--|-10--10--10--10---|
|--------------||o--8------8---8---8--|--8---8---8---8-0-|
|--------------||---------------------|------------------|


  Eb
   q        a  Q         Q        Q          +H.                       Q
|------------------------------------------|--------------------------------||
|-----------8h=9---------8-----------------|-------------------------------o||
|---------------------------------8--------|-(8)----------------------------||
|------------------------------------------|---------------------------8----||
|-10---------------------------------------|-------------------------------o||
|------------------------------------------|--------------------------------||
|
|  S  S S S    S  S S  S S S  S S S  S S S    S  S S  S S S  S S S  E. E E
|------------------------------------------|--------------------------------||
|------------------------------------------|-------------------------------o||
|------------------------------------------|--------------------------------||
|-------8--------10------8------8------8---|-----8------8------8------------||
|--8h10---8h==10----8h10---8h10---8-10---8h|=10----8-10---8-10---8-10--x---o||
|------------------------------------------|-----------------------------x--||


  F                                  Eb
  Gtr I
  q   a  Q   Q   Q     Q  Q  Q  Q     Q  a Q  Q  Q    +W
|-------------------|--------------|----------------|--------||
|----10h11--10------|--------------|-----8h9--8-----|--------||
|---------------10--|--------------|-------------8--|-(8)----||
|-------------------|-10--8--7--8--|----------------|--------||
|-8-----------------|--------------|-10-------------|--------||
|-------------------|--------------|----------------|--------||


 Outro
  (F)
  Gtr II
  PM------------------------------------------------------------------|
  E E E E E E E E   E E E E E E E E   E E E E E E E E   E E E E E E E E
|-----------------|-----------------|-----------------|------------------|
|-----------------|-----------------|-----------------|------------------|
|-----------------|-----------------|-----------------|------------------|
|-----------------|-----------------|-----------------|------------------|
|-----------------|-----------------|-----------------|------------------|
|-4-1-1-1-4-1-1-1-|-4-1-1-1-4-1-1-1-|-4-1-1-1-4-1-1-1-|-4-1-1-1-4-1-1-1--|


  PM------------------------------------------------------------------|
  E E E E E E E E   E E E E E E E E   E E E E E E E E   E E E E E E E E
|-----------------|-----------------|-----------------|------------------|
|-----------------|-----------------|-----------------|------------------|
|-----------------|-----------------|-----------------|------------------|
|-----------------|-----------------|-----------------|------------------|
|-----------------|-----------------|-----------------|------------------|
|-4-1-1-1-4-1-1-1-|-4-1-1-1-4-1-1-1-|-4-1-1-1-4-1-1-1-|-4-1-1-1-4-1-1-1--|


  Gtr III
  W          +W           +W           W
|----------|------------|------------|------|
|----------|------------|------------|------|
|-2--------|-(2)--------|-(2)--------|-2----|
|-3--------|-(3)--------|-(3)--------|-3----|
|-3--------|-(3)--------|-(3)--------|-3----|
|-1--------|-(1)--------|-(1)--------|-1----|


  S S S S S S S S S S S S S S S S   S S S S S S S S S S S S S S S S
|-------------------------4-4-4-4-|-------------------------4-4-4-4-|
|-6-6-6-6-x-x-x-x-x-x-x-x---------|-6-6-6-6-x-x-x-x-x-x-x-x---------|
|-4-4-4-4-x-x-x-x-x-x-x-x---------|-4-4-4-4-x-x-x-x-x-x-x-x---------|
|---------------------------------|---------------------------------|
|---------------------------------|---------------------------------|
|---------------------------------|---------------------------------|


  S S S S S S S S S S S S S S S S   S S S S S S S S S S S S S S S S
|-------------------------4-4-4-4-|-----------------4p1-------------|
|-6-6-6-6-x-x-x-x-x-x-x-x---------|-6-6-6-6-x-x-x-x-----x-x-4p1-----|
|-4-4-4-4-x-x-x-x-x-x-x-x---------|-4-4-4-4-x-x-x-x-------------1-x-|
|---------------------------------|---------------------------------|
|---------------------------------|---------------------------------|
|---------------------------------|---------------------------------|


  W          +W           +W           W          Q  Q  H
|----------|------------|------------|----------|------------*|
|----------|------------|------------|----------|------------*|
|-2--------|-(2)--------|-(2)--------|-2--------|-x----------*|
|-3--------|-(3)--------|-(3)--------|-3--------|-x----------*|
|-3--------|-(3)--------|-(3)--------|-3--------|-x----------*|
|-1--------|-(1)--------|-(1)--------|-1--------|-x----------*|


Duration Legend
---------------
W - whole; H - half; Q - quarter; E - 8th; S - 16th; T - 32nd; X - 64th; a - acciaccatura
+ - note tied to previous; . - note dotted; .. - note double dotted
Uncapitalized letters represent notes that are staccato (1/2 duration)
Irregular groupings are notated above the duration line
Duration letters will always appear directly above the note/fret number it represents the
duration for.  Duration letters with no fret number below them represent rests.  Multi-
bar rests are notated in the form Wxn, where n is the number of bars to rest for.  Low
melody durations appear below the staff

Tablature Legend
----------------
 h   - hammer-on
 p   - pull-off
 b   - bend
 pb  - pre-bend
 r   - bend release (if no number after the r, then release immediately)
 /\  - slide into or out of (from/to "nowhere")
 s   - legato slide
 S   - shift slide
<n>  - natural harmonic
[n]  - artificial harmonic
n(n) - tapped harmonic
 ~   - vibrato
 tr  - trill
 T   - tap
 TP  - trem. picking
 PM  - palm muting
\n/  - tremolo bar dip; n = amount to dip
 \n  - tremolo bar down
 n/  - tremolo bar up
/n\  - tremolo bar inverted dip
 =   - hold bend; also acts as connecting device for hammers/pulls
 <>  - volume swell (louder/softer)
 x   - on rhythm slash represents muted slash
 o   - on rhythm slash represents single note slash

Misc Legend
-----------
 |  - bar
||  - double bar
||o - repeat start
o|| - repeat end
*|  - double bar (ending)
 :  - bar (freetime)
 $  - Segno
 &  - Coda
Tempo markers - <E/E./Q/Q./H/H.> = BPM(8/16=s8/s16), where s8 = swing 8ths, s16 = swing 16ths

comments
We did not receive enough feedback on this tab! Please rate:
print report bad tab
1 2 3 4 5
I want to post or [tab]
guest
You may want to rate the tab now too:
select rating
Please do not post tabs as comments. Select "correction" instead!