Oops, an error
Loading. Please wait.

You Wish Tab

2,512 views 12 this week
3 commentsread comments
1 2 3 4 5
worth learning
x 6
Autoscroll
+/-
esc
set tempo
stop
Tuning
D A D G B E
WARNING: You are trying to view
                                    content from Ultimate-Guitar.com
                                    in an unauthorized application,
                                    which is prohibited.

                                    Please use an official Ultimate
                                    Guitar Tabs application for iPhone,
                                    iPad or Android to access legitimate
                                    chords, guitar, bass, and drum tabs
                                    from Ultimate-Guitar.com database.

                                    Type "ultimate guitar tabs" in Apple
                                    App Store's or Android Market's
                                    search to find the application.
1:32

E |------------------------------------------------|
B |---------------6-----6--5------5-----5-5--6-----|
G |--6------------7-----7--6------6-----6-6--7-----|
D |----7----------7-----7--6--7---6-----6-6--7-----|  (x4)
A |------8-4-5--5-5-----5--4--5---4-----4-4--5-----|
D |-----------------0-0-------0-----0-0------------|
                    p p             p p

1:55 - "Save this and swallow..."

E |--------------------------------------------------------------------------------------------|
B |----------------------------------14-14-14--------------------------------------------------|
G |-10-10-10-10-12-10-10-10-12-10-10-10-10-10--------7-7-7-7-7-7-7-7-7-7-7-7-7-7-7-------------|
D |-10-10-10-10-10-10-10-10-10-10-10-10-10-10--(x2)--7-7-7-7-7-7-7-7-7-7-7-7-7-7-7--(x2)-------|
A |-8--8--8--8--8--8--8--8--8--8--8--8--8--8---------5-5-5-5-5-5-5-5-5-5-5-5-5-5-5-------------|
D |--------------------------------------------------------------------------------------------|

E |---------------------------------------------------|
B |----------------------------------14-14-14---------|
G |-10-10-10-10-12-10-10-10-12-10-10-10-10-10---------|
D |-10-10-10-10-10-10-10-10-10-10-10-10-10-10--(x2)---|
A |-8--8--8--8--8--8--8--8--8--8--8--8--8--8----------|
D |---------------------------------------------------|

E |---------------------------------------------------------------------||
B |---------------------------------------------------------------------||
G |--7--7-7-7--7-7-7--7-7--7-5-7-7-7-5-7-7-7-7--7-7-7--7-7-7-7-7-7-7----||
D |---------------------------------------------------------------------||
A |---------------------------------------------------------------------||
D |---------------------------------------------------------------------||
   												||
           											||
E |---------------------------------------------------------------------||
B |---------------------------------------------------------------------||
G |---------------------------------------------------------------------||
D |--3----3-3----3-3--5-5--5-0--0----3----3-3----3-3--5-5--5-0--0-------||
A |--3----3-3----3-3--5-5--5-0--0----3----3-3----3-3--5-5--5-0--0-------||
D |--3----3-3----3-3--5-5--5-0--0----3----3-3----3-3--5-5--5-0--0-------||


E |-----------------------------------------------------------||
B |-----------------------------------------------------------||
G |-7-5-5-5-5--5-5-0-2-2-2--0---------------------------------||
D |---------------------------3-3-3/5-5-5-5--5-5-7-7-7-7--5---||
A |-----------------------------------------------------------||
D |-----------------------------------------------------------||
										  ||
										  ||
E |-----------------------------------------------------------||
B |-----------------------------------------------------------||
G |-----------------------------------------------------------||
D |-3----3-3----3-3--5-5--5-0--0----3----3-3----3-3--5-5------||
A |-3----3-3----3-3--5-5--5-0--0----3----3-3----3-3--5-5------||
D |-3----3-3----3-3--5-5--5-0--0----3----3-3----3-3--5-5------||

E |--------------------------------------------------------------------------------------------|
B |--------------------------------------------------------------------------------------------|
G |-10-10-10-10-10-10-10-10-10-10-10-10-10-10--------7-7-7-7-7-7-7-7-7-7-7-7-7-7-7-------------|
D |-10-10-10-10-10-10-10-10-10-10-10-10-10-10--(x2)--7-7-7-7-7-7-7-7-7-7-7-7-7-7-7--(x2)-------|
A |-8--8--8--8--8--8--8--8--8--8--8--8--8--8---------5-5-5-5-5-5-5-5-5-5-5-5-5-5-5-------------|
D |--------------------------------------------------------------------------------------------|

E |-----------------------------------------------------------------------------------------------------------------------|
B |-----------------------------------------------------------------------------------------------------------------------|
G |-10-10-10-10-10-10-10-10-10-10-10-10-10-10-----------------------------------------------------------------------------|
D |-10-10-10-10-10-10-10-10-10-10-10-10-10-10--(x2)--3--3-3--3-3-5--5--5-0-0-3--3-3--3-3-5--5--5-0-0-3--3-3--3-3-5-5-5-5-5|
A |-8--8--8--8--8--8--8--8--8--8--8--8--8--8---------3--3-3--3-3-5--5--5-0-0-3--3-3--3-3-5--5--5-0-0-3--3-3--3-3-5-5-5-5-5|
D |--------------------------------------------------3--3-3--3-3-5--5--5-0-0-3--3-3--3-3-5--5--5-0-0-3--3-3--3-3-5-5-5-5-5|


2:57 - "Perfectionist..."


E |--------------------------------------------------------------------------------------------------------------|
B |--------------------------------------------------------------------------------------------------------------|
G |--------------------------------------------------------------------------------------------------------------|
D |-0-0-0-0--10-10-10--8-8-8-5-5-5-5--0-0-0-0--10-10-10--8-8-8-11-11-11-11--0-0-0-0--10-10-10--8-8-8-5-5-5-5-----|
A |-0-0-0-0--10-10-10--8-8-8-5-5-5-5--0-0-0-0--10-10-10--8-8-8-11-11-11-11--0-0-0-0--10-10-10--8-8-8-5-5-5-5-----|
D |-0-0-0-0--10-10-10--8-8-8-5-5-5-5--0-0-0-0--10-10-10--8-8-8-11-11-11-11--0-0-0-0--10-10-10--8-8-8-5-5-5-5-----|

E |----------------------------------------------------------------------------------------------------------------------|
B |----------------------------------------------------------------------------------------------------------------------|
G |----------------------------------------------14-14-14--12-12-12-12-12-12-12-----------14-14-14--12-12-12--13--12-10--|
D |-12-12-12--10-10-10--8-8-8--5-5-5----0-0-0-0--10-10-10--8--8--8--8--8--8--8---0-0-0-0--10-10-10--8--8--8---11-(11)-0--|
A |-12-12-12--10-10-10--8-8-8--5-5-5----0-0-0-0--10-10-10--8--8--8--8--8--8--8---0-0-0-0--10-10-10--8--8--8---11-(11)-0--|
D |-12-12-12--10-10-10--8-8-8--5-5-5----0-0-0-0--10-10-10--8--8--8--8--8--8--8---0-0-0-0--10-10-10--8--8--8---11-(11)-0--|
																	       (let "10" ring)

E |--------------------------------------------------------------------------------------------------------|
B |--------------------------------------------------------------------------------------------------------|
G |----------14-14-14--12-12-12-12-12-12-12----------------------------------------------------------------|
D |-0-0-0-0--10-10-10--8--8--8--8--8--8--8--12-12-12-0-10-10-10-0-8-8-8-0-5-5-5--0----------0--0-----------|
A |-0-0-0-0--10-10-10--8--8--8--8--8--8--8--12-12-12-0-10-10-10-0-8-8-8-0-5-5-5--0--(hold)--0--0---(hold)--|
D |-0-0-0-0--10-10-10--8--8--8--8--8--8--8--12-12-12-0-10-10-10-0-8-8-8-0-5-5-5--0----------0--0-----------|

3:44


E |------------------------------------------------------------|
B |------------------------------------------------------------|
G |------------------------------------------------------------|
D |-------------0-----1-----3-------------0-----1-----3--------| (x6)
A |-----------------0-----0-----3 / 1-0-------0-----0-----3----|
D |-(slide)-0-0---0-----0-----0---------0---0-----0-----0------|
            p p   p     p     p         p   p     p     p

4:16 to 4:26 - "GET UP!"


E |---------------------------------------------------------------------------------------------------------|
B |-------------------------------------------------------------------------------------------------5-5-6-8-|
G |------7-----8---10---5--3-2---7-----8---10---5--------7-----8---10---5--3-2---7-----8---10---5-----------|
D |-0-0------------------------0--------------------0-0----------------------0-0----------------------------|
A |-0-0--5-----6----8---3--1-0-0-5-----6----8---3---0-0--5-----6----8---3--1-0-0-5-----6----8---3-----------|
D |-0-0----0-0--0-0---0--------0---0-0--0-0---0-----0-0----0-0--0-0---0--------0---0-0--0-0---0-------------|


4:27


E |-------------------------------------------------------------------------------------------------------------------|
B |-------------------------------------------------------------------------------------------------------------------|
G |-9-9-9-9-9-9-9-9-10-10-10-14-14-14--9-9-9-9-9-9-9-9-10-10-10-14-14-14--12h14-14-14-14-14-14-14-15-15-15------------|
D |--------------------------------------------------------------------------------------------------------15-15-15---|
A |-------------------------------------------------------------------------------------------------------------------|
D |-------------------------------------------------------------------------------------------------------------------|

E |-----------------------------------------------------------------------------------------------------------------------|
B |-----------------------------------------------------------------------------------------------------------------------|
G |-14-14-14-14-14-14-14-14-15-15-15-10-10-10-10-10--9-9-9-9-9-9-9-9-10-10-10-14-14-14--9-9-9-9-9-9-9-9-10-10-10-14-14-14-|
D |-----------------------------------------------------------------------------------------------------------------------|
A |-----------------------------------------------------------------------------------------------------------------------|
D |-----------------------------------------------------------------------------------------------------------------------|

4:46


E |----------------------------------------------------------------------------------------------------------------------||
B |----------------------------------------------------------------------------------------------------------------------||
G |5-7-7-7-7--7-7-7-7--7-7--7-5-7-7-7-5-7-7-7-7--7-7-7-7--7-7--7-7-7-7-7-5-5-5-5--5-5-0-2-2-2--0-------------------------||
D |----------------------------------------------------------------------------------------------3-3-3/5-5-5-5--5-5-7-7-7||
A |----------------------------------------------------------------------------------------------------------------------||
D |----------------------------------------------------------------------------------------------------------------------||
																				 ||
E |----------------------------------------------------------------------------------------------------------------------||
B |----------------------------------------------------------------------------------------------------------------------||
G |----------------------------------------------------------------------------------------------------------------------||
D |3----3-3-------3-3--5-5--5-0--0----3----3-3----3-3--5-5--5-0--0-3---3-3-----3-3--5-5--5-0-0-3----3-3---3-3--5-5--5----||
A |3----3-3-------3-3--5-5--5-0--0----3----3-3----3-3--5-5--5-0--0-3---3-3-----3-3--5-5--5-0-0-3----3-3---3-3--5-5--5----||
D |3----3-3-------3-3--5-5--5-0--0----3----3-3----3-3--5-5--5-0--0-3---3-3-----3-3--5-5--5-0-0-3----3-3---3-3--5-5--5----||

E |---------||
B |---------||
G |---------||
D |-5-3--3--||
A |---------||
D |---------||
		||
E |---------||
B |---------||
G |---------||
D |---0--0--||
A |---0--0--||
D |---0--0--||

E |--------------------------------------------------------------------------|
B |--------------------------------------------------------------------------|
G |--------------------------------------------------------------------------|
D |--3--3-3--3-3-5--5--5-0-0-3--3-3--3-3-5--5--5-0-0-3--3-3--3-3-5-5-5-5-5---|
A |--3--3-3--3-3-5--5--5-0-0-3--3-3--3-3-5--5--5-0-0-3--3-3--3-3-5-5-5-5-5---|
D |--3--3-3--3-3-5--5--5-0-0-3--3-3--3-3-5--5--5-0-0-3--3-3--3-3-5-5-5-5-5---|

5:12 - "Perfectionist..."


E |--------------------------------------------------------------------------------------------------------------------|
B |--------------------------------------------------------------------------------------------------------------------|
G |--------------------------------------------------------------------------------------------------------------------|
D |-0-0-0-0-0-10-10-10-0-8-8-8-0-5-5-5-5--0-0-0-0-0-10-10-10-0-8-8-8-11-11-11-11--0-0-0-0--10-10-10--8-8-8-5-5-5-5-----|
A |-0-0-0-0-0-10-10-10-0-8-8-8-0-5-5-5-5--0-0-0-0-0-10-10-10-0-8-8-8-11-11-11-11--0-0-0-0--10-10-10--8-8-8-5-5-5-5-----|
D |-0-0-0-0-0-10-10-10-0-8-8-8-0-5-5-5-5--0-0-0-0-0-10-10-10-0-8-8-8-11-11-11-11--0-0-0-0--10-10-10--8-8-8-5-5-5-5-----|

E |-----------------------------------------------------------------------------------------------------------------------|
B |-----------------------------------------------------------------------------------------------------------------------|
G |-------------------------------------------------14-14-14--12-12-12-12-12-12-12-----------14-14-14--12-12-12--13--12-10|
D |-12-12-12-0-10-10-10-0-8-8-8-0-5-5-5----0-0-0-0--10-10-10--8--8--8--8--8--8--8---0-0-0-0--10-10-10--8--8--8---11-(11)-0|
A |-12-12-12-0-10-10-10-0-8-8-8-0-5-5-5----0-0-0-0--10-10-10--8--8--8--8--8--8--8---0-0-0-0--10-10-10--8--8--8---11-(11)-0|
D |-12-12-12-0-10-10-10-0-8-8-8-0-5-5-5----0-0-0-0--10-10-10--8--8--8--8--8--8--8---0-0-0-0--10-10-10--8--8--8---11-(11)-0|
																	       (let "10" ring)

E |--------------------------------------------------------------------------------|
B |--------------------------------------------------------------------------------|
G |-----------14-14-14---12-12-12-12-12-12-12--------------------------------------|
D |-0-0-0-0-0-10-10-10-0-8--8--8--8--8--8--8--12-12-12-0-10-10-10-0-8-8-8-0-5-5-5--|
A |-0-0-0-0-0-10-10-10-0-8--8--8--8--8--8--8--12-12-12-0-10-10-10-0-8-8-8-0-5-5-5--|
D |-0-0-0-0-0-10-10-10-0-8--8--8--8--8--8--8--12-12-12-0-10-10-10-0-8-8-8-0-5-5-5--|

5:40


E |---------------------------------------------------------------|
B |---------------------------------------------------------------|
G |---------------------------------------------------------------|
D |-12-12-12--10-10-10--8-8-8--5-5-5---------0------12-12---12/---|
A |-12-12-12--10-10-10--8-8-8--5-5-5---(x4)--0------12-12---12/---|
D |-12-12-12--10-10-10--8-8-8--5-5-5---------0------12-12---12/---|

5:40 - Guitar 2

\\\ - tremelo (pick as quickly as you can)
 b  - bend string

E |------------------------------15\\\--13\\\--15\\\--17\\\--21-21-21 21b--22-------------|
B |----15\\\-----17\\\--18\\\-------------------------------------------------------------|
G |---------------------------------------------------------------------------------------|
D |---------------------------------------------------------------------------------------|
A |---------------------------------------------------------------------------------------|
D |---------------------------------------------------------------------------------------|

Mike Tapia

Courtesy of [URL=http://www.oceansized.co.uk/tabs/guitar/]Oceansized[/URL]
comments
print report bad tab
3 comments total.
0 reply
niggel.n wrote on March 24 2008, 05:51 pm

great !

0 reply
eugene1129 wrote on June 10 2009, 03:08 pm

man, this would be a lot easier if it was on guitar pro!! but great tab nevertheless

0 reply
edaemus wrote on November 15 2010, 02:02 am

Doesn't deserve five stars.

I want to post or [tab]
guest
You may want to rate the tab now too:
select rating
Please do not post tabs as comments. Select "correction" instead!