Oops, an error
Loading. Please wait.

Fifth Column Tab

24 views 1 this week
no commentswrite comment
1 2 3 4 5
excellent!
x 1
add to favorites launch autoscroll
font size
0
reset
Autoscroll
+/-
esc
set tempo
stop
Contributor
Tuning
D A D G B E
WARNING: You are trying to view
                                    content from Ultimate-Guitar.com
                                    in an unauthorized application,
                                    which is prohibited.

                                    Please use an official Ultimate
                                    Guitar Tabs application for iPhone,
                                    iPad or Android to access legitimate
                                    chords, guitar, bass, and drum tabs
                                    from Ultimate-Guitar.com database.

                                    Type "ultimate guitar tabs" in Apple
                                    App Store's or Android Market's
                                    search to find the application.
*##--------------------------OFFICIAL TAB---------------------------------##*
*##-------------------------OCTOBER CRISIS--------------------------------##*
*##--------------------------FIFTH COLUMN---------------------------------##*
 

RIFF1

  Gtrs I, II
  E E E E E E E E E E E E E E E E E E E E E E E E   E E E E E E E E E
|-------------------------------------------------|-------------------|
|-------------------------------------------------|-------------------|
|-------------------------------------------------|-------------------|
|-------------------------------------------------|-------------------|
|-------------5h6-----------------1-------3h5-----|-------------5h6---|
|-0-0-0-0-0-0-----0-0-0-0-0-0-0-0---4p1h4-----5h6-|-0-0-0-0-0-0-----0-|


        TPTPTPTPTP
  E E E E E E E E E   E E E E E E E E E E E E E E E E E E E E E E E
|-------------------|-----------------------------------------------|
|-------------------|-----------------------------------------------|
|-------------------|-----------------------------------------------|
|-------------------|-----------------------------4h5p4---4---------|
|---------5-3---2---|-------------5h6-------------------6---6-5-3-5-|
|-0-0-0-6-----5---1-|-0-0-0-0-0-0-----0-0-0-0-0-0-------------------|


                  TPTPTPTPTP
  E E E E E E E E E E E E E E
|-----------------------------||
|-----------------------------||
|-----------------------------||
|-----------------------------||
|-------------5h6-------------||
|-0-0-0-0-0-0-----5-8-7-3-7-1-||


VERSE 1

Gtr I

  E E E E  E E  E E E E  E E  E E E E   E  E  E  E  E  E  E  E   E E E E
|--------------------------------------------------------------|----------|
|--------------------------------------------------------------|----------|
|--------------------------------------------------------------|----------|
|--------------------------------------------------------------|----------|
|--------------------------------------------------10h12-------|----------|
|-8-8-8-8--8-8--8-8-8-8--8-8--8-8-8-8--13-12-10-12-------12h13-|-0-0-0-0--|


  
  E E  E E E E  E E  E E E E   E  E  E  E  E  E  E  E   E E E E  E E  E E
|-----------------------------------------------------|-------------------|
|-----------------------------------------------------|-------------------|
|-----------------------------------------------------|-------------------|
|-----------------------------------------------------|-------------------|
|-----------------------------13-12-10-12S15-13-12-13-|-------------------|
|-0-0--0-0-0-0--0-0--0-0-0-0--------------------------|-8-8-8-8--8-8--8-8-|


  E E  E E  E E E E   E  E  E  E  E  E  E  E   E E E E  E E  E E E E  E E
|--------------------------------------------|----------------------------|
|--------------------------------------------|----------------------------|
|--------------------------------------------|----------------------------|
|--------------------------------------------|----------------------------|
|--------------------------------------------|----------------------------|
|-8-8--8-8--8-8-8-8--13-12-10-12S15-13-12-13-|-0-0-0-0--0-0--0-0-0-0--0-0-|


  E E E E   E E E  E  E  E E
|----------------------------||
|----------------------------||
|----------------------------||
|----------10-8-7-----7------||
|-----------------10----10-8-||
|-0-0-0-0--------------------||


  E E E E  E E  E E E E  E E  E E E E   E  E  E  E  E  E  E  E   E E E E
|--------------------------------------------------------------|----------|
|--------------------------------------------------------------|----------|
|--------------------------------------------------------------|----------|
|--------------------------------------------------------------|----------|
|--------------------------------------------------10h12-------|----------|
|-8-8-8-8--8-8--8-8-8-8--8-8--8-8-8-8--13-12-10-12-------12h13-|-0-0-0-0--|


  E E  E E E E  E E  E E E E   E  E  E  E  E  E  E  E    E E E E  E E  E
|------------------------------------------------------|-----------------|
|------------------------------------------------------|-----------------|
|------------------------------------------------------|-----------------|
|------------------------------------------------------|-----------------|
|-----------------------------13-12-10-12S15-13-12-13--|-----------------|
|-0-0--0-0-0-0--0-0--0-0-0-0---------------------------|-0-0-0-0--0-0--0-|


  E E E  E E  E E E E   E  E  E  E  E  E  E  E
|----------------------------------------------||
|----------------------------------------------||
|----------------------------------------------||
|----------------------------------------------||
|----------------------------------------------||
|-0-0-0--0-0--0-0-0-0--13-12-10-12S15-13-12-13-||


  Gtr II
  E E E E  E E  E E E E  E E  E E E E  E E  E E E E  E E   E E E
|--------------------------------------------------------|-------|
|--------------------------------------------------------|-------|
|--------------------------------------------------------|-------|
|--------------------------------------------------------|-------|
|--------------------------------------------------------|-------|
|-8-8-8-8--8-8--8-8-8-8--8-8--8-8-8-8--8-8--8-8-8-8--8-8-|-0-0-0-|


  E  E E  E E E E  E E  E E E E  E E  E E E E  E E   E E E E  E
|--------------------------------------------------|------------|
|--------------------------------------------------|------------|
|--------------------------------------------------|------------|
|--------------------------------------------------|------------|
|--------------------------------------------------|------------|
|-0--0-0--0-0-0-0--0-0--0-0-0-0--0-0--0-0-0-0--0-0-|-8-8-8-8--8-|


  E  E E E E  E E  E E E E  E E  E E E E  E E   E E E E  E E  E
|---------------------------------------------|-----------------|
|---------------------------------------------|-----------------|
|---------------------------------------------|-----------------|
|---------------------------------------------|-----------------|
|---------------------------------------------|-----------------|
|-8--8-8-8-8--8-8--8-8-8-8--8-8--8-8-8-8--8-8-|-0-0-0-0--0-0--0-|


  E E E  E E  E E E E  E E  E E E E  E E
|----------------------------------------||
|----------------------------------------||
|----------------------------------------||
|----------------------------------------||
|----------------------------------------||
|-0-0-0--0-0--0-0-0-0--0-0--0-0-0-0--0-0-||


  Gtr III
  E   E   E  E  E  E   E E E E  E E  E E E  E E  E E E  E E  E
|--------------------|-----------------------------------------|
|--------------------|-----------------------------------------|
|-7--12--10--9--7--8-|-7-7-7-7--7-7--7-7-7--7-7--7-7-7--7-7--7-|
|--------------------|-----------------------------------------|
|-5--10---8--7--5--6-|-5-5-6-5--5-5--5-6-5--5-5--5-6-5--5-5--5-|
|--------------------|-----------------------------------------|


  E E
|-----||
|-----||
|-7-7-||
|-----||
|-6-5-||
|-----||


VERSE 2

    Gtrs I, II
    E E E E E E E E   E E E E E E E E
||------------------|-----------------|
||o-----------------|-----------------|
||------------------|-----------------|
||------------------|-----------------|
||o-----------------|-----------------|
||--0-0-0-0-0-0-0-0-|-0-0-0-0-0-0-0-0-|


  E E E E E E E E   E    E E E E E E E   E E  4x
|-----------------|--------------------|------||
|-----------------|--------------------|-----o||
|-----------------|--------------------|------||
|-----------------|--------------------|------||
|-----------------|--------------------|-----o||
|-0-1-1-1-1-1-1-1-|-1b3==1-1-1-1-1-1-1-|-1-1--||


PRECHORUS

      Gtrs I, II
    E E  E E E  E  E E E   E E  E E E  E  E E E   E E  E E E  E  E E E
||-----------------------|----------------------|---------------------|
||o----------------------|----------------------|---------------------|
||-----------------------|----------------------|---------------------|
||-----------------------|----------------------|---------------------|
||o------------/5--------|------------/5--------|------------/6-------|
||--0-0--0-0-0-----0-0-0-|-0-0--0-0-0-----0-0-0-|-0-0--0-0-0-----0-0-0|


  E E  E E E  E  E E E   E E E  E E  E E E   E E E  E E  E E E
|----------------------|-------------------|---------------------|
|----------------------|-------------------|---------------------|
|----------------------|-------------------|---------------------|
|----------------------|---------------0h1-|---------------0h1---|
|------------/6--------|-------------------|---------------------|
|-0-0--0-0-0-----0-0-0-|-1-1-1--1-1--1-----|-1-1-1--1-1--1-------|


  E E E  E E  E E E   E E E  E E  E E E  3x
|-------------------|--------------------||
|-------------------|-------------------o||
|-------------------|--------------------||
|---------------0h1-|---------------0h1--||
|-------------------|-------------------o||
|-0-0-0--0-0--0-----|-0-0-0--0-0--0------||


  Gtr III
  E  E  E   E  E  E   E  E  E   E  E  E
|---------|---------|----1--1-|----0--0-||----|
|---------|---------|----4--4-|----4--4-||----|
|----7--7-|----8--8-|----3--3-|----3--3-||----|
|---------|---------|----1--1-|----0--0-||----|
|----5--5-|----6--6-|-1--1--1-|-0--0--0-||----|
|-0-------|-0-------|-1--1--1-|-0--0--0-||----|


CHORUS

    Gtr I
            TPTPTP         TPTPTP  TPTPTP          TPTPTP       TPTP
    E E E   E E E  E E E   E E E   E E E   E E E   E E E  E E E E E E E
||---------------------------------------|-----------------------------|
||o--------------------------------------|-----------------------------|
||---------------------------------------|-----------------------------|
||---------------------------------------|-----------------------------|
||o-----------8-7------------8-7-----8-7-|-----------8-7--------8-7----|
||--0-0-0--12------0-0-0--12------12-----|-8-8-8--12------7-7-7-----7-7|


    TPTP
  E E E  3x
|--------||
|-------o||
|--------||
|--------||
|---7-8-o||
|-7------||


    Gtr II
  E E E E E E E E   E E E E E E E E   E E E E E E E E   E E E E E E E E E E
|-----------------|-----------------|-----------------|--------------------|
|-----------------|-----------------|-----------------|--------------------|
|-----------------|-----------------|-----------------|--------------------|
|-----------------|-----------------|-----------------|--------------------|
|-----------------|-----------------|-----------------|--------------------|
|-0-0-0-0-0-0-0-0-|-0-0-0-0-0-0-0-0-|-0-0-0-0-8-8-8-8-|-8-8-8-7-7-7-7-7-7-7|


  E E E E E   E E E E E E E E   E E E E E E E E
|-----------|-----------------|-----------------|
|-----------|-----------------|-----------------|
|-----------|-----------------|-----------------|
|-----------|-----------------|-----------------|
|-----------|-----------------|-----------------|
|-3-3-3-3-3-|-0-0-0-0-0-0-0-0-|-0-0-0-0-0-0-0-0-|


  E E E E E E E E   E E E E E E E E   E E
|-----------------|-----------------|-----|
|-----------------|-----------------|-----|
|-----------------|-----------------|-----|
|-----------------|-----------------|-----|
|-----------------|-----------------|-----|
|-0-0-0-0-8-8-8-8-|-8-8-8-7-7-7-7-7-|-7-7-|


                      TP TP TP         TP TP     TP TP TP
  E E E E E   E E E   E  E  E  E E E   E  E  E   E  E  E
|-----------|--------------------------------------------|
|-----------|--------------------------------------------|
|-----------|--------------------------------------------|
|-----------|--------------------------------------------|
|-----------|-----------12-10------------12-10-----12-10-|
|-3-3-3-3-3-|-0-0-0--12--------0-0-0--12--------12-------|


          TP TP TP
  E E E   E  E  E  E E E
|------------------------|
|------------------------|
|------------------------|
|------------------------|
|-----------12-10--------|
|-8-8-8--12--------7-7-7-|


   TP TP TP
   E  E  E
|----------||
|----------||
|----------||
|----------||
|----12-10-||
|-12-------||


BRIDGE

    Gtr I
    E E E E E E E   E E E E E E E   E E E E E E E   E E E E E E E   E E E
||----------------|---------------|---------------|---------------|------|
||o---------------|---------------|---------------|---------------|------|
||----------------|---------------|---------------|---------------|------|
||----------------|---------------|---------------|---------------|------|
||o---3-----7-----|---3-----7-----|---3-----7-----|---3-----7-----|---3--|
||--7---7-3---3-7-|-7---7-3---3-7-|-7---7-3---3-7-|-7---7-3---3-7-|-0---7|


  E E E E   E E E E E E E   E E E E E E E   E E E E E E E  4x
|---------|---------------|---------------|----------------||
|---------|---------------|---------------|---------------o||
|---------|---------------|---------------|----------------||
|---------|---------------|---------------|----------------||
|---7-----|---3-----7-----|---3-----7-----|---3-----7-----o||
|-3---3-7-|-0---7-3---3-7-|-0---7-3---3-7-|-0---7-3---3-7--||


  Gtr II
  E   E E E E   E  E   E E E E   E  E  E E E E   E  E E E E E E
|-------------|----------------|---------------|----------------|
|-------------|----------------|---------------|----------------|
|-------------|----------------|---------------|----------------|
|-3-----3---3-|-5--0-----0---0-|-2--3----3---3-|-5--------------|
|-3-----3---3-|-5--0-----0---0-|-2--3----3---3-|-5--------------|
|-3---3-3-3-3-|-5--0---0-0-0-0-|-2--3--3-3-3-3-|-5--0-0-0-0-0-0-|


  E E E E E E E E E E    E E  E E E E  E
|---------------------|------------------|
|---------------------|------------------|
|---------------------|------------------|
|---------------------|------------------|
|---------------------|----7------8------|
|-0-0-0-0-0-0-0-0-0-0-|-10---10-7---7-10-|


   E E  E E E E  E    E E  E E E E  E
|------------------|------------------|---|
|------------------|------------------|---|
|------------------|------------------|---|
|------------------|------------------|---|
|----7------8------|----7------8------|---|
|-10---10-7---7-10-|-10---10-7---7-10-|---|


   E E  E E E E  E   E E  E E E E  E   E E  E E E E  E   E E  E E E E  E
|------------------|-----------------|-----------------|-----------------|
|------------------|-----------------|-----------------|-----------------|
|------------------|-----------------|-----------------|-----------------|
|------------------|-----------------|-----------------|-----------------|
|----7------8------|---7------8------|---7------8------|---7------8------|
|-10---10-7---7-10-|-0---10-7---7-10-|-0---10-7---7-10-|-0---10-7---7-10-|


  E E  E E E E  E    E E  E E E E  E
|-----------------|------------------|
|-----------------|------------------|
|-----------------|------------------|
|-----------------|------------------|
|---7------8------|----7------8------|
|-0---10-7---7-10-|-10---10-7---7-10-|


   E E  E E E E  E    E E  E E E E  E
|------------------|------------------|
|------------------|------------------|
|------------------|------------------|
|------------------|------------------|
|----7------8------|----7------8------|
|-10---10-7---7-10-|-10---10-7---7-10-|


   E E  E E E E  E   E E  E E E E  E   E E  E E E E  E   E E  E E E E  E
|------------------|-----------------|-----------------|-----------------|
|------------------|-----------------|-----------------|-----------------|
|------------------|-----------------|-----------------|-----------------|
|------------------|-----------------|-----------------|-----------------|
|----7------8------|---7------8------|---7------8------|---7------8------|
|-10---10-7---7-10-|-0---10-7---7-10-|-0---10-7---7-10-|-0---10-7---7-10-|


  E E  E E E E  E
|-----------------||
|-----------------||
|-----------------||
|-----------------||
|---7------8------||
|-0---10-7---7-10-||


SOLO
  Gtr I
                                     ~~
    E  E  E  E  E  E  E  E  E  E  E  E    E  E     E  E
|-----------15----12-------------------|-------------------|
|-----12h13----12----15-13-12-12h13----|----------13-------|
|-/14-------------------------------10-|-12-12b14----12b14-|
|--------------------------------------|-------------------|
|--------------------------------------|-------------------|
|--------------------------------------|-------------------|


   E  E  E  E  E  E  E  E  E    E  E  E  E  E  E  E  E  E
|-13-12-10-13-12-10----------|-13-12-10-13-12-10----------|
|-------------------13-12-10-|-------------------13-12-10-|
|----------------------------|----------------------------|
|----------------------------|----------------------------|
|----------------------------|----------------------------|
|----------------------------|----------------------------|


   E  E  E  E  E  E    E  E  E  E  E  E  E  E  E
|-13-12-10----------|-15-13-12-15-13-12----------|
|----------13-12-10-|-------------------15-13-12-|
|-------------------|----------------------------|
|-------------------|----------------------------|
|-------------------|----------------------------|
|-------------------|----------------------------|


   E  E  E  E  E  E  E  E  E    E  E  E  E  E  E    E
|-15-13-12-15-13-12----------|-15-13-12----------|-17b18-|
|-------------------15-13-12-|----------15-13-12-|-------|
|----------------------------|-------------------|-------|
|----------------------------|-------------------|-------|
|----------------------------|-------------------|-------|
|----------------------------|-------------------|-------|


   E  E  E  E  E  E  E  E  E    E  E  E  E  E  E  E  E  E
|-18-17-15-18-17-15----------|-18-17-15-18-17-15----------|
|-------------------18-17-15-|-------------------18-17-15-|
|----------------------------|----------------------------|
|----------------------------|----------------------------|
|----------------------------|----------------------------|
|----------------------------|----------------------------|


   E  E  E  E  E  E    E  E  E  E  E  E  E  E
|-18-17-15----------|-20-18-17-20-18-17-------|
|----------18-17-15-|-------------------20-18-|
|-------------------|-------------------------|
|-------------------|-------------------------|
|-------------------|-------------------------|
|-------------------|-------------------------|


   E    E  E  E  E  E  E  E  E  E    E  E  E  E  E  E    E
|----|-20-18-17-20-18-17----------|-20-18-17----------|-22b23----|
|-17-|-------------------20-18-17-|----------20-18-17-|----------|
|----|----------------------------|-------------------|----------|
|----|----------------------------|-------------------|----------|
|----|----------------------------|-------------------|----------|
|----|----------------------------|-------------------|----------|


ORDER:
RIFF1
VERSE1
VERSE2
PRECHORUS
CHORUS
RIFF1
BRIDGE
SOLO
VERSE2
PRECHORUS
CHORUS
RIFF1

DOWNLOAD OBSTACLES FOR FREE AT www.octobercrisis.bandcamp.com
comments
We did not receive enough feedback on this tab! Please rate:
print report bad tab
1 2 3 4 5
I want to post or [tab]
guest
You may want to rate the tab now too:
select rating
Please do not post tabs as comments. Select "correction" instead!