Oops, an error
Loading. Please wait.

Forbidden Tab

12 views 1 this week
no commentswrite comment
1 2 3 4 5
excellent!
x 1
add to favorites launch autoscroll
font size
0
reset
Autoscroll
+/-
esc
set tempo
stop
Contributor
WARNING: You are trying to view
                                    content from Ultimate-Guitar.com
                                    in an unauthorized application,
                                    which is prohibited.

                                    Please use an official Ultimate
                                    Guitar Tabs application for iPhone,
                                    iPad or Android to access legitimate
                                    chords, guitar, bass, and drum tabs
                                    from Ultimate-Guitar.com database.

                                    Type "ultimate guitar tabs" in Apple
                                    App Store's or Android Market's
                                    search to find the application.
Gtr I (D A D G B E) - 'Lead'
Gtr II (D A D G B E) - 'Rhythem'

 
RIFF1
  4/4
  Gtr I
  E E  E E  E E  E E  E E  E E  E E E
|-------------------------------------|
|-------------------------------------|
|-------------------------------------|
|-------------------------------------|
|-----12---13---12---10---12---10---8-|
|-0-0----0----0----0----0----0----0---|


  E E  E E  E E  E E  E E  E E  E  E  E
|---------------------------------------|
|---------------------------------------|
|---------------------------------------|
|------------------------------------10-|
|-----12---13---12---10---12---10h12----|
|-0-0----0----0----0----0----0----------|


  E E  E E  E E  E E  E E  E E  E E E   E E E E E E E E E E E E
|-------------------------------------|-------------------------|
|-------------------------------------|-------------------------|
|-------------------------------------|-------------------------|
|-------------------------------------|-1-1-1-1-1-1S5-5-5-5-5-5-|
|-----12---13---12---10---12---10---8-|-1-1-1-1-1-1S5-5-5-5-5-5-|
|-0-0----0----0----0----0----0----0---|-1-1-1-1-1-1S5-5-5-5-5-5-|


  E E  E E  E E  E E  E E  E E  E E E
|-------------------------------------|
|-------------------------------------|
|-------------------------------------|
|-------------------------------------|
|-----12---13---12---10---12---10---8-|
|-0-0----0----0----0----0----0----0---|


  E E  E E  E E  E E  E E  E E  E  E  E
|---------------------------------------|
|---------------------------------------|
|---------------------------------------|
|------------------------------------10-|
|-----12---13---12---10---12---10h12----|
|-0-0----0----0----0----0----0----------|


  E E  E E  E E  E E  E E  E E  E E E   E E E E E E E E E E E E
|-------------------------------------|-------------------------|
|-------------------------------------|-------------------------|
|-------------------------------------|-------------------------|
|-------------------------------------|-5-5-5-5-5-5S1-1-1-1-1-1-|
|-----12---13---12---10---12---10---8-|-5-5-5-5-5-5S1-1-1-1-1-1-|
|-0-0----0----0----0----0----0----0---|-5-5-5-5-5-5S1-1-1-1-1-1-|


  Gtr II
  E E             E E       E      E E
|---------------|----------------|--------|
|---------------|----------------|--------|
|---------------|----------------|--------|
|---------------|-----------1----|--------|
|-0-0-----------|-0-0-------1----|-0-0----|
|-0-0-----------|-0-0-------1----|-0-0----|


  E E E E E E E E E E E E   E E  E E  E E  E E  E E  E E  E E E
|-------------------------|-------------------------------------|
|-------------------------|-------------------------------------|
|-------------------------|-------------------------------------|
|-5-5-5-5-5-5S1-1-1-1-1-1-|-------------------------------------|
|-5-5-5-5-5-5S1-1-1-1-1-1-|-----12---13---12---10---12---10---8-|
|-5-5-5-5-5-5S1-1-1-1-1-1-|-0-0----0----0----0----0----0----0---|


  E E  E E  E E  E E  E E  E E  E  E  E
|---------------------------------------|
|---------------------------------------|
|---------------------------------------|
|------------------------------------10-|
|-----12---13---12---10---12---10h12----|
|-0-0----0----0----0----0----0----------|


  E E  E E  E E  E E  E E  E E  E E E   E E E E E E E E E E E E
|-------------------------------------|-------------------------||
|-------------------------------------|-------------------------||
|-------------------------------------|-------------------------||
|-------------------------------------|-5-5-5-5-5-5S1-1-1-1-1-1-||
|-----12---13---12---10---12---10---8-|-5-5-5-5-5-5S1-1-1-1-1-1-||
|-0-0----0----0----0----0----0----0---|-5-5-5-5-5-5S1-1-1-1-1-1-||

RIFF2 CHORDS-PLAY ACCORDINGLY
  Gtr I
  E   E   E   E   E
|--------------------||
|--------------------||
|-8---7---5---3---2--||
|-----------------2--||
|-6---5---3---1---0--||
|--------------------||


  Gtr II
  E   E   E   E   E
|-1---0--------------||
|-4---3--------------||
|-3---2---5---3---2--||
|-1---0---5---3---2--||
|-1---0---3---1---0--||
|-1---0--------------||


RIFF3
  Gtrs I, II
  E E E E E E E E E E E E E E   E E E E E E E E E E E E E E
|-----------------------------|-----------------------------|
|-----------------------------|-----------------------------|
|-----------------------------|-----------------------------|
|-----------------------------|-----------------------------|
|-----5-----5-----5-5h6p5-----|-----5-----5-----5-5h6p5-----|
|-0-0---0-0---0-0---------8p6-|-0-0---0-0---0-0---------8p6-|


  E E E E E E E E E E E E E E
|--------------------------------|
|--------------------------------|
|--------------------------------|
|--------------------------------|
|-----5-----5-----5-5h6p5---5----|
|-0-0---0-0---0-0---------8------|


  E E E E E E E E E E E E E E E E
|---------------------------------||
|---------------------------------||
|---------------------------------||
|-----------------------------5h6-||
|---------------------------------||
|-6h8-0-6h8-0-6h8-0-6h8-0-6h8-----||


RIFF4
  Gtr I
   E  E  E  E  E  E  E  E  E  E  E  E  E  E  E
|----------------------------------------------|
|----------------------------------------------|
|----------------------------------------------|
|----------------------------------------------|
|----------------------------------------------|
|-12-15-12-15-12-15-12-15-12-15-12-15-12-15-12S|


   E  E  E  E  E  E  E  E  E    E  E  E  E  E  E  E  E
|----------------------------|-------------------------|
|----------------------------|-------------------------|
|----------------------------|-------------------------|
|----------------------------|-------------------------|
|----------------------------|-------------------------|
|-13-16-13-16-13-16-13-16-13-|-13-10-13-10-13-10-13-10-|


   E  E  E  E  E  E  E  E  E  E  E  E  E  E  E  E
|-------------------------------------------------|
|-------------------------------------------------|
|-------------------------------------------------|
|-------------------------------------------------|
|-------------------------------------------------|
|-12-15-12-15-12-15-12-15-12-15-12-15-12-15-12-13S|


   E  E  E  E  E  E  E  E    E  E  E  E  E  E  E  E  E
|-------------------------|----------------------------|
|-------------------------|----------------------------|
|-------------------------|----------------------------|
|-------------------------|----------------------------|
|-------------------------|-10-13-10-13-10-13-10-13-10-|
|-10-13-10-13-10-13-10-13-|----------------------------|

CHORDS- PALY ACCORDINGLY
  Gtr II
   E    E    E     E    E    E
|---------------|--------------|
|---------------|--------------|
|---------------|--------------|
|-12---13---10--|-12---13---12-|
|-12---13---10--|-12---13---10-|
|-12---13---10--|-12---13------|


SOLO
  Gtr I
    E   E E E E E  E E E  E
|--------------------7-9-10b11--|
|-------------7-8-10------------|
|--/7---6-7-9-------------------|
|-------------------------------|
|-------------------------------|
|-------------------------------|


   E  E  E  E  E  E  E  E  E  E  E  E  E  E   E      E  E  E  E  E  E  E
|-13-10-12-10----10------------------------------------------------------|
|-------------13----13-10-12----10-----------12b13r======================|
|----------------------------12----12-10-12--12b13r=10h12p10h12p10h12p10-|
|------------------------------------------------------------------------|
|------------------------------------------------------------------------|
|------------------------------------------------------------------------|


   TP  TP  TP  TP
   E   E   E   E   E  E  E  E  E  E  E  E  E  E  E  E  E
|--------------------------------------------13h15h17-18b19-||
|-----------------------------------13h15h17----------------||
|-15--14-------------------14h15h17-------------------------||
|---------17--15--14h15h17----------------------------------||
|-----------------------------------------------------------||
|-----------------------------------------------------------||


OUTRO

  Gtr I
  E E E  E E E  E E E E E E   E  E E E  E E  E E  E
|---------------------------|-----------------------|
|---------------------------|-----------------------|
|---------------------------|-----------------------|
|---------------------------|-----------------------|
|-------12-----13-----------|---12-----13---12---10-|
|-0-0-0----0-0----0-0-0-0-0-|-0----0-0----0----0----|


  E E E  E E E  E E E E E E
|---------------------------|
|---------------------------|
|---------------------------|
|---------------------------|
|-------12-----13-----------|
|-0-0-0----0-0----0-0-0-0-0-|


   E E E  E E  E E  E   E E E  E E E  E E E E E E   E  E E E  E E  E E  E
|---------------------|---------------------------|-----------------------|
|---------------------|---------------------------|-----------------------|
|---------------------|---------------------------|-----------------------|
|--------12-----------|---------------------------|-----------------------|
|-12----------13---12-|-------12-----13-----------|---12-----13---12---10-|
|----0-0----0----0----|-0-0-0----0-0----0-0-0-0-0-|-0----0-0----0----0----|


  E  E E  E  E  E E  E  E E E E
|-------------------------------||
|-------------------------------||
|-------------------------------||
|-8----8--------7---------------||
|-8-12---12-10--7-7--8--7h8p7S5-||
|-8-------------7---------------||


  Gtr II             Gtrs I, II
  E      E           E E E E   E E E E   E E E E  E E E E
|------------------|--------------------------------------|
|------------------|--------------------------------------|
|------------------|------------------------------7-7-7-7-|
|-8------7---------|------------------------------6-6-6-6-|
|-8------7---------|-0-0-0-0---0-0-0-0---0-0-0-0--5-5-5-5-|
|-8------7---------|-0-0-0-0---0-0-0-0---0-0-0-0----------|


  E E E E  E E E E  E E E E   E E E  E
|--------------------------------------||
|--------------------------------------||
|--------------------------------------||
|---------------------------------3--0-||
|-0-0-0-0--0-0-0-0--0-0-0-0-----3------||
|-0-0-0-0--0-0-0-0--0-0-0-0---3--------||


  Gtr II
  E E E E E E   E E E E E E  E E E E E E   E E E E  E   E
|-0---0---0---|--------------------------|-------------------|
|-3-0-3-0-3-0-|--------------------------|-------------------|
|-2-5-2-5-2-5-|--------------------------|-------------------|
|-0-5-0-5-0-5-|-8-8-8-8-8-8--7-7-7-7-7-7-|-------------------|
|-0-3-0-3-0-3-|-8-8-8-8-8-8--7-7-7-7-7-7-|-0-0-0-0--0---0----|
|-0---0---0---|-8-8-8-8-8-8--7-7-7-7-7-7-|-0-0-0-0--0---0----|

ORDER
RIFF1
RIFF2-2X
RIFF3-2X
RIFF4-2X
RIFF1
RIFF2-2X
RIFF4-2X
SOLO/RIFF2
RIFF1
OUTRO


comments
We did not receive enough feedback on this tab! Please rate:
print report bad tab
1 2 3 4 5
I want to post or [tab]
guest
You may want to rate the tab now too:
select rating
Please do not post tabs as comments. Select "correction" instead!